  0
SECTION
  2
HEADER
  9
$ACADVER
  1
AC1014
  9
$ACADMAINTVER
 70
     9
  9
$DWGCODEPAGE
  3
ANSI_1252
  9
$INSBASE
 10
0.0
 20
0.0
 30
0.0
  9
$EXTMIN
 10
0.5734177375834193
 20
2.905004934623143
 30
-0.0000000349181948
  9
$EXTMAX
 10
30.979454113263
 20
17.45859379453886
 30
0.0000000814935746
  9
$LIMMIN
 10
0.0
 20
0.0
  9
$LIMMAX
 10
31.5
 20
20.8
  9
$ORTHOMODE
 70
     0
  9
$REGENMODE
 70
     1
  9
$FILLMODE
 70
     1
  9
$QTEXTMODE
 70
     0
  9
$MIRRTEXT
 70
     0
  9
$DRAGMODE
 70
     2
  9
$LTSCALE
 40
1.0
  9
$OSMODE
 70
    37
  9
$ATTMODE
 70
     1
  9
$TEXTSIZE
 40
0.125
  9
$TRACEWID
 40
0.05
  9
$TEXTSTYLE
  7
ROMANS
  9
$CLAYER
  8
0
  9
$CELTYPE
  6
BYLAYER
  9
$CECOLOR
 62
   256
  9
$CELTSCALE
 40
1.0
  9
$DELOBJ
 70
     1
  9
$DISPSILH
 70
     0
  9
$DIMSCALE
 40
1.0
  9
$DIMASZ
 40
0.125
  9
$DIMEXO
 40
0.0625
  9
$DIMDLI
 40
0.38
  9
$DIMRND
 40
0.0
  9
$DIMDLE
 40
0.0
  9
$DIMEXE
 40
0.09
  9
$DIMTP
 40
0.0
  9
$DIMTM
 40
0.0
  9
$DIMTXT
 40
0.125
  9
$DIMCEN
 40
0.04
  9
$DIMTSZ
 40
0.0
  9
$DIMTOL
 70
     0
  9
$DIMLIM
 70
     0
  9
$DIMTIH
 70
     1
  9
$DIMTOH
 70
     1
  9
$DIMSE1
 70
     0
  9
$DIMSE2
 70
     0
  9
$DIMTAD
 70
     0
  9
$DIMZIN
 70
     0
  9
$DIMBLK
  1

  9
$DIMASO
 70
     1
  9
$DIMSHO
 70
     1
  9
$DIMPOST
  1

  9
$DIMAPOST
  1

  9
$DIMALT
 70
     0
  9
$DIMALTD
 70
     2
  9
$DIMALTF
 40
25.4
  9
$DIMLFAC
 40
1.0
  9
$DIMTOFL
 70
     0
  9
$DIMTVP
 40
0.0
  9
$DIMTIX
 70
     0
  9
$DIMSOXD
 70
     0
  9
$DIMSAH
 70
     0
  9
$DIMBLK1
  1

  9
$DIMBLK2
  1

  9
$DIMSTYLE
  2
STANDARD
  9
$DIMCLRD
 70
   256
  9
$DIMCLRE
 70
   256
  9
$DIMCLRT
 70
     3
  9
$DIMTFAC
 40
1.0
  9
$DIMGAP
 40
0.09
  9
$DIMJUST
 70
     0
  9
$DIMSD1
 70
     0
  9
$DIMSD2
 70
     0
  9
$DIMTOLJ
 70
     1
  9
$DIMTZIN
 70
     0
  9
$DIMALTZ
 70
     0
  9
$DIMALTTZ
 70
     0
  9
$DIMFIT
 70
     3
  9
$DIMUPT
 70
     1
  9
$DIMUNIT
 70
     2
  9
$DIMDEC
 70
     3
  9
$DIMTDEC
 70
     3
  9
$DIMALTU
 70
     2
  9
$DIMALTTD
 70
     2
  9
$DIMTXSTY
  7
STANDARD
  9
$DIMAUNIT
 70
     0
  9
$LUNITS
 70
     2
  9
$LUPREC
 70
     3
  9
$SKETCHINC
 40
0.05
  9
$FILLETRAD
 40
0.125
  9
$AUNITS
 70
     0
  9
$AUPREC
 70
     0
  9
$MENU
  1
.
  9
$ELEVATION
 40
0.0
  9
$PELEVATION
 40
0.0
  9
$THICKNESS
 40
0.0
  9
$LIMCHECK
 70
     0
  9
$BLIPMODE
 70
     0
  9
$CHAMFERA
 40
0.5
  9
$CHAMFERB
 40
0.5
  9
$CHAMFERC
 40
1.0
  9
$CHAMFERD
 40
0.0
  9
$SKPOLY
 70
     0
  9
$TDCREATE
 40
2452466.402011342
  9
$TDUPDATE
 40
2452509.684013668
  9
$TDINDWG
 40
0.0204259375
  9
$TDUSRTIMER
 40
0.0204259375
  9
$USRTIMER
 70
     1
  9
$ANGBASE
 50
0.0
  9
$ANGDIR
 70
     0
  9
$PDMODE
 70
     0
  9
$PDSIZE
 40
0.0
  9
$PLINEWID
 40
0.0
  9
$COORDS
 70
     0
  9
$SPLFRAME
 70
     0
  9
$SPLINETYPE
 70
     6
  9
$SPLINESEGS
 70
    64
  9
$ATTDIA
 70
     0
  9
$ATTREQ
 70
     1
  9
$HANDLING
 70
 22529
  9
$HANDSEED
  5
13A3
  9
$SURFTAB1
 70
    32
  9
$SURFTAB2
 70
    32
  9
$SURFTYPE
 70
     6
  9
$SURFU
 70
     6
  9
$SURFV
 70
     6
  9
$UCSNAME
  2

  9
$UCSORG
 10
0.0
 20
0.0
 30
0.0
  9
$UCSXDIR
 10
1.0
 20
0.0
 30
0.0
  9
$UCSYDIR
 10
0.0
 20
1.0
 30
0.0
  9
$PUCSNAME
  2

  9
$PUCSORG
 10
0.0
 20
0.0
 30
0.0
  9
$PUCSXDIR
 10
1.0
 20
0.0
 30
0.0
  9
$PUCSYDIR
 10
0.0
 20
1.0
 30
0.0
  9
$USERI1
 70
     0
  9
$USERI2
 70
     0
  9
$USERI3
 70
     0
  9
$USERI4
 70
     0
  9
$USERI5
 70
     0
  9
$USERR1
 40
0.0
  9
$USERR2
 40
0.0
  9
$USERR3
 40
0.0
  9
$USERR4
 40
0.0
  9
$USERR5
 40
0.0
  9
$WORLDVIEW
 70
     1
  9
$SHADEDGE
 70
     3
  9
$SHADEDIF
 70
    70
  9
$TILEMODE
 70
     1
  9
$MAXACTVP
 70
    64
  9
$PINSBASE
 10
0.0
 20
0.0
 30
0.0
  9
$PLIMCHECK
 70
     0
  9
$PEXTMIN
 10
1.000000000000000E+20
 20
1.000000000000000E+20
 30
1.000000000000000E+20
  9
$PEXTMAX
 10
-1.000000000000000E+20
 20
-1.000000000000000E+20
 30
-1.000000000000000E+20
  9
$PLIMMIN
 10
0.0
 20
0.0
  9
$PLIMMAX
 10
12.0
 20
9.0
  9
$UNITMODE
 70
     0
  9
$VISRETAIN
 70
     1
  9
$PLINEGEN
 70
     0
  9
$PSLTSCALE
 70
     1
  9
$TREEDEPTH
 70
  3020
  9
$PICKSTYLE
 70
     1
  9
$CMLSTYLE
  2
STANDARD
  9
$CMLJUST
 70
     0
  9
$CMLSCALE
 40
1.0
  9
$PROXYGRAPHICS
 70
     1
  9
$MEASUREMENT
 70
     0
  0
ENDSEC
  0
SECTION
  2
CLASSES
  0
CLASS
  1
ACDBDICTIONARYWDFLT
  2
AcDbDictionaryWithDefault
  3
AutoCAD 2000
 90
        0
280
     0
281
     0
  0
CLASS
  1
ACDBPLACEHOLDER
  2
AcDbPlaceHolder
  3
AutoCAD 2000
 90
        0
280
     0
281
     0
  0
CLASS
  1
LAYOUT
  2
AcDbLayout
  3
AutoCAD 2000
 90
        0
280
     0
281
     0
  0
CLASS
  1
DICTIONARYVAR
  2
AcDbDictionaryVar
  3
AutoCAD 2000
 90
        0
280
     0
281
     0
  0
CLASS
  1
LONG_TRANSACTION
  2
AcDbLongTransaction
  3
AutoCAD 2000
 90
        0
280
     0
281
     0
  0
CLASS
  1
LWPOLYLINE
  2
AcDbPolyline
  3
AutoCAD 2000
 90
        0
280
     0
281
     1
  0
CLASS
  1
HATCH
  2
AcDbHatch
  3
AutoCAD 2000
 90
        0
280
     0
281
     1
  0
CLASS
  1
XRECORD
  2
AcDbXrecord
  3
AutoCAD 2000
 90
        0
280
     0
281
     0
  0
ENDSEC
  0
SECTION
  2
TABLES
  0
TABLE
  2
VPORT
  5
8
330
0
100
AcDbSymbolTable
 70
     2
  0
VPORT
  5
137C
330
8
100
AcDbSymbolTableRecord
100
AcDbViewportTableRecord
  2
*ACTIVE
 70
     0
 10
0.0
 20
0.0
 11
1.0
 21
1.0
 12
15.75025057332999
 22
10.40065150793278
 13
0.0
 23
0.0
 14
0.5
 24
0.5
 15
5.0
 25
5.0
 16
0.0
 26
0.0
 36
1.0
 17
0.0
 27
0.0
 37
0.0
 40
21.11755209360893
 41
1.781954887218045
 42
50.0
 43
0.0
 44
0.0
 50
0.0
 51
0.0
 71
     0
 72
 15000
 73
     1
 74
     2
 75
     0
 76
     0
 77
     0
 78
     0
  0
ENDTAB
  0
TABLE
  2
LTYPE
  5
5
330
0
100
AcDbSymbolTable
 70
     2
  0
LTYPE
  5
14
330
5
100
AcDbSymbolTableRecord
100
AcDbLinetypeTableRecord
  2
BYBLOCK
 70
     0
  3

 72
    65
 73
     0
 40
0.0
  0
LTYPE
  5
15
330
5
100
AcDbSymbolTableRecord
100
AcDbLinetypeTableRecord
  2
BYLAYER
 70
     0
  3

 72
    65
 73
     0
 40
0.0
  0
LTYPE
  5
16
330
5
100
AcDbSymbolTableRecord
100
AcDbLinetypeTableRecord
  2
CONTINUOUS
 70
     0
  3
Solid line
 72
    65
 73
     0
 40
0.0
  0
ENDTAB
  0
TABLE
  2
LAYER
  5
2
330
0
100
AcDbSymbolTable
 70
    10
  0
LAYER
  5
10
330
2
100
AcDbSymbolTableRecord
100
AcDbLayerTableRecord
  2
0
 70
     0
 62
     7
  6
CONTINUOUS
  0
LAYER
  5
62
330
2
100
AcDbSymbolTableRecord
100
AcDbLayerTableRecord
  2
OBJECT1
 70
     0
 62
     7
  6
CONTINUOUS
  0
LAYER
  5
63
330
2
100
AcDbSymbolTableRecord
100
AcDbLayerTableRecord
  2
OBJECT2
 70
     0
 62
     8
  6
CONTINUOUS
  0
LAYER
  5
65
330
2
100
AcDbSymbolTableRecord
100
AcDbLayerTableRecord
  2
TEXT
 70
     0
 62
     7
  6
CONTINUOUS
  0
ENDTAB
  0
TABLE
  2
STYLE
  5
3
330
0
100
AcDbSymbolTable
 70
     4
  0
STYLE
  5
11
330
3
100
AcDbSymbolTableRecord
100
AcDbTextStyleTableRecord
  2
STANDARD
 70
     0
 40
0.0
 41
1.0
 50
0.0
 71
     0
 42
0.125
  3
romans.shx
  4

  0
STYLE
  5
B3
330
3
100
AcDbSymbolTableRecord
100
AcDbTextStyleTableRecord
  2
ROMANS
 70
     0
 40
0.0
 41
1.0
 50
0.0
 71
     0
 42
0.125
  3
romans.shx
  4

  0
ENDTAB
  0
TABLE
  2
VIEW
  5
6
330
0
100
AcDbSymbolTable
 70
     0
  0
ENDTAB
  0
TABLE
  2
UCS
  5
7
330
0
100
AcDbSymbolTable
 70
     0
  0
ENDTAB
  0
TABLE
  2
APPID
  5
9
330
0
100
AcDbSymbolTable
 70
     1
  0
APPID
  5
12
330
9
100
AcDbSymbolTableRecord
100
AcDbRegAppTableRecord
  2
ACAD
 70
     0
  0
ENDTAB
  0
TABLE
  2
DIMSTYLE
  5
A
330
0
100
AcDbSymbolTable
 70
     4
  0
DIMSTYLE
105
99
330
A
100
AcDbSymbolTableRecord
100
AcDbDimStyleTableRecord
  2
STANDARD
 70
     0
  3

  4

  5

  6

  7

 40
1.0
 41
0.125
 42
0.0625
 43
0.38
 44
0.09
 45
0.0
 46
0.0
 47
0.0
 48
0.0
140
0.125
141
0.04
142
0.0
143
25.4
144
1.0
145
0.0
146
1.0
147
0.09
 71
     0
 72
     0
 73
     1
 74
     1
 75
     0
 76
     0
 77
     0
 78
     0
170
     0
171
     2
172
     0
173
     0
174
     0
175
     0
176
   256
177
   256
178
     3
270
     2
271
     3
272
     3
273
     2
274
     2
340
11
275
     0
280
     0
281
     0
282
     0
283
     1
284
     0
285
     0
286
     0
287
     3
288
     1
  0
ENDTAB
  0
TABLE
  2
BLOCK_RECORD
  5
1
330
0
100
AcDbSymbolTable
 70
     3
  0
BLOCK_RECORD
  5
1F
102
{ACAD_XDICTIONARY
360
139F
102
}
330
1
100
AcDbSymbolTableRecord
100
AcDbBlockTableRecord
  2
*MODEL_SPACE
  0
BLOCK_RECORD
  5
1B
102
{ACAD_XDICTIONARY
360
139D
102
}
330
1
100
AcDbSymbolTableRecord
100
AcDbBlockTableRecord
  2
*PAPER_SPACE
  0
BLOCK_RECORD
  5
6B
330
1
100
AcDbSymbolTableRecord
100
AcDbBlockTableRecord
  2
MARKINS
  0
ENDTAB
  0
ENDSEC
  0
SECTION
  2
BLOCKS
  0
BLOCK
  5
20
330
1F
100
AcDbEntity
  8
0
100
AcDbBlockBegin
  2
*MODEL_SPACE
 70
     0
 10
0.0
 20
0.0
 30
0.0
  3
*MODEL_SPACE
  1

  0
ENDBLK
  5
21
330
1F
100
AcDbEntity
  8
0
100
AcDbBlockEnd
  0
BLOCK
  5
1C
330
1B
100
AcDbEntity
 67
     1
  8
0
100
AcDbBlockBegin
  2
*PAPER_SPACE
 70
     0
 10
0.0
 20
0.0
 30
0.0
  3
*PAPER_SPACE
  1

  0
ENDBLK
  5
1D
330
1B
100
AcDbEntity
 67
     1
  8
0
100
AcDbBlockEnd
  0
BLOCK
  5
6C
330
6B
100
AcDbEntity
  8
0
100
AcDbBlockBegin
  2
MARKINS
 70
     0
 10
0.0
 20
0.0
 30
0.0
  3
MARKINS
  1

  0
ENDBLK
  5
6D
330
6B
100
AcDbEntity
  8
0
100
AcDbBlockEnd
  0
ENDSEC
  0
SECTION
  2
ENTITIES
  0
INSERT
  5
6E
330
1F
100
AcDbEntity
  8
0
100
AcDbBlockReference
  2
MARKINS
 10
45.40693716659052
 20
13.61000626139799
 30
0.0
 41
0.25
 42
0.25
 43
0.25
  0
TEXT
  5
779
330
1F
100
AcDbEntity
  8
OBJECT1
100
AcDbText
 10
3.438991140465136
 20
4.193309886663371
 30
0.0
 40
0.375
  1
WILKINS MODEL 975XLTCU
  7
ROMANS
 72
     1
 11
7.180062569036564
 21
4.380809886663371
 31
0.0
100
AcDbText
 73
     2
  0
TEXT
  5
77A
330
1F
100
AcDbEntity
  8
TEXT
100
AcDbText
 10
3.986168156241589
 20
5.48694191932839
 30
0.0
 40
0.3374831846543262
  1
DIRECTION OF FLOW
  7
ROMANS
 72
     2
 11
9.112698437419211
 21
5.655683511655553
 31
0.0
100
AcDbText
 73
     2
  0
HATCH
  5
77B
330
1F
100
AcDbEntity
  8
OBJECT2
100
AcDbHatch
 10
0.0
 20
0.0
 30
0.0
210
0.0
220
0.0
230
1.0
  2
AR-CONC
 70
     0
 71
     0
 91
        5
 92
        7
 72
     0
 73
     1
 93
        6
 10
11.32933610272043
 20
14.67263205225688
 10
10.70487165595294
 20
14.67263070543666
 10
10.70487165595288
 20
10.38914034570314
 10
8.483544320665416
 20
10.38914034570319
 10
8.295892083796886
 20
9.764675898935678
 10
11.32933610272043
 20
9.764675898935678
 97
        0
 92
        7
 72
     0
 73
     1
 93
        4
 10
11.32933610272043
 20
17.11389416569258
 10
10.70487165595288
 20
17.11389416569255
 10
10.70487165595288
 20
15.00976027530836
 10
11.32933610272043
 20
15.00976027530836
 97
        0
 92
        7
 72
     0
 73
     1
 93
        4
 10
3.641362088703303
 20
17.11389416569258
 10
3.015737858191343
 20
17.11389416569255
 10
3.015737858191343
 20
15.00976027530842
 10
3.64136208870336
 20
15.00976027530845
 97
        0
 92
        7
 72
     0
 73
     1
 93
        4
 10
3.64136208870336
 20
14.67262821119001
 10
3.015737858191229
 20
14.67262870276647
 10
3.015737858191286
 20
14.02497232465651
 10
3.641362088703473
 20
14.02497232465654
 97
        0
 92
        7
 72
     0
 73
     1
 93
        6
 10
3.641362088703417
 20
13.68784026031531
 10
3.015737858191286
 20
13.68784062190499
 10
3.015737858191286
 20
9.764675898935678
 10
6.049181877114776
 20
9.764675898935649
 10
5.861529640246303
 20
10.38914034570316
 10
3.641362088703417
 20
10.38914034570316
 97
        0
 75
     0
 76
     1
 52
45.0
 41
0.0749430078465253
 77
     0
 78
    13
 53
94.99999999999996
 43
-331.0890687489785
 44
-147.2093680694005
 45
0.4133496580173043
 46
0.3468415453883271
 79
     2
 49
0.0562072558848939
 49
-0.6182798147338334
 53
40.00000000000002
 43
-331.0890687489785
 44
-147.2093680694005
 45
-0.4721350794402461
 46
0.325078898388977
 79
     2
 49
0.0449658047079152
 49
-0.4946238517870667
 53
145.4514
 43
-331.0546229475698
 44
-147.1804646058548
 45
-0.0587848971222296
 46
0.6719204840887548
 79
     2
 49
0.0477688155930901
 49
-0.5254569880114529
 53
91.18419999999996
 43
-331.1950541670801
 44
-147.1033826512989
 45
0.6532729534559574
 46
0.4778469340817179
 79
     2
 49
0.0843108838273409
 49
-0.9274197221007497
 53
141.6356
 43
-331.140614729516
 44
-147.0635621078288
 45
-0.0209083609803567
 46
1.011514537295776
 79
     2
 49
0.0716532256379254
 49
-0.7881853561129262
 53
36.18420000000003
 43
-331.1950541670801
 44
-147.1033826512989
 45
-0.0209091508048677
 46
1.011514521191189
 79
     2
 49
0.0674487070618727
 49
-0.7419357776806001
 53
66.0
 43
-331.1155651035039
 44
-147.0768862967735
 45
0.5296758747466316
 46
0.1029585601189915
 79
     2
 49
0.0562072558848939
 49
-0.618279814733833
 53
11.00000000000003
 43
-331.1155651035039
 44
-147.0768862967735
 45
-0.255337267632206
 46
0.5132160394745644
 79
     2
 49
0.0449658047079152
 49
-0.4946238517870667
 53
116.4514
 43
-331.0714254417454
 44
-147.0683064449139
 45
0.2743390852215402
 46
0.6161743806647159
 79
     2
 49
0.0477688155930901
 49
-0.5254569880114529
 53
82.50000000000001
 43
-331.0890687489785
 44
-147.2093680694005
 45
-0.1699656346595151
 46
0.1828533081580939
 79
     6
 49
0.0
 49
-0.4886284111593444
 49
0.0
 49
-0.5021181525717188
 49
0.0
 49
-0.4964974269832297
 53
52.5
 43
-331.0890687489785
 44
-147.2093680694005
 45
-0.0696017763620885
 46
0.3484171255180667
 79
     6
 49
0.0
 49
-0.2862822899737265
 49
0.0
 49
-0.4773869599823659
 49
0.0
 49
-0.1892310948124763
 53
12.5
 43
-331.2072424901618
 44
-147.3275418105838
 45
0.2948394080036885
 46
0.2709345328937288
 79
     6
 49
0.0
 49
-0.1873575196163131
 49
0.0
 49
-0.5845554612028971
 49
0.0
 49
-0.7756601312115365
 53
2.499999999999997
 43
-331.2602351992126
 44
-147.3805345196345
 45
0.2559978079113709
 46
0.3620944919767997
 79
     6
 49
0.0
 49
-0.2435647755012071
 49
0.0
 49
-0.3882047806450008
 49
0.0
 49
-0.5508311076719607
 47
0.071604650439369
 98
        5
 10
10.91120781329264
 20
10.18186247663641
 10
11.01869797872187
 20
15.83863069997517
 10
3.171907362153078
 20
15.8744333141816
 10
3.136078255924175
 20
14.28122978807493
 10
3.082331749838076
 20
12.38370564197282
  0
HATCH
  5
77C
330
1F
100
AcDbEntity
  8
OBJECT1
100
AcDbHatch
 10
0.0
 20
0.0
 30
0.0
210
0.0
220
0.0
230
1.0
  2
EARTH
 70
     0
 71
     0
 91
        1
 92
        7
 72
     1
 73
     1
 93
       84
 10
1.830416011112546
 20
13.68784130698105
 42
0.0
 10
3.0157378581914
 20
13.68784062190502
 42
0.0
 10
3.015737858191343
 20
9.764675898935706
 42
0.0
 10
6.363039169589328
 20
9.764675898935735
 42
0.0
 10
6.363039169589328
 20
9.507127537421041
 42
0.0
 10
6.598432178199445
 20
9.507127537421041
 42
0.0
 10
6.598432178199445
 20
8.112895572264363
 42
0.7902874824673324
 10
7.172536980455888
 20
8.112895572264335
 42
0.0
 10
7.198966813399849
 20
7.392368846597634
 42
0.0
 10
7.030411165870233
 20
7.308157627534569
 42
0.0
 10
6.833763859333075
 20
7.16780292782812
 42
0.0
 10
6.440469246259496
 20
7.364297906656332
 42
0.0
 10
6.524747070024304
 20
7.645005705308335
 42
0.0
 10
6.356191422494802
 20
7.701147585191023
 42
0.0
 10
6.384283081502061
 20
8.066066602906062
 42
0.0
 10
6.131452456950327
 20
8.009926323784242
 42
0.0
 10
6.13145245695027
 20
8.402916281440496
 42
0.0
 10
5.766249502884065
 20
8.37484534149928
 42
0.0
 10
5.766249502884008
 20
8.739765959975215
 42
0.0
 10
5.429138207825062
 20
8.62748220021001
 42
0.0
 10
5.429138207825062
 20
9.048543097807737
 42
0.0
 10
5.092026912765604
 20
9.02047375862719
 42
0.0
 10
4.839196288214324
 20
9.301179956518438
 42
0.0
 10
4.530176652162126
 20
8.992402818685917
 42
0.0
 10
4.361623851375654
 20
9.216968737455431
 42
0.0
 10
4.164976544838893
 20
8.936260938803229
 42
0.0
 10
3.912143073544129
 20
9.160826857572715
 42
0.0
 10
3.687401261257136
 20
8.655553140151198
 42
0.0
 10
3.462662295713172
 20
8.880119058920769
 42
0.0
 10
3.237923330169095
 20
8.487129101264457
 42
0.0
 10
2.956998199867072
 20
8.767836899916432
 42
0.0
 10
2.676073069565674
 20
8.487129101264514
 42
0.0
 10
2.367053433513817
 20
8.76783689991646
 42
0.0
 10
2.507517422036116
 20
9.048543097807737
 42
0.0
 10
2.170406126976658
 20
9.30117995651841
 42
0.0
 10
2.170406126976658
 20
9.104684977690226
 42
0.0
 10
1.777111513903136
 20
8.992402818685945
 42
0.0
 10
1.552369701616143
 20
9.357321836400956
 42
0.0
 10
1.327630736071668
 20
9.048543097807709
 42
0.0
 10
0.9624277820054061
 20
9.357321836400984
 42
0.0
 10
1.187169594292456
 20
9.638029635052959
 42
0.0
 10
0.9624277820054061
 20
10.03101959270941
 42
0.0
 10
1.271444571314233
 20
10.22751617229835
 42
0.0
 10
1.15907508854211
 20
10.56436425007211
 42
0.0
 10
1.636647525380894
 20
10.59243519001338
 42
0.0
 10
1.636647525380894
 20
10.90121392860658
 42
0.0
 10
1.917572655682292
 20
10.98542514766958
 42
0.0
 10
1.861389337667773
 20
11.32227482620427
 42
0.0
 10
2.282775609748725
 20
11.54684074497382
 42
0.0
 10
2.338961774506103
 20
12.02404352245403
 42
0.0
 10
2.142314467969399
 20
12.19246916210144
 42
0.0
 10
2.254683950741409
 20
12.64160099964044
 42
0.0
 10
1.86138933766783
 20
12.66967193958166
 42
0.0
 10
1.889480996675146
 20
13.03459095729692
 42
0.0
 10
1.468094724593967
 20
12.97844907741424
 42
0.0
 10
1.383816900829216
 20
13.34336969588989
 42
0.0
 10
1.383816900829216
 20
13.48372279483538
 42
0.0
 10
1.411908559836419
 20
13.84864341331163
 42
0.0
 10
1.159075088542167
 20
13.87671435325285
 42
0.0
 10
1.130983429534907
 20
14.26970431090913
 42
0.0
 10
0.850058299233396
 20
14.18549149108537
 42
0.0
 10
0.5410415099241135
 20
14.38198807067428
 42
0.0
 10
0.7657804754681337
 20
14.60655398944379
 42
0.0
 10
0.5691331689314865
 20
14.91533112727634
 42
0.0
 10
1.074797264777416
 20
15.05568582698276
 42
0.0
 10
1.187169594292399
 20
15.28025174575205
 42
0.0
 10
1.664742031131183
 20
15.2241098658695
 42
0.0
 10
1.805203172910395
 20
15.44867578463899
 42
0.0
 10
2.058036644204648
 20
15.44867578463902
 42
0.0
 10
2.226592291734093
 20
15.95394950206045
 42
0.0
 10
2.114222808962196
 20
16.23465730071245
 42
0.0
 10
1.777111513903136
 20
16.23465730071245
 42
0.0
 10
1.720925349145645
 20
16.54343603930593
 42
0.0
 10
1.27144457131412
 20
16.51536509936443
 42
0.0
 10
1.182340299000586
 20
16.89337706672438
 42
0.0
 10
3.0157378581914
 20
16.89337706672438
 42
0.0
 10
3.015737858191343
 20
15.00976027530845
 42
0.0
 10
1.323249471896289
 20
15.00976027530842
 42
0.8081400760276878
 10
1.323248090234457
 20
14.84119889900185
 42
0.8083113807090184
 10
1.323284405580793
 20
14.67263003259066
 42
0.0
 10
3.015737858191286
 20
14.67262870276653
 42
0.0
 10
3.015737858191286
 20
14.02497232465651
 42
0.0
 10
1.830460863601771
 20
14.02497232465651
 42
0.808344592237084
 10
1.830417775839393
 20
13.85640200792929
 42
0.808124647707595
 97
        0
 75
     0
 76
     1
 52
0.0
 41
0.75
 77
     0
 78
     6
 53
0.0
 43
-325.0184464344387
 44
-147.1686575228342
 45
0.1875
 46
0.1875
 79
     2
 49
0.1875
 49
-0.1875
 53
0.0
 43
-325.0184464344387
 44
-147.0983450228342
 45
0.1875
 46
0.1875
 79
     2
 49
0.1875
 49
-0.1875
 53
0.0
 43
-325.0184464344387
 44
-147.0280325228342
 45
0.1875
 46
0.1875
 79
     2
 49
0.1875
 49
-0.1875
 53
90.0
 43
-324.9950089344387
 44
-147.0045950228342
 45
-0.1875
 46
0.1875
 79
     2
 49
0.1875
 49
-0.1875
 53
90.0
 43
-324.9246964344387
 44
-147.0045950228342
 45
-0.1875
 46
0.1875
 79
     2
 49
0.1875
 49
-0.1875
 53
90.0
 43
-324.8543839344387
 44
-147.0045950228342
 45
-0.1875
 46
0.1875
 79
     2
 49
0.1875
 49
-0.1875
 47
0.1198270882410543
 98
        1
 10
2.666653197286095
 20
13.15247097653025
  0
LINE
  5
77D
330
1F
100
AcDbEntity
  8
OBJECT1
100
AcDbLine
 10
5.105557758310837
 20
14.67262706071656
 30
0.0
 11
1.323249471896232
 21
14.67263003261811
 31
0.0
  0
LINE
  5
77E
330
1F
100
AcDbEntity
  8
OBJECT1
100
AcDbLine
 10
5.105548451712124
 20
15.00976027530842
 30
0.0
 11
1.323246708572682
 21
15.00976027530842
 31
0.0
  0
LINE
  5
77F
330
1F
100
AcDbEntity
  8
OBJECT1
100
AcDbLine
 10
4.785597038948353
 20
14.02497232465654
 30
0.0
 11
1.830419157501054
 21
14.02497232465651
 31
0.0
  0
LINE
  5
780
330
1F
100
AcDbEntity
  8
OBJECT1
100
AcDbLine
 10
4.785597038948239
 20
13.68783959898613
 30
0.0
 11
1.830416011112433
 21
13.68784130698105
 31
0.0
  0
LINE
  5
781
330
1F
100
AcDbEntity
  8
OBJECT1
  6
CONTINUOUS
100
AcDbLine
 10
3.64136208870336
 20
10.38914034570316
 30
0.0
 11
5.861529640246246
 21
10.38914034570316
 31
0.0
  0
LINE
  5
782
330
1F
100
AcDbEntity
  8
OBJECT1
  6
CONTINUOUS
100
AcDbLine
 10
3.015737858191343
 20
17.11389416569255
 30
0.0
 11
11.32933610272043
 21
17.11389416569255
 31
0.0
  0
LINE
  5
783
330
1F
100
AcDbEntity
  8
OBJECT1
  6
CONTINUOUS
100
AcDbLine
 10
11.32933610272043
 20
17.45769900071812
 30
0.0
 11
3.015737858191343
 21
17.45769900071812
 31
0.0
  0
LINE
  5
784
330
1F
100
AcDbEntity
  8
OBJECT1
  6
CONTINUOUS
100
AcDbLine
 10
3.015737858191286
 20
9.764675898935706
 30
0.0
 11
11.32933610272043
 21
9.764675898935706
 31
0.0
  0
LINE
  5
785
330
1F
100
AcDbEntity
  8
OBJECT1
100
AcDbLine
 10
26.23535799385453
 20
8.351295785843717
 30
0.0
 11
25.95816976108054
 21
8.098346164635785
 31
0.0
  0
LINE
  5
786
330
1F
100
AcDbEntity
  8
OBJECT1
100
AcDbLine
 10
17.19839095297695
 20
8.458879628117529
 30
0.0
 11
17.19839095297689
 21
7.910032047802417
 31
0.0
  0
LINE
  5
788
330
1F
100
AcDbEntity
  8
OBJECT1
100
AcDbLine
 10
17.19839095297689
 20
7.910032047802417
 30
0.0
 11
26.16304805792717
 21
7.910032047802417
 31
0.0
  0
TEXT
  5
789
330
1F
100
AcDbEntity
  8
OBJECT1
100
AcDbText
 10
19.42516575388712
 20
2.968344782555334
 30
0.0
 40
0.1875
  1
(SHOWN WITH OPTIONAL MS)
  7
ROMANS
 72
     1
 11
21.48320146817283
 21
3.062094782555334
 31
0.0
100
AcDbText
 73
     2
  0
TEXT
  5
78A
330
1F
100
AcDbEntity
  8
OBJECT1
100
AcDbText
 10
17.7421300396014
 20
4.119861575351876
 30
0.0
 40
0.375
  1
WILKINS MODEL 975XLTCU
  7
ROMANS
 72
     1
 11
21.48320146817283
 21
4.307361575351876
 31
0.0
100
AcDbText
 73
     2
  0
TEXT
  5
78B
330
1F
100
AcDbEntity
  8
OBJECT1
100
AcDbText
 10
19.02784432531569
 20
3.456624107527147
 30
0.0
 40
0.1875
  1
INDOOR HORIZONTAL INSTALLATION
  7
ROMANS
 72
     1
 11
21.48320146817283
 21
3.550374107527147
 31
0.0
100
AcDbText
 73
     2
  0
TEXT
  5
78C
330
1F
100
AcDbEntity
  8
TEXT
100
AcDbText
 10
18.33819148588153
 20
5.413493608016895
 30
0.0
 40
0.3374831846543262
  1
DIRECTION OF FLOW
  7
ROMANS
 72
     2
 11
23.46472176705916
 21
5.582235200344058
 31
0.0
100
AcDbText
 73
     2
  0
LINE
  5
78D
330
1F
100
AcDbEntity
  8
TEXT
100
AcDbLine
 10
24.33601904781955
 20
5.573482666189768
 30
0.0
 11
24.14396894597194
 21
5.381535202901226
 31
0.0
  0
LINE
  5
78E
330
1F
100
AcDbEntity
  8
TEXT
100
AcDbLine
 10
24.33601904781955
 20
5.573482666189768
 30
0.0
 11
24.14396894597194
 21
5.765430129478311
 31
0.0
  0
LINE
  5
78F
330
1F
100
AcDbEntity
  8
TEXT
100
AcDbLine
 10
23.70188752856575
 20
5.644946181596445
 30
0.0
 11
24.09503107601875
 21
5.644946181596445
 31
0.0
  0
LINE
  5
790
330
1F
100
AcDbEntity
  8
TEXT
100
AcDbLine
 10
23.70188752856575
 20
5.502019150783105
 30
0.0
 11
24.09503107601875
 21
5.502019150783105
 31
0.0
  0
LINE
  5
791
330
1F
100
AcDbEntity
  8
TEXT
100
AcDbLine
 10
23.70188752856575
 20
5.644946181596445
 30
0.0
 11
23.70188752856575
 21
5.502019150783105
 31
0.0
  0
LINE
  5
792
330
1F
100
AcDbEntity
  8
TEXT
100
AcDbLine
 10
23.96405061003747
 20
5.381535202901226
 30
0.0
 11
24.09503107601875
 21
5.502019150783105
 31
0.0
  0
LINE
  5
793
330
1F
100
AcDbEntity
  8
TEXT
100
AcDbLine
 10
23.96405061003747
 20
5.765430129478311
 30
0.0
 11
24.09503107601875
 21
5.644946181596445
 31
0.0
  0
LINE
  5
794
330
1F
100
AcDbEntity
  8
TEXT
100
AcDbLine
 10
24.14396894597194
 20
5.381535202901226
 30
0.0
 11
23.96405061003747
 21
5.381535202901226
 31
0.0
  0
LINE
  5
795
330
1F
100
AcDbEntity
  8
TEXT
100
AcDbLine
 10
24.14396894597194
 20
5.765430129478311
 30
0.0
 11
23.96405061003747
 21
5.765430129478311
 31
0.0
  0
LINE
  5
796
330
1F
100
AcDbEntity
  8
OBJECT1
100
AcDbLine
 10
25.95816976108054
 20
8.098346164635785
 30
0.0
 11
26.16304805792717
 21
7.910032047802417
 31
0.0
  0
LINE
  5
797
330
1F
100
AcDbEntity
  8
OBJECT1
100
AcDbLine
 10
26.13894468793037
 20
8.458879628117529
 30
0.0
 11
17.79219797419912
 21
8.4588796281175
 31
0.0
  0
LINE
  5
798
330
1F
100
AcDbEntity
  8
OBJECT1
100
AcDbLine
 10
26.13341475159271
 20
12.78468296703854
 30
0.0
 11
24.57580254912395
 21
12.78468296703854
 31
0.0
  0
LINE
  5
799
330
1F
100
AcDbEntity
  8
OBJECT1
100
AcDbLine
 10
26.13330743680896
 20
13.13621277268731
 30
0.0
 11
24.57580254912395
 21
13.13622332823979
 31
0.0
  0
HATCH
  5
79A
330
1F
100
AcDbEntity
  8
OBJECT2
100
AcDbHatch
 10
0.0
 20
0.0
 30
0.0
210
0.0
220
0.0
230
1.0
  2
AR-CONC
 70
     0
 71
     1
 91
        1
 92
       33
 93
        6
 72
     1
 10
17.79219797419918
 20
13.13621681192566
 11
17.19839095297689
 21
13.13621529082635
 72
     1
 10
17.79219797419918
 20
17.08479960638416
 11
17.79219797419918
 21
13.13618265278373
 72
     1
 10
17.19839095297689
 20
13.1361896128493
 11
17.19839095297689
 21
17.08479960638416
 72
     1
 10
17.79219797419918
 20
17.08479960638416
 11
17.65020065456312
 21
17.21381908510562
 72
     1
 10
17.39202368222814
 20
16.89127033936259
 11
17.19839095297689
 21
17.08479960638416
 72
     1
 10
17.65020065456312
 20
17.21381908510562
 11
17.39202368222814
 21
16.89127033936259
 97
        6
330
7AA
330
7A0
330
7A1
330
9D7
330
9D8
330
9D9
 75
     0
 76
     1
 52
45.0
 41
0.0749430078465253
 77
     0
 78
    13
 53
94.99999999999991
 43
-299.0899371391979
 44
-150.1158896614476
 45
0.4133496580173043
 46
0.3468415453883271
 79
     2
 49
0.0562072558848939
 49
-0.6182798147338334
 53
40.00000000000002
 43
-299.0899371391979
 44
-150.1158896614476
 45
-0.4721350794402461
 46
0.325078898388977
 79
     2
 49
0.0449658047079152
 49
-0.4946238517870667
 53
145.4514
 43
-299.0554913377893
 44
-150.0869861979019
 45
-0.0587848971222296
 46
0.6719204840887548
 79
     2
 49
0.0477688155930901
 49
-0.5254569880114529
 53
91.18419999999991
 43
-299.1959225572995
 44
-150.0099042433461
 45
0.6532729534559574
 46
0.4778469340817179
 79
     2
 49
0.0843108838273409
 49
-0.9274197221007497
 53
141.6356
 43
-299.1414831197354
 44
-149.970083699876
 45
-0.0209083609803567
 46
1.011514537295776
 79
     2
 49
0.0716532256379254
 49
-0.7881853561129262
 53
36.18420000000003
 43
-299.1959225572995
 44
-150.0099042433461
 45
-0.0209091508048677
 46
1.011514521191189
 79
     2
 49
0.0674487070618727
 49
-0.7419357776806001
 53
66.0
 43
-299.1164334937233
 44
-149.9834078888206
 45
0.5296758747466316
 46
0.1029585601189915
 79
     2
 49
0.0562072558848939
 49
-0.6182798147338326
 53
11.00000000000002
 43
-299.1164334937233
 44
-149.9834078888206
 45
-0.255337267632206
 46
0.5132160394745644
 79
     2
 49
0.0449658047079152
 49
-0.4946238517870667
 53
116.4514
 43
-299.0722938319648
 44
-149.974828036961
 45
0.2743390852215402
 46
0.6161743806647159
 79
     2
 49
0.0477688155930901
 49
-0.5254569880114529
 53
82.50000000000001
 43
-299.0899371391979
 44
-150.1158896614476
 45
-0.1699656346595151
 46
0.1828533081580939
 79
     6
 49
0.0
 49
-0.4886284111593442
 49
0.0
 49
-0.5021181525717183
 49
0.0
 49
-0.4964974269832294
 53
52.5
 43
-299.0899371391979
 44
-150.1158896614476
 45
-0.0696017763620885
 46
0.3484171255180667
 79
     6
 49
0.0
 49
-0.2862822899737265
 49
0.0
 49
-0.4773869599823659
 49
0.0
 49
-0.1892310948124763
 53
12.5
 43
-299.2081108803812
 44
-150.2340634026309
 45
0.2948394080036885
 46
0.2709345328937288
 79
     6
 49
0.0
 49
-0.1873575196163131
 49
0.0
 49
-0.5845554612028971
 49
0.0
 49
-0.7756601312115365
 53
2.499999999999997
 43
-299.261103589432
 44
-150.2870561116817
 45
0.2559978079113709
 46
0.3620944919767997
 79
     6
 49
0.0
 49
-0.2435647755012071
 49
0.0
 49
-0.3882047806450008
 49
0.0
 49
-0.5508311076719607
 98
        1
 10
-299.0899371391979
 20
-150.1158896614476
  0
LINE
  5
79B
330
1F
100
AcDbEntity
  8
OBJECT1
100
AcDbLine
 10
22.80869806030315
 20
13.81815707972757
 30
0.0
 11
22.6965938928507
 21
13.70605241459074
 31
0.0
  0
LINE
  5
79C
330
1F
100
AcDbEntity
  8
OBJECT2
100
AcDbLine
 10
22.23007569329987
 20
14.07179150504598
 30
0.0
 11
22.83725195872929
 21
13.46461523961662
 31
0.0
  0
LINE
  5
79D
330
1F
100
AcDbEntity
  8
OBJECT2
100
AcDbLine
 10
22.69659463937736
 20
13.67494788339107
 30
0.0
 11
22.44040983012777
 21
13.93113119958744
 31
0.0
  0
LINE
  5
79E
330
1F
100
AcDbEntity
  8
OBJECT2
100
AcDbLine
 10
22.64349979661514
 20
13.27149439021926
 30
0.0
 11
22.05127372302999
 21
13.86375231560887
 31
0.0
  0
LINE
  5
79F
330
1F
100
AcDbEntity
  8
OBJECT1
100
AcDbLine
 10
21.54075524181857
 20
13.32334539513576
 30
0.0
 11
22.05127397187229
 21
13.83386412518942
 31
0.0
  0
LINE
  5
7A0
102
{ACAD_REACTORS
330
79A
102
}
330
1F
100
AcDbEntity
  8
OBJECT1
100
AcDbLine
 10
17.79219797419918
 20
17.08479960638416
 30
0.0
 11
17.79219797419918
 21
13.13618265278373
 31
0.0
  0
LINE
  5
7A1
102
{ACAD_REACTORS
330
79A
102
}
330
1F
100
AcDbEntity
  8
OBJECT1
100
AcDbLine
 10
17.19839095297689
 20
13.1361896128493
 30
0.0
 11
17.19839095297689
 21
17.08479960638416
 31
0.0
  0
LINE
  5
7A2
330
1F
100
AcDbEntity
  8
0
100
AcDbLine
 10
18.53773448233406
 20
13.81478654766303
 30
0.0
 11
18.53773448233406
 21
13.4038068851365
 31
0.0
  0
LINE
  5
7A3
330
1F
100
AcDbEntity
  8
0
100
AcDbLine
 10
18.15412954537353
 20
13.81478654766303
 30
0.0
 11
18.15412954537353
 21
13.4038068851365
 31
0.0
  0
LINE
  5
7A4
330
1F
100
AcDbEntity
  8
OBJECT1
100
AcDbLine
 10
17.79219797419918
 20
12.78468296703854
 30
0.0
 11
20.33603782911015
 21
12.78468296703854
 31
0.0
  0
LINE
  5
7A5
330
1F
100
AcDbEntity
  8
OBJECT1
100
AcDbLine
 10
17.79219797419918
 20
13.13621681192566
 30
0.0
 11
20.33603782911015
 21
13.13622332823979
 31
0.0
  0
LINE
  5
7A6
330
1F
100
AcDbEntity
  8
0
100
AcDbLine
 10
20.47204472247287
 20
11.74169841739785
 30
0.0
 11
20.06106505994634
 21
11.74169841739785
 31
0.0
  0
LINE
  5
7A7
330
1F
100
AcDbEntity
  8
0
100
AcDbLine
 10
20.47204472247287
 20
12.12530335435838
 30
0.0
 11
20.06106505994634
 21
12.12530335435838
 31
0.0
  0
HATCH
  5
7A8
330
1F
100
AcDbEntity
  8
OBJECT2
100
AcDbHatch
 10
0.0
 20
0.0
 30
0.0
210
0.0
220
0.0
230
1.0
  2
AR-CONC
 70
     0
 71
     1
 91
        1
 92
        1
 93
        4
 72
     1
 10
17.79219797419918
 20
12.78470668045272
 11
17.19839095297689
 21
12.78471115276403
 72
     1
 10
17.19839095297689
 20
12.78471115276403
 11
17.19839095297695
 21
8.458879628117529
 72
     1
 10
17.19839095297695
 20
8.4588796281175
 11
17.79219797419918
 21
8.4588796281175
 72
     1
 10
17.79219797419918
 20
8.4588796281175
 11
17.79219797419918
 21
12.78470668045272
 97
        4
330
7A9
330
7CB
330
7C0
330
7CC
 75
     0
 76
     1
 52
45.0
 41
0.0749430078465253
 77
     0
 78
    13
 53
94.99999999999991
 43
-299.0899371391979
 44
-150.1158896614476
 45
0.4133496580173043
 46
0.3468415453883271
 79
     2
 49
0.0562072558848939
 49
-0.6182798147338334
 53
40.00000000000002
 43
-299.0899371391979
 44
-150.1158896614476
 45
-0.4721350794402461
 46
0.325078898388977
 79
     2
 49
0.0449658047079152
 49
-0.4946238517870667
 53
145.4514
 43
-299.0554913377893
 44
-150.0869861979019
 45
-0.0587848971222296
 46
0.6719204840887548
 79
     2
 49
0.0477688155930901
 49
-0.5254569880114529
 53
91.18419999999991
 43
-299.1959225572995
 44
-150.0099042433461
 45
0.6532729534559574
 46
0.4778469340817179
 79
     2
 49
0.0843108838273409
 49
-0.9274197221007497
 53
141.6356
 43
-299.1414831197354
 44
-149.970083699876
 45
-0.0209083609803567
 46
1.011514537295776
 79
     2
 49
0.0716532256379254
 49
-0.7881853561129262
 53
36.18420000000003
 43
-299.1959225572995
 44
-150.0099042433461
 45
-0.0209091508048677
 46
1.011514521191189
 79
     2
 49
0.0674487070618727
 49
-0.7419357776806001
 53
66.0
 43
-299.1164334937233
 44
-149.9834078888206
 45
0.5296758747466316
 46
0.1029585601189915
 79
     2
 49
0.0562072558848939
 49
-0.6182798147338326
 53
11.00000000000002
 43
-299.1164334937233
 44
-149.9834078888206
 45
-0.255337267632206
 46
0.5132160394745644
 79
     2
 49
0.0449658047079152
 49
-0.4946238517870667
 53
116.4514
 43
-299.0722938319648
 44
-149.974828036961
 45
0.2743390852215402
 46
0.6161743806647159
 79
     2
 49
0.0477688155930901
 49
-0.5254569880114529
 53
82.50000000000001
 43
-299.0899371391979
 44
-150.1158896614476
 45
-0.1699656346595151
 46
0.1828533081580939
 79
     6
 49
0.0
 49
-0.4886284111593442
 49
0.0
 49
-0.5021181525717183
 49
0.0
 49
-0.4964974269832294
 53
52.5
 43
-299.0899371391979
 44
-150.1158896614476
 45
-0.0696017763620885
 46
0.3484171255180667
 79
     6
 49
0.0
 49
-0.2862822899737265
 49
0.0
 49
-0.4773869599823659
 49
0.0
 49
-0.1892310948124763
 53
12.5
 43
-299.2081108803812
 44
-150.2340634026309
 45
0.2948394080036885
 46
0.2709345328937288
 79
     6
 49
0.0
 49
-0.1873575196163131
 49
0.0
 49
-0.5845554612028971
 49
0.0
 49
-0.7756601312115365
 53
2.499999999999997
 43
-299.261103589432
 44
-150.2870561116817
 45
0.2559978079113709
 46
0.3620944919767997
 79
     6
 49
0.0
 49
-0.2435647755012071
 49
0.0
 49
-0.3882047806450008
 49
0.0
 49
-0.5508311076719607
 98
        1
 10
-299.0899371391979
 20
-150.1158896614476
  0
LINE
  5
7A9
102
{ACAD_REACTORS
330
7A8
102
}
330
1F
100
AcDbEntity
  8
OBJECT1
100
AcDbLine
 10
17.79219797419918
 20
12.78470668045272
 30
0.0
 11
17.19839095297689
 21
12.78471115276403
 31
0.0
  0
LINE
  5
7AA
102
{ACAD_REACTORS
330
79A
102
}
330
1F
100
AcDbEntity
  8
OBJECT1
100
AcDbLine
 10
17.79219797419918
 20
13.13621681192566
 30
0.0
 11
17.19839095297689
 21
13.13621529082635
 31
0.0
  0
LINE
  5
7AB
330
1F
100
AcDbEntity
  8
OBJECT1
100
AcDbLine
 10
16.21525208503638
 20
12.78468296703854
 30
0.0
 11
17.19839095297689
 21
12.78468296703854
 31
0.0
  0
LINE
  5
7AC
330
1F
100
AcDbEntity
  8
OBJECT1
100
AcDbLine
 10
16.21535939982013
 20
13.13621277268731
 30
0.0
 11
17.19839095297689
 21
13.13621529082635
 31
0.0
  0
LINE
  5
7AD
330
1F
100
AcDbEntity
  8
OBJECT1
100
AcDbLine
 10
18.5144981895983
 20
12.78468296703857
 30
0.0
 11
18.51449818959824
 21
12.53093425790964
 31
0.0
  0
LINE
  5
7AE
330
1F
100
AcDbEntity
  8
OBJECT1
100
AcDbLine
 10
18.51449818959835
 20
13.40380688513644
 30
0.0
 11
18.51449818959835
 21
13.13621866217383
 31
0.0
  0
LINE
  5
7AF
330
1F
100
AcDbEntity
  8
0
100
AcDbLine
 10
18.14817633755464
 20
12.2450238330428
 30
0.0
 11
18.14819879218006
 21
12.53094821343788
 31
0.0
  0
LINE
  5
7B0
330
1F
100
AcDbEntity
  8
OBJECT1
100
AcDbLine
 10
18.17736678417284
 20
12.78468296703857
 30
0.0
 11
18.17736717192289
 21
12.53093111152102
 31
0.0
  0
LINE
  5
7B1
330
1F
100
AcDbEntity
  8
OBJECT1
100
AcDbLine
 10
18.17736583810924
 20
13.40380688513642
 30
0.0
 11
18.17736624700367
 21
13.13621779857479
 31
0.0
  0
LINE
  5
7B2
330
1F
100
AcDbEntity
  8
OBJECT2
100
AcDbLine
 10
16.24785150152567
 20
12.85116007742482
 30
0.0
 11
16.21527354799312
 21
12.78470442999534
 31
0.0
  0
LINE
  5
7B3
330
1F
100
AcDbEntity
  8
OBJECT2
100
AcDbLine
 10
16.24785150152567
 20
12.8966341012983
 30
0.0
 11
16.24785150152567
 21
12.85116007742482
 31
0.0
  0
LINE
  5
7B4
330
1F
100
AcDbEntity
  8
OBJECT2
100
AcDbLine
 10
16.20539495826008
 20
12.95450984380406
 30
0.0
 11
16.24785150152567
 21
12.8966341012983
 31
0.0
  0
LINE
  5
7B5
330
1F
100
AcDbEntity
  8
OBJECT1
100
AcDbLine
 10
16.12475511123287
 20
12.92970605468784
 30
0.0
 11
16.15022495571187
 21
12.98757124164106
 31
0.0
  0
LINE
  5
7B6
330
1F
100
AcDbEntity
  8
OBJECT1
100
AcDbLine
 10
16.12475511123287
 20
13.04958124220931
 30
0.0
 11
16.15022495571187
 21
12.98757124164106
 31
0.0
  0
LINE
  5
7B7
330
1F
100
AcDbEntity
  8
OBJECT1
100
AcDbLine
 10
16.15870774955263
 20
12.80929394139582
 30
0.0
 11
16.12475511123287
 21
12.87130394196404
 31
0.0
  0
LINE
  5
7B8
330
1F
100
AcDbEntity
  8
OBJECT1
100
AcDbLine
 10
16.12475511123287
 20
12.87130394196404
 30
0.0
 11
16.12475511123287
 21
12.92970605468784
 31
0.0
  0
LINE
  5
7B9
330
1F
100
AcDbEntity
  8
OBJECT1
100
AcDbLine
 10
16.15870774955263
 20
13.11159124277756
 30
0.0
 11
16.12475511123287
 21
13.04958124220931
 31
0.0
  0
LINE
  5
7BA
330
1F
100
AcDbEntity
  8
OBJECT2
100
AcDbLine
 10
16.15022495571187
 20
12.98757124164106
 30
0.0
 11
16.20539495826008
 21
12.95450984380406
 31
0.0
  0
LINE
  5
7BB
330
1F
100
AcDbEntity
  8
OBJECT1
100
AcDbLine
 10
16.21527354799312
 20
12.78470442999534
 30
0.0
 11
16.15870774955263
 21
12.80929394139582
 31
0.0
  0
LINE
  5
7BC
330
1F
100
AcDbEntity
  8
OBJECT1
100
AcDbLine
 10
16.21527354799312
 20
13.13618040232631
 30
0.0
 11
16.15870774955263
 21
13.11159124277756
 31
0.0
  0
LINE
  5
7BD
330
1F
100
AcDbEntity
  8
0
100
AcDbLine
 10
18.14819879218006
 20
12.53094821343788
 30
0.0
 11
18.54366656934107
 21
12.53091715599271
 31
0.0
  0
LINE
  5
7BE
330
1F
100
AcDbEntity
  8
OBJECT1
100
AcDbLine
 10
18.51449818959835
 20
13.40380688513644
 30
0.0
 11
18.17736583810924
 21
13.40380688513642
 31
0.0
  0
LINE
  5
7BF
330
1F
100
AcDbEntity
  8
0
100
AcDbLine
 10
18.15412954537353
 20
13.4038068851365
 30
0.0
 11
18.53773448233406
 21
13.40380688513639
 31
0.0
  0
LINE
  5
7C0
102
{ACAD_REACTORS
330
7A8
102
}
330
1F
100
AcDbEntity
  8
OBJECT1
100
AcDbLine
 10
17.79219797419918
 20
8.4588796281175
 30
0.0
 11
17.19839095297695
 21
8.4588796281175
 31
0.0
  0
LINE
  5
7C1
330
1F
100
AcDbEntity
  8
0
100
AcDbLine
 10
20.06106505994634
 20
12.12530335435838
 30
0.0
 11
20.06106505994623
 21
11.74169841739785
 31
0.0
  0
LINE
  5
7C2
330
1F
100
AcDbEntity
  8
0
100
AcDbLine
 10
18.94331866143747
 20
11.73576589822968
 30
0.0
 11
18.94331866143747
 21
12.13123367661023
 31
0.0
  0
LINE
  5
7C3
330
1F
100
AcDbEntity
  8
0
100
AcDbLine
 10
18.94332023463184
 20
11.76493427858221
 30
0.0
 11
18.94331708824322
 21
12.10206529625767
 31
0.0
  0
LINE
  5
7C4
330
1F
100
AcDbEntity
  8
OBJECT1
100
AcDbLine
 10
20.06106505994634
 20
11.76493427858224
 30
0.0
 11
18.94332023463184
 21
11.76493427858221
 31
0.0
  0
LINE
  5
7C5
330
1F
100
AcDbEntity
  8
OBJECT1
100
AcDbLine
 10
18.65739428016067
 20
11.73576589822968
 30
0.0
 11
18.61836465965072
 21
11.73576589822968
 31
0.0
  0
LINE
  5
7C6
330
1F
100
AcDbEntity
  8
0
100
AcDbLine
 10
18.65739428016067
 20
11.73576589822968
 30
0.0
 11
18.94331866143747
 21
11.73576589822968
 31
0.0
  0
LINE
  5
7C7
330
1F
100
AcDbEntity
  8
OBJECT1
100
AcDbLine
 10
20.06106505994623
 20
12.10206700425254
 30
0.0
 11
18.94331708824322
 21
12.10206529625767
 31
0.0
  0
LINE
  5
7C8
330
1F
100
AcDbEntity
  8
OBJECT1
100
AcDbLine
 10
18.94331866143747
 20
12.13123367661023
 30
0.0
 11
18.61840290185804
 21
12.13107434015751
 31
0.0
  0
ARC
  5
7C9
330
1F
100
AcDbEntity
  8
OBJECT1
100
AcDbCircle
 10
18.61840478262237
 20
12.20599740672676
 30
0.0
 40
0.0749230665692544
100
AcDbArc
 50
180.0013729999989
 51
269.9986269999945
  0
ARC
  5
7CA
330
1F
100
AcDbEntity
  8
OBJECT1
100
AcDbCircle
 10
18.61836842117926
 20
12.20598016638746
 30
0.0
 40
0.4702139546970791
100
AcDbArc
 50
179.9992680000018
 51
269.999526999994
  0
LINE
  5
7CB
102
{ACAD_REACTORS
330
7A8
102
}
330
1F
100
AcDbEntity
  8
OBJECT1
100
AcDbLine
 10
17.19839095297695
 20
8.458879628117529
 30
0.0
 11
17.19839095297689
 21
12.78471115276403
 31
0.0
  0
LINE
  5
7CC
102
{ACAD_REACTORS
330
7A8
102
}
330
1F
100
AcDbEntity
  8
OBJECT1
100
AcDbLine
 10
17.79219797419918
 20
12.78470668045272
 30
0.0
 11
17.79219797419918
 21
8.4588796281175
 31
0.0
  0
LINE
  5
7CD
330
1F
100
AcDbEntity
  8
OBJECT1
100
AcDbLine
 10
18.54346228148867
 20
12.25285037975444
 30
0.0
 11
18.54348140259227
 21
12.20599552596246
 31
0.0
  0
LINE
  5
7CE
330
1F
100
AcDbEntity
  8
OBJECT1
100
AcDbLine
 10
18.54366656934107
 20
12.53091715599271
 30
0.0
 11
18.54348171613636
 21
12.20600140992851
 31
0.0
  0
LINE
  5
7CF
330
1F
100
AcDbEntity
  8
OBJECT1
100
AcDbLine
 10
18.14815446648216
 20
12.25285037975444
 30
0.0
 11
18.14815446648216
 21
12.20598612214104
 31
0.0
  0
LINE
  5
7D0
330
1F
100
AcDbEntity
  8
OBJECT1
100
AcDbLine
 10
23.52853054965393
 20
13.22436914793721
 30
0.0
 11
22.86516521285531
 21
13.22436989446387
 31
0.0
  0
LINE
  5
7D1
330
1F
100
AcDbEntity
  8
OBJECT2
100
AcDbLine
 10
23.01923662101612
 20
12.58066807003271
 30
0.0
 11
22.92240738450741
 21
12.6774759061104
 31
0.0
  0
LINE
  5
7D2
330
1F
100
AcDbEntity
  8
OBJECT2
100
AcDbLine
 10
23.01923662101612
 20
12.58066807003271
 30
0.0
 11
22.92240738450741
 21
12.48388262975495
 31
0.0
  0
LINE
  5
7D3
330
1F
100
AcDbEntity
  8
OBJECT2
100
AcDbLine
 10
21.34011589837959
 20
12.40232629282104
 30
0.0
 11
21.34011589837959
 21
12.28960500468778
 31
0.0
  0
ARC
  5
7D4
330
1F
100
AcDbEntity
  8
OBJECT1
100
AcDbCircle
 10
21.36344322176759
 20
12.34596564875443
 30
0.0
 40
0.0843127518688572
100
AcDbArc
 50
187.8706784006226
 51
221.9491785174336
  0
LINE
  5
7D5
330
1F
100
AcDbEntity
  8
OBJECT1
100
AcDbLine
 10
21.30073661981779
 20
12.28960500468778
 30
0.0
 11
21.34011589837959
 21
12.28960500468778
 31
0.0
  0
ARC
  5
7D6
330
1F
100
AcDbEntity
  8
OBJECT1
100
AcDbCircle
 10
21.30636757991416
 20
12.2732807586137
 30
0.0
 40
0.0337483184654326
100
AcDbArc
 50
270.0
 51
0.0
  0
LINE
  5
7D7
330
1F
100
AcDbEntity
  8
OBJECT1
100
AcDbLine
 10
21.34011589837959
 20
12.28960500468778
 30
0.0
 11
21.34011589837959
 21
12.2732807586137
 31
0.0
  0
LINE
  5
7D8
330
1F
100
AcDbEntity
  8
OBJECT1
100
AcDbLine
 10
21.29703014476749
 20
12.35751123687669
 30
0.0
 11
21.29703014476749
 21
12.33442006063214
 31
0.0
  0
LINE
  5
7D9
330
1F
100
AcDbEntity
  8
OBJECT1
100
AcDbLine
 10
21.30073661981779
 20
12.40232629282104
 30
0.0
 11
21.34011589837959
 21
12.40232629282104
 31
0.0
  0
ARC
  5
7DA
330
1F
100
AcDbEntity
  8
OBJECT1
100
AcDbCircle
 10
21.37386421684502
 20
12.41865053889512
 30
0.0
 40
0.0337483184654326
100
AcDbArc
 50
90.0
 51
180.0
  0
LINE
  5
7DB
330
1F
100
AcDbEntity
  8
OBJECT1
100
AcDbLine
 10
21.34011589837959
 20
12.41865053889512
 30
0.0
 11
21.34011589837959
 21
12.40232629282104
 31
0.0
  0
LINE
  5
7DC
330
1F
100
AcDbEntity
  8
OBJECT1
100
AcDbLine
 10
21.29703014476749
 20
12.33442006063214
 30
0.0
 11
21.27992472368132
 21
12.33442006063214
 31
0.0
  0
LINE
  5
7DD
330
1F
100
AcDbEntity
  8
OBJECT1
100
AcDbLine
 10
21.29703014476749
 20
12.35751123687669
 30
0.0
 11
21.27992472368132
 21
12.35751123687669
 31
0.0
  0
ARC
  5
7DE
330
1F
100
AcDbEntity
  8
OBJECT1
100
AcDbCircle
 10
21.36344322176759
 20
12.34596564875443
 30
0.0
 40
0.0843127518688572
100
AcDbArc
 50
138.0508214825663
 51
172.1293215993773
  0
LINE
  5
7DF
330
1F
100
AcDbEntity
  8
OBJECT1
100
AcDbLine
 10
22.85653673323517
 20
13.51500578953332
 30
0.0
 11
22.69659463937736
 21
13.67494788339107
 31
0.0
  0
LINE
  5
7E0
330
1F
100
AcDbEntity
  8
OBJECT1
100
AcDbLine
 10
22.72823530114405
 20
13.32487030027104
 30
0.0
 11
22.80296187382711
 21
13.25014372758792
 31
0.0
  0
LINE
  5
7E1
330
1F
100
AcDbEntity
  8
OBJECT1
100
AcDbLine
 10
22.83013320486881
 20
13.45811635173069
 30
0.0
 11
22.72823554998623
 21
13.35621869684811
 31
0.0
  0
ARC
  5
7E2
330
1F
100
AcDbEntity
  8
OBJECT1
100
AcDbCircle
 10
22.71214827360947
 20
13.69050052225421
 30
0.0
 40
0.0219954566430787
100
AcDbArc
 50
135.005248999999
 51
224.9978030000032
  0
ARC
  5
7E3
330
1F
100
AcDbEntity
  8
OBJECT1
100
AcDbCircle
 10
22.743926793967
 20
13.34054487182291
 30
0.0
 40
0.0221788049025111
100
AcDbArc
 50
135.0312189999992
 51
224.9687810000007
  0
ARC
  5
7E4
330
1F
100
AcDbEntity
  8
OBJECT1
100
AcDbCircle
 10
22.84098334784536
 20
13.49945339951236
 30
0.0
 40
0.0219954566430787
100
AcDbArc
 50
315.0017549999993
 51
44.99825299999881
  0
LINE
  5
7E5
330
1F
100
AcDbEntity
  8
OBJECT1
100
AcDbLine
 10
22.83013245834215
 20
13.47182133709694
 30
0.0
 11
22.83013320486881
 21
13.45811635173069
 31
0.0
  0
LINE
  5
7E6
330
1F
100
AcDbEntity
  8
OBJECT1
100
AcDbLine
 10
22.83725195872929
 20
13.46461523961662
 30
0.0
 11
22.83725195872929
 21
13.46461523961662
 31
0.0
  0
LINE
  5
7E7
330
1F
100
AcDbEntity
  8
OBJECT1
100
AcDbLine
 10
22.83725195872929
 20
13.46461523961662
 30
0.0
 11
22.85653673323517
 21
13.48390051180698
 31
0.0
  0
ARC
  5
7E8
330
1F
100
AcDbEntity
  8
OBJECT1
100
AcDbCircle
 10
22.86529087817743
 20
13.31262104190241
 30
0.0
 40
0.0882513942627663
100
AcDbArc
 50
225.0679929999961
 51
269.9183349999948
  0
LINE
  5
856
330
1F
100
AcDbEntity
  8
OBJECT1
100
AcDbLine
 10
21.25079858672867
 20
13.13623922314073
 30
0.0
 11
21.25079858672867
 21
13.13623922314073
 31
0.0
  0
LINE
  5
85B
330
1F
100
AcDbEntity
  8
OBJECT1
100
AcDbLine
 10
21.43728963209636
 20
13.21792438323453
 30
0.0
 11
21.39388010187039
 21
13.1744939502619
 31
0.0
  0
LINE
  5
85C
330
1F
100
AcDbEntity
  8
OBJECT2
100
AcDbLine
 10
21.44446300682452
 20
13.20260043037322
 30
0.0
 11
21.44441995712017
 21
13.0987807181693
 31
0.0
  0
ARC
  5
85D
330
1F
100
AcDbEntity
  8
OBJECT2
100
AcDbCircle
 10
21.45429078153264
 20
13.08009192078466
 30
0.0
 40
0.0211044052171999
100
AcDbArc
 50
89.97294199999954
 51
180.0837399999982
  0
ARC
  5
85E
330
1F
100
AcDbEntity
  8
OBJECT1
100
AcDbCircle
 10
21.45282111937067
 20
13.20250636801338
 30
0.0
 40
0.0218846030889113
100
AcDbArc
 50
89.89499700000331
 51
135.2099909999989
  0
LINE
  5
85F
330
1F
100
AcDbEntity
  8
OBJECT1
100
AcDbLine
 10
21.45286118296835
 20
13.22439079721053
 30
0.0
 11
21.52488234301594
 21
13.22436865025278
 31
0.0
  0
LINE
  5
860
330
1F
100
AcDbEntity
  8
OBJECT1
100
AcDbLine
 10
21.54073384138754
 20
13.29348880767847
 30
0.0
 11
21.54975437192828
 21
13.28446777945342
 31
0.0
  0
ARC
  5
861
330
1F
100
AcDbEntity
  8
OBJECT1
100
AcDbCircle
 10
21.55566362816952
 20
13.30842257593602
 30
0.0
 40
0.0211167222787741
100
AcDbArc
 50
134.9936260000023
 51
225.0072939999969
  0
ARC
  5
862
330
1F
100
AcDbEntity
  8
OBJECT1
100
AcDbCircle
 10
21.37832472574277
 20
13.19008565735393
 30
0.0
 40
0.0220243137587667
100
AcDbArc
 50
270.0104980000053
 51
314.9336399999989
  0
LINE
  5
863
330
1F
100
AcDbEntity
  8
OBJECT1
100
AcDbLine
 10
21.36982328007693
 20
13.16806112998588
 30
0.0
 11
21.3783287072184
 21
13.16806112998588
 31
0.0
  0
LINE
  5
864
330
1F
100
AcDbEntity
  8
OBJECT1
100
AcDbLine
 10
21.36982278239233
 20
13.13627203383399
 30
0.0
 11
21.36982328007693
 21
13.16806112998588
 31
0.0
  0
LINE
  5
865
330
1F
100
AcDbEntity
  8
OBJECT2
100
AcDbLine
 10
21.6091445496389
 20
12.9604319081092
 30
0.0
 11
21.6091445496389
 21
12.9604319081092
 31
0.0
  0
ARC
  5
866
330
1F
100
AcDbEntity
  8
OBJECT2
100
AcDbCircle
 10
21.58802555911606
 20
13.08008594857133
 30
0.0
 40
0.0211205933552688
100
AcDbArc
 50
359.989058999997
 51
89.98519499999973
  0
ARC
  5
867
330
1F
100
AcDbEntity
  8
OBJECT1
100
AcDbCircle
 10
21.5248193859339
 20
13.25959152022343
 30
0.0
 40
0.0352218692774499
100
AcDbArc
 50
270.1022949999984
 51
44.93230399999946
  0
LINE
  5
868
330
1F
100
AcDbEntity
  8
OBJECT2
100
AcDbLine
 10
21.5880310336449
 20
13.10120668098974
 30
0.0
 11
21.45430048637931
 21
13.10119647845866
 31
0.0
  0
LINE
  5
869
330
1F
100
AcDbEntity
  8
OBJECT1
100
AcDbLine
 10
21.25079856658689
 20
13.13623927574255
 30
0.0
 11
21.36982328007693
 21
13.13625038456072
 31
0.0
  0
LINE
  5
86B
330
1F
100
AcDbEntity
  8
OBJECT2
100
AcDbLine
 10
22.70692793705924
 20
12.52785056192672
 30
0.0
 11
22.92240713566511
 21
12.52787270888447
 31
0.0
  0
LINE
  5
86C
330
1F
100
AcDbEntity
  8
OBJECT2
100
AcDbLine
 10
22.70692743937476
 20
12.63349652719645
 30
0.0
 11
22.92240738450741
 21
12.6334855781387
 31
0.0
  0
ARC
  5
86D
330
1F
100
AcDbEntity
  8
OBJECT2
100
AcDbCircle
 10
22.32345236840214
 20
12.60611467563509
 30
0.0
 40
0.3518248987201712
100
AcDbArc
 50
134.9923479999948
 51
180.0041810000024
  0
LINE
  5
86E
330
1F
100
AcDbEntity
  8
OBJECT2
100
AcDbLine
 10
21.97162903267505
 20
12.29500491350288
 30
0.0
 11
21.9716280373062
 21
12.6060890448862
 31
0.0
  0
ARC
  5
86F
330
1F
100
AcDbEntity
  8
OBJECT2
100
AcDbCircle
 10
22.50261627968379
 20
12.52617859103835
 30
0.0
 40
0.1755487441276031
100
AcDbArc
 50
134.9485169999959
 51
180.0608830000016
  0
ARC
  5
870
330
1F
100
AcDbEntity
  8
OBJECT2
100
AcDbCircle
 10
22.34924187858618
 20
12.26734734475971
 30
0.0
 40
0.0221749338260164
100
AcDbArc
 50
179.9368289999995
 51
249.3921360000019
  0
LINE
  5
871
330
1F
100
AcDbEntity
  8
OBJECT2
100
AcDbLine
 10
22.36908082472004
 20
12.23619404048454
 30
0.0
 11
22.34143644461468
 21
12.2465906685118
 31
0.0
  0
LINE
  5
872
330
1F
100
AcDbEntity
  8
OBJECT2
100
AcDbLine
 10
22.40553123337085
 20
12.67735695952839
 30
0.0
 11
22.37859605359776
 21
12.65042177975513
 31
0.0
  0
LINE
  5
873
330
1F
100
AcDbEntity
  8
OBJECT2
100
AcDbLine
 10
22.70692743937476
 20
12.63349652719645
 30
0.0
 11
22.70692793705924
 21
12.52785056192672
 31
0.0
  0
LINE
  5
874
330
1F
100
AcDbEntity
  8
OBJECT2
100
AcDbLine
 10
22.10181382712207
 20
12.88205457118991
 30
0.0
 11
22.0747079415847
 21
12.85492579216813
 31
0.0
  0
LINE
  5
875
330
1F
100
AcDbEntity
  8
OBJECT2
100
AcDbLine
 10
22.92240713566511
 20
12.52787270888447
 30
0.0
 11
22.92240738450741
 21
12.48388262975495
 31
0.0
  0
LINE
  5
876
330
1F
100
AcDbEntity
  8
OBJECT2
100
AcDbLine
 10
22.92240738450741
 20
12.6334855781387
 30
0.0
 11
22.92240738450741
 21
12.6774759061104
 31
0.0
  0
ARC
  5
87C
330
1F
100
AcDbEntity
  8
OBJECT1
100
AcDbCircle
 10
21.64168091059477
 20
12.62878894710175
 30
0.0
 40
0.021962728450896
100
AcDbArc
 50
89.91394399999961
 51
180.1101989999994
  0
LINE
  5
87D
330
1F
100
AcDbEntity
  8
OBJECT1
100
AcDbLine
 10
21.81766562203856
 20
12.69650561733894
 30
0.0
 11
21.45286168065294
 21
12.69651631755445
 31
0.0
  0
LINE
  5
87E
330
1F
100
AcDbEntity
  8
OBJECT1
100
AcDbLine
 10
21.43731103252739
 20
12.70292798624163
 30
0.0
 11
21.3938577060704
 21
12.74636986595649
 31
0.0
  0
ARC
  5
87F
330
1F
100
AcDbEntity
  8
OBJECT1
100
AcDbCircle
 10
21.45283779179962
 20
12.71852292828256
 30
0.0
 40
0.0220067179565179
100
AcDbArc
 50
225.1258240000022
 51
270.0617830000021
  0
LINE
  5
880
330
1F
100
AcDbEntity
  8
OBJECT1
100
AcDbLine
 10
21.61971864917356
 20
12.47459013172343
 30
0.0
 11
21.61971859378215
 21
12.62874664392407
 31
0.0
  0
LINE
  5
881
330
1F
100
AcDbEntity
  8
OBJECT1
100
AcDbLine
 10
21.61971864917356
 20
12.47459013172343
 30
0.0
 11
21.43319221278486
 21
12.4745901317234
 31
0.0
  0
LINE
  5
88F
330
1F
100
AcDbEntity
  8
OBJECT2
100
AcDbLine
 10
21.44444235292016
 20
12.71826463005632
 30
0.0
 11
21.4444413575512
 21
12.82211644290683
 31
0.0
  0
ARC
  5
890
330
1F
100
AcDbEntity
  8
OBJECT2
100
AcDbCircle
 10
21.45432586828596
 20
12.84080797755589
 30
0.0
 40
0.0211395968216975
100
AcDbArc
 50
180.0713809999991
 51
269.9324649999982
  0
ARC
  5
891
330
1F
100
AcDbEntity
  8
OBJECT1
100
AcDbCircle
 10
21.37825206381407
 20
12.7306935525091
 30
0.0
 40
0.0221200349230002
100
AcDbArc
 50
45.12865400000751
 51
89.80207100000409
  0
LINE
  5
892
330
1F
100
AcDbEntity
  8
OBJECT1
100
AcDbLine
 10
21.36982328007693
 20
12.75280268623251
 30
0.0
 11
21.3783284583761
 21
12.7528138841325
 31
0.0
  0
LINE
  5
893
330
1F
100
AcDbEntity
  8
OBJECT1
100
AcDbLine
 10
21.36982328007693
 20
12.78466743041983
 30
0.0
 11
21.36982328007693
 21
12.75280268623251
 31
0.0
  0
ARC
  5
894
330
1F
100
AcDbEntity
  8
OBJECT2
100
AcDbCircle
 10
21.58800440752711
 20
12.84080797755589
 30
0.0
 40
0.0211403006537875
100
AcDbArc
 50
270.0707550000004
 51
359.9871370000004
  0
LINE
  5
895
330
1F
100
AcDbEntity
  8
OBJECT2
100
AcDbLine
 10
21.58803053596042
 20
12.81966758660198
 30
0.0
 11
21.4543009840639
 21
12.81966783544416
 31
0.0
  0
LINE
  5
896
330
1F
100
AcDbEntity
  8
OBJECT1
100
AcDbLine
 10
21.25079904399271
 20
12.78466707592801
 30
0.0
 11
21.36982278239233
 21
12.78466668389316
 31
0.0
  0
LINE
  5
897
330
1F
100
AcDbEntity
  8
OBJECT2
100
AcDbLine
 10
21.65279608194166
 20
12.36107204276666
 30
0.0
 11
21.64083249444374
 21
12.40722008164371
 31
0.0
  0
LINE
  5
898
330
1F
100
AcDbEntity
  8
OBJECT2
100
AcDbLine
 10
21.64083249444374
 20
12.51043834219743
 30
0.0
 11
21.64083149907477
 21
12.32521263439261
 31
0.0
  0
LINE
  5
899
330
1F
100
AcDbEntity
  8
OBJECT2
100
AcDbLine
 10
21.71122122670769
 20
12.52806234393349
 30
0.0
 11
21.71121925877841
 21
12.30758888171735
 31
0.0
  0
LINE
  5
89A
330
1F
100
AcDbEntity
  8
OBJECT2
100
AcDbLine
 10
21.65279608194166
 20
12.36107204276666
 30
0.0
 11
21.64083249444374
 21
12.33990427916833
 31
0.0
  0
LINE
  5
89B
330
1F
100
AcDbEntity
  8
OBJECT2
100
AcDbLine
 10
21.65279608194166
 20
12.30760978446395
 30
0.0
 11
21.64083149907477
 21
12.32521263439261
 31
0.0
  0
LINE
  5
89C
330
1F
100
AcDbEntity
  8
OBJECT2
100
AcDbLine
 10
21.71121925877841
 20
12.36105114002006
 30
0.0
 11
21.65279608194166
 21
12.36107204276666
 31
0.0
  0
LINE
  5
89D
330
1F
100
AcDbEntity
  8
OBJECT2
100
AcDbLine
 10
21.71121925877841
 20
12.30758888171735
 30
0.0
 11
21.65279608194166
 21
12.30760978446395
 31
0.0
  0
LINE
  5
89E
330
1F
100
AcDbEntity
  8
OBJECT2
100
AcDbLine
 10
21.65279633078384
 20
12.47459013172343
 30
0.0
 11
21.64083224560144
 21
12.49573599720619
 31
0.0
  0
LINE
  5
89F
330
1F
100
AcDbEntity
  8
OBJECT2
100
AcDbLine
 10
21.65279633078384
 20
12.47459013172343
 30
0.0
 11
21.64083224560144
 21
12.4284206924153
 31
0.0
  0
LINE
  5
8A0
330
1F
100
AcDbEntity
  8
OBJECT2
100
AcDbLine
 10
21.71121900993611
 20
12.47460108078118
 30
0.0
 11
21.65279633078384
 21
12.47459013172343
 31
0.0
  0
LINE
  5
8A1
330
1F
100
AcDbEntity
  8
OBJECT2
100
AcDbLine
 10
21.65279583309947
 20
12.52805189234166
 30
0.0
 11
21.64083249444374
 21
12.51043834219743
 31
0.0
  0
LINE
  5
8A2
330
1F
100
AcDbEntity
  8
OBJECT2
100
AcDbLine
 10
21.71122122670769
 20
12.52806234393349
 30
0.0
 11
21.65279583309947
 21
12.52805189234166
 31
0.0
  0
ARC
  5
8A3
330
1F
100
AcDbEntity
  8
OBJECT1
100
AcDbCircle
 10
21.81760515337859
 20
12.67445247311539
 30
0.0
 40
0.0220531708744547
100
AcDbArc
 50
0.1522830000021525
 51
89.84215900000046
  0
LINE
  5
8A4
330
1F
100
AcDbEntity
  8
OBJECT1
100
AcDbLine
 10
21.83965979065553
 20
12.67451095103754
 30
0.0
 11
21.83966053718219
 21
12.67274989463376
 31
0.0
  0
LINE
  5
8A5
330
1F
100
AcDbEntity
  8
OBJECT1
100
AcDbLine
 10
21.81679143092523
 20
12.65076295949879
 30
0.0
 11
21.81679143092523
 21
12.65076295949879
 31
0.0
  0
ARC
  5
8A6
330
1F
100
AcDbEntity
  8
OBJECT1
100
AcDbCircle
 10
21.8176601475096
 20
12.67275512032043
 30
0.0
 40
0.0220003834677084
100
AcDbArc
 50
270.0142209999957
 51
359.9864040000009
  0
LINE
  5
8A7
330
1F
100
AcDbEntity
  8
OBJECT2
100
AcDbLine
 10
21.81766562203856
 20
12.69650561733894
 30
0.0
 11
21.8647692150474
 21
12.69651631755451
 31
0.0
  0
LINE
  5
8A8
330
1F
100
AcDbEntity
  8
OBJECT1
100
AcDbLine
 10
21.81679143092523
 20
12.65076295949879
 30
0.0
 11
21.64171400661015
 21
12.65075151275655
 31
0.0
  0
ARC
  5
8A9
330
1F
100
AcDbEntity
  8
OBJECT2
100
AcDbCircle
 10
21.86486302856494
 20
12.91626067184225
 30
0.0
 40
0.2197441206358915
100
AcDbArc
 50
269.9755550000029
 51
307.6321560000022
  0
LINE
  5
8AB
330
1F
100
AcDbEntity
  8
OBJECT2
100
AcDbLine
 10
20.33603820229334
 20
13.13624496320446
 30
0.0
 11
20.33603797637212
 21
12.78466126253667
 31
0.0
  0
LINE
  5
8B2
330
1F
100
AcDbEntity
  8
OBJECT2
100
AcDbLine
 10
21.28056730500984
 20
13.08133915623651
 30
0.0
 11
21.28056724308212
 21
12.83952548298069
 31
0.0
  0
LINE
  5
8B3
330
1F
100
AcDbEntity
  8
OBJECT2
100
AcDbLine
 10
21.25079908441315
 20
12.7846669692154
 30
0.0
 11
21.25079858672867
 21
13.13623922314073
 31
0.0
  0
LINE
  5
8B6
330
1F
100
AcDbEntity
  8
OBJECT2
100
AcDbLine
 10
21.43318622385876
 20
12.84078160028039
 30
0.0
 11
21.43318622385876
 21
13.0800613131914
 31
0.0
  0
LINE
  5
8B7
330
1F
100
AcDbEntity
  8
OBJECT2
100
AcDbLine
 10
21.34007123656803
 20
13.08133911800038
 30
0.0
 11
21.34007098772585
 21
12.83952544474468
 31
0.0
  0
LINE
  5
8B8
330
1F
100
AcDbEntity
  8
OBJECT2
100
AcDbLine
 10
21.36982328007693
 20
13.13625038456072
 30
0.0
 11
21.36982278239233
 21
12.78466668389316
 31
0.0
  0
LINE
  5
8B9
330
1F
100
AcDbEntity
  8
OBJECT2
100
AcDbLine
 10
21.31031930607386
 20
13.13625044579421
 30
0.0
 11
21.31031908015265
 21
12.78466674512642
 31
0.0
  0
LINE
  5
8BA
330
1F
100
AcDbEntity
  8
OBJECT2
100
AcDbLine
 10
21.6091443007966
 20
13.08008196709582
 30
0.0
 11
21.60914529616556
 21
12.84080324955371
 31
0.0
  0
LINE
  5
8BB
330
1F
100
AcDbEntity
  8
OBJECT2
100
AcDbLine
 10
21.54073185064985
 20
13.29349079841634
 30
0.0
 11
22.03161294792707
 21
12.80260970113906
 31
0.0
  0
LINE
  5
8BC
330
1F
100
AcDbEntity
  8
OBJECT2
100
AcDbLine
 10
22.83045855929563
 20
13.23153455627971
 30
0.0
 11
22.36138264174619
 21
12.76246099938768
 31
0.0
  0
LINE
  5
8BD
330
1F
100
AcDbEntity
  8
OBJECT1
100
AcDbLine
 10
23.74174119354504
 20
13.41079776513836
 30
0.0
 11
23.96903517200038
 21
13.41081866788496
 31
0.0
  0
LINE
  5
8BE
330
1F
100
AcDbEntity
  8
OBJECT1
100
AcDbLine
 10
23.74064649746034
 20
13.36727022970333
 30
0.0
 11
23.96903488400707
 21
13.36725977833
 31
0.0
  0
LINE
  5
8BF
330
1F
100
AcDbEntity
  8
OBJECT2
100
AcDbLine
 10
23.86692260132381
 20
13.08137068448255
 30
0.0
 11
23.75250320583981
 21
13.0813485375248
 31
0.0
  0
LINE
  5
8C0
330
1F
100
AcDbEntity
  8
OBJECT1
100
AcDbLine
 10
23.75462906494075
 20
13.20237469399799
 30
0.0
 11
23.86479624453849
 21
13.20239534790241
 31
0.0
  0
LINE
  5
8C1
330
1F
100
AcDbEntity
  8
OBJECT1
100
AcDbLine
 10
23.86479674222286
 20
12.71853259664917
 30
0.0
 11
23.75462931378283
 21
12.71851119621808
 31
0.0
  0
LINE
  5
8C2
330
1F
100
AcDbEntity
  8
OBJECT1
100
AcDbLine
 10
23.75462931378283
 20
12.71851119621808
 30
0.0
 11
23.86479674222286
 21
12.71853259664917
 31
0.0
  0
LINE
  5
8C3
330
1F
100
AcDbEntity
  8
OBJECT2
100
AcDbLine
 10
23.86692334785047
 20
12.83954606216909
 30
0.0
 11
23.75250270815521
 21
12.83953561079576
 31
0.0
  0
ARC
  5
8C4
330
1F
100
AcDbEntity
  8
OBJECT2
100
AcDbCircle
 10
23.39407835994515
 20
13.08011705384908
 30
0.0
 40
0.0211005341407052
100
AcDbArc
 50
89.96262400000231
 51
180.0367429999996
  0
ARC
  5
8C5
330
1F
100
AcDbEntity
  8
OBJECT2
100
AcDbCircle
 10
23.39409677426962
 20
12.84078607944039
 30
0.0
 40
0.0211188337750439
100
AcDbArc
 50
179.9530030000025
 51
269.9826200000035
  0
LINE
  5
8C6
330
1F
100
AcDbEntity
  8
OBJECT2
100
AcDbLine
 10
23.37297803258897
 20
12.8408034983959
 30
0.0
 11
23.37297803258897
 21
13.08010361636908
 31
0.0
  0
LINE
  5
8C7
330
1F
100
AcDbEntity
  8
OBJECT2
100
AcDbLine
 10
23.54893561184244
 20
12.96043165926695
 30
0.0
 11
23.54893561184244
 21
12.96043165926695
 31
0.0
  0
LINE
  5
8C8
330
1F
100
AcDbEntity
  8
OBJECT2
100
AcDbLine
 10
23.52782209584856
 20
13.10120692983198
 30
0.0
 11
23.39409204626744
 21
13.1012176300475
 31
0.0
  0
LINE
  5
8C9
330
1F
100
AcDbEntity
  8
OBJECT2
100
AcDbLine
 10
23.53694987738671
 20
13.20262133311982
 30
0.0
 11
23.53695062391338
 21
13.09912262738211
 31
0.0
  0
ARC
  5
8CA
330
1F
100
AcDbEntity
  8
OBJECT1
100
AcDbCircle
 10
23.5285245774406
 20
13.20234063909365
 30
0.0
 40
0.0220285367513064
100
AcDbArc
 50
44.99301099999363
 51
89.98518799999619
  0
LINE
  5
8CB
330
1F
100
AcDbEntity
  8
OBJECT2
100
AcDbLine
 10
23.73057298967373
 20
13.00112404479304
 30
0.0
 11
23.75250320583981
 21
13.0813485375248
 31
0.0
  0
LINE
  5
8CC
330
1F
100
AcDbEntity
  8
OBJECT2
100
AcDbLine
 10
23.75250320583981
 20
13.0813485375248
 30
0.0
 11
23.73057224314706
 21
13.13625009923848
 31
0.0
  0
LINE
  5
8CD
330
1F
100
AcDbEntity
  8
OBJECT1
100
AcDbLine
 10
23.75462906494075
 20
13.20237469399799
 30
0.0
 11
23.73057224314706
 21
13.13625009923848
 31
0.0
  0
LINE
  5
8CE
330
1F
100
AcDbEntity
  8
OBJECT1
100
AcDbLine
 10
23.61154655443007
 20
13.16807232788588
 30
0.0
 11
23.60306402077307
 21
13.16806088114364
 31
0.0
  0
LINE
  5
8CF
330
1F
100
AcDbEntity
  8
OBJECT1
100
AcDbLine
 10
23.61154655443007
 20
13.16807232788588
 30
0.0
 11
23.61154754979892
 21
13.13625038456072
 31
0.0
  0
ARC
  5
8D0
330
1F
100
AcDbEntity
  8
OBJECT1
100
AcDbCircle
 10
23.60304933908182
 20
13.18998562278076
 30
0.0
 40
0.0219247215180386
100
AcDbArc
 50
224.8771969999993
 51
270.0378270000047
  0
LINE
  5
8D1
330
1F
100
AcDbEntity
  8
OBJECT1
100
AcDbLine
 10
23.73057224314706
 20
13.13625009923848
 30
0.0
 11
23.73057224314706
 21
13.13625009923848
 31
0.0
  0
LINE
  5
8D2
330
1F
100
AcDbEntity
  8
OBJECT1
100
AcDbLine
 10
23.61154752965725
 20
13.13623899042031
 30
0.0
 11
23.73057224314706
 21
13.13625009923848
 31
0.0
  0
ARC
  5
8D3
330
1F
100
AcDbEntity
  8
OBJECT1
100
AcDbCircle
 10
23.74058727301152
 20
13.37425672392291
 30
0.0
 40
0.006986589240905
100
AcDbArc
 50
179.5134279999995
 51
270.4846039999969
  0
LINE
  5
8D4
330
1F
100
AcDbEntity
  8
OBJECT1
100
AcDbLine
 10
23.73360003283264
 20
13.40375234695014
 30
0.0
 11
23.73360093570167
 21
13.37431605530591
 31
0.0
  0
LINE
  5
8D5
330
1F
100
AcDbEntity
  8
OBJECT1
100
AcDbLine
 10
23.5441028470527
 20
13.21791492723011
 30
0.0
 11
23.58751312380545
 21
13.17451559953522
 31
0.0
  0
ARC
  5
8D6
330
1F
100
AcDbEntity
  8
OBJECT2
100
AcDbCircle
 10
23.52778053919755
 20
13.0800535990825
 30
0.0
 40
0.0211533215474516
100
AcDbArc
 50
0.0790559999979922
 51
89.88687100000332
  0
ARC
  5
8D7
330
1F
100
AcDbEntity
  8
OBJECT1
100
AcDbCircle
 10
23.74062389196919
 20
13.40377394458553
 30
0.0
 40
0.0070238923416724
100
AcDbArc
 50
89.81996500000091
 51
180.1761779999991
  0
LINE
  5
8D8
330
1F
100
AcDbEntity
  8
OBJECT1
100
AcDbLine
 10
23.54410334473718
 20
12.70291653949945
 30
0.0
 11
23.58751287496315
 21
12.74635841921431
 31
0.0
  0
LINE
  5
8D9
330
1F
100
AcDbEntity
  8
OBJECT1
100
AcDbLine
 10
23.55220067063484
 20
12.57472895272476
 30
0.0
 11
23.46798002066301
 21
12.65896005406992
 31
0.0
  0
ARC
  5
8DA
330
1F
100
AcDbEntity
  8
OBJECT1
100
AcDbCircle
 10
23.43424871096985
 20
12.34231305481793
 30
0.0
 40
0.0219975681393486
100
AcDbArc
 50
135.0087279999979
 51
224.9930109999936
  0
LINE
  5
8DB
330
1F
100
AcDbEntity
  8
OBJECT1
100
AcDbLine
 10
23.55219992410817
 20
12.56106875895844
 30
0.0
 11
23.55220067063484
 21
12.57472895272476
 31
0.0
  0
ARC
  5
8DC
330
1F
100
AcDbEntity
  8
OBJECT1
100
AcDbCircle
 10
23.4835473412173
 20
12.67450647187755
 30
0.0
 40
0.0219996796356184
100
AcDbArc
 50
90.04511999999401
 51
224.961548000005
  0
ARC
  5
8DD
330
1F
100
AcDbEntity
  8
OBJECT1
100
AcDbCircle
 10
23.52857733199172
 20
12.71854706597807
 30
0.0
 40
0.0220310001636213
100
AcDbArc
 50
269.8796540000011
 51
314.8079829999976
  0
LINE
  5
8DE
330
1F
100
AcDbEntity
  8
OBJECT1
100
AcDbLine
 10
23.52853104733853
 20
12.69651606871227
 30
0.0
 11
23.48352992226168
 21
12.69650611502336
 31
0.0
  0
ARC
  5
8DF
330
1F
100
AcDbEntity
  8
OBJECT1
100
AcDbCircle
 10
23.56307308499023
 20
12.53336291482426
 30
0.0
 40
0.0220021430479333
100
AcDbArc
 50
315.0157320000005
 51
44.97902699999769
  0
LINE
  5
8E0
330
1F
100
AcDbEntity
  8
OBJECT1
100
AcDbLine
 10
23.55935214724749
 20
12.56819908398219
 30
0.0
 11
23.57863667291118
 21
12.54891505600298
 31
0.0
  0
LINE
  5
8E1
330
1F
100
AcDbEntity
  8
OBJECT1
100
AcDbLine
 10
23.57863592638441
 20
12.51780903174997
 30
0.0
 11
23.41869209063119
 21
12.35786519599665
 31
0.0
  0
LINE
  5
8E2
330
1F
100
AcDbEntity
  8
OBJECT2
100
AcDbLine
 10
23.53695087275568
 20
12.71826338584517
 30
0.0
 11
23.5369503750712
 21
12.82176234042518
 31
0.0
  0
LINE
  5
8E3
330
1F
100
AcDbEntity
  8
OBJECT2
100
AcDbLine
 10
23.5278211004796
 20
12.81967878450197
 30
0.0
 11
23.39409055321411
 21
12.8196680842864
 31
0.0
  0
LINE
  5
8E4
330
1F
100
AcDbEntity
  8
OBJECT2
100
AcDbLine
 10
23.75250270815521
 20
12.83953561079576
 30
0.0
 11
23.73057249198936
 21
12.78467759647091
 31
0.0
  0
LINE
  5
8E5
330
1F
100
AcDbEntity
  8
OBJECT1
100
AcDbLine
 10
23.75462931378283
 20
12.71851119621808
 30
0.0
 11
23.73057249198936
 21
12.78467759647091
 31
0.0
  0
LINE
  5
8E6
330
1F
100
AcDbEntity
  8
OBJECT1
100
AcDbLine
 10
23.61154800706296
 20
12.78466679060576
 30
0.0
 11
23.73057174546269
 21
12.78466639857092
 31
0.0
  0
LINE
  5
8E7
330
1F
100
AcDbEntity
  8
OBJECT1
100
AcDbLine
 10
23.61154730095674
 20
12.75280318391699
 30
0.0
 11
23.60306402077307
 21
12.75280243739032
 31
0.0
  0
ARC
  5
8E8
330
1F
100
AcDbEntity
  8
OBJECT1
100
AcDbCircle
 10
23.60310931005741
 20
12.73070524809353
 30
0.0
 40
0.0220971603800767
100
AcDbArc
 50
90.11753099999442
 51
134.8955730000032
  0
LINE
  5
8E9
330
1F
100
AcDbEntity
  8
OBJECT1
100
AcDbLine
 10
23.61154730095674
 20
12.75280318391699
 30
0.0
 11
23.61154804748341
 21
12.78466668389316
 31
0.0
  0
ARC
  5
8EA
330
1F
100
AcDbEntity
  8
OBJECT2
100
AcDbCircle
 10
23.5278146305819
 20
12.8407990192359
 30
0.0
 40
0.0211202414392238
100
AcDbArc
 50
270.0173799999964
 51
359.983902000001
  0
LINE
  5
8EB
330
1F
100
AcDbEntity
  8
OBJECT2
100
AcDbLine
 10
23.5489343676314
 20
13.08008271362248
 30
0.0
 11
23.54893536300025
 21
12.84079304702257
 31
0.0
  0
LINE
  5
8EC
330
1F
100
AcDbEntity
  8
OBJECT2
100
AcDbLine
 10
23.64131626808009
 20
13.08133887091426
 30
0.0
 11
23.64131620615225
 21
12.83952519765844
 31
0.0
  0
LINE
  5
8ED
330
1F
100
AcDbEntity
  8
OBJECT2
100
AcDbLine
 10
23.67106826914422
 20
13.13625016047197
 30
0.0
 11
23.67106804322301
 21
12.78466645980418
 31
0.0
  0
LINE
  5
8EE
330
1F
100
AcDbEntity
  8
OBJECT2
100
AcDbLine
 10
23.61154804748341
 20
12.78466668389316
 30
0.0
 11
23.61154754979892
 21
13.13623893781849
 31
0.0
  0
LINE
  5
8EF
330
1F
100
AcDbEntity
  8
OBJECT2
100
AcDbLine
 10
23.70082019963828
 20
13.08133883267814
 30
0.0
 11
23.7008199507961
 21
12.83952515942243
 31
0.0
  0
LINE
  5
8F0
330
1F
100
AcDbEntity
  8
OBJECT2
100
AcDbLine
 10
23.73057224314706
 20
13.13625009923848
 30
0.0
 11
23.73057174546269
 21
12.78466639857092
 31
0.0
  0
LINE
  5
8F1
330
1F
100
AcDbEntity
  8
OBJECT2
100
AcDbLine
 10
23.73057274083155
 20
12.91978225048526
 30
0.0
 11
23.75250270815521
 21
12.83953561079576
 31
0.0
  0
ARC
  5
8F2
330
1F
100
AcDbEntity
  8
OBJECT1
100
AcDbCircle
 10
24.58490583776901
 20
13.37424335772434
 30
0.0
 40
0.0070055927073336
100
AcDbArc
 50
269.8602600000039
 51
0.3182679999992302
  0
LINE
  5
8F3
330
1F
100
AcDbEntity
  8
OBJECT1
100
AcDbLine
 10
24.59191335649652
 20
13.40375302678873
 30
0.0
 11
24.591911322394
 21
13.37428227236225
 31
0.0
  0
ARC
  5
8F4
330
1F
100
AcDbEntity
  8
OBJECT1
100
AcDbCircle
 10
24.5849438693144
 20
13.40380714208478
 30
0.0
 40
0.0069696972707461
100
AcDbArc
 50
359.5551299999998
 51
90.45261400000036
  0
LINE
  5
8F5
330
1F
100
AcDbEntity
  8
OBJECT2
100
AcDbLine
 10
24.65496074843193
 20
12.81848536466108
 30
0.0
 11
24.65496074843193
 21
13.10245330097831
 31
0.0
  0
LINE
  5
8F6
330
1F
100
AcDbEntity
  8
OBJECT2
100
AcDbLine
 10
24.60221746740339
 20
12.81848536466108
 30
0.0
 11
24.60221746740339
 21
13.10245330097831
 31
0.0
  0
LINE
  5
8F7
330
1F
100
AcDbEntity
  8
OBJECT2
100
AcDbLine
 10
24.62858910791763
 20
12.78470442999534
 30
0.0
 11
24.62856764496089
 21
13.13622332823979
 31
0.0
  0
LINE
  5
8F8
330
1F
100
AcDbEntity
  8
OBJECT1
100
AcDbLine
 10
23.87278631943863
 20
13.18040043275883
 30
0.0
 11
23.99893414652112
 21
13.18040117928544
 31
0.0
  0
LINE
  5
8F9
330
1F
100
AcDbEntity
  8
OBJECT2
100
AcDbLine
 10
23.88885381285874
 20
13.00111234920857
 30
0.0
 11
23.86692260132381
 21
13.08137068448255
 31
0.0
  0
LINE
  5
8FA
330
1F
100
AcDbEntity
  8
OBJECT2
100
AcDbLine
 10
23.86692260132381
 20
13.08137068448255
 30
0.0
 11
23.88883191474323
 21
13.13626104829623
 31
0.0
  0
LINE
  5
8FB
330
1F
100
AcDbEntity
  8
OBJECT1
100
AcDbLine
 10
23.87278631943863
 20
13.18040043275883
 30
0.0
 11
23.86479624453849
 21
13.20239534790241
 31
0.0
  0
LINE
  5
8FC
330
1F
100
AcDbEntity
  8
OBJECT2
100
AcDbLine
 10
24.57547992518342
 20
12.99729038152381
 30
0.0
 11
24.55352830858632
 21
13.0775263209978
 31
0.0
  0
LINE
  5
8FD
330
1F
100
AcDbEntity
  8
OBJECT2
100
AcDbLine
 10
24.57580217586061
 20
13.13626104829623
 30
0.0
 11
24.55352830858632
 21
13.0775263209978
 31
0.0
  0
LINE
  5
8FE
330
1F
100
AcDbEntity
  8
OBJECT1
100
AcDbLine
 10
24.57580217586061
 20
13.13626104829623
 30
0.0
 11
24.5534429557043
 21
13.19459837456642
 31
0.0
  0
LINE
  5
8FF
330
1F
100
AcDbEntity
  8
OBJECT2
100
AcDbLine
 10
24.20481276336735
 20
13.44775377860784
 30
0.0
 11
24.20481276336735
 21
13.41049761884275
 31
0.0
  0
LINE
  5
900
330
1F
100
AcDbEntity
  8
OBJECT2
100
AcDbLine
 10
24.09924194844856
 20
13.44780703084327
 30
0.0
 11
24.09924219729086
 21
13.41049737000057
 31
0.0
  0
LINE
  5
901
330
1F
100
AcDbEntity
  8
OBJECT1
100
AcDbLine
 10
24.07585177496727
 20
13.49175356258396
 30
0.0
 11
24.22822583033311
 21
13.49173166446846
 31
0.0
  0
LINE
  5
902
330
1F
100
AcDbEntity
  8
OBJECT2
100
AcDbLine
 10
24.22822583033311
 20
13.49173166446846
 30
0.0
 11
24.20481226568298
 21
13.48500993837288
 31
0.0
  0
LINE
  5
903
330
1F
100
AcDbEntity
  8
OBJECT1
100
AcDbLine
 10
24.25056414774289
 20
13.48566464225845
 30
0.0
 11
24.22822583033311
 21
13.49173166446846
 31
0.0
  0
LINE
  5
904
330
1F
100
AcDbEntity
  8
OBJECT2
100
AcDbLine
 10
24.20481226568298
 20
13.48500993837288
 30
0.0
 11
24.15203880265025
 21
13.49173216215288
 31
0.0
  0
LINE
  5
905
330
1F
100
AcDbEntity
  8
OBJECT1
100
AcDbLine
 10
24.05349155944199
 20
13.48567459594735
 30
0.0
 11
24.07583037453614
 21
13.49173216215288
 31
0.0
  0
LINE
  5
906
330
1F
100
AcDbEntity
  8
OBJECT2
100
AcDbLine
 10
24.15203880265025
 20
13.49173216215288
 30
0.0
 11
24.09924269497523
 21
13.48500919184621
 31
0.0
  0
LINE
  5
907
330
1F
100
AcDbEntity
  8
OBJECT2
100
AcDbLine
 10
24.07583037453614
 20
13.49173216215288
 30
0.0
 11
24.09924269497523
 21
13.48500919184621
 31
0.0
  0
LINE
  5
908
330
1F
100
AcDbEntity
  8
OBJECT2
100
AcDbLine
 10
24.20481276336735
 20
13.44775377860784
 30
0.0
 11
24.20481226568298
 21
13.48500993837288
 31
0.0
  0
LINE
  5
909
330
1F
100
AcDbEntity
  8
OBJECT2
100
AcDbLine
 10
24.09924194844856
 20
13.44780703084327
 30
0.0
 11
24.09924269497523
 21
13.48500919184621
 31
0.0
  0
LINE
  5
90A
330
1F
100
AcDbEntity
  8
OBJECT1
100
AcDbLine
 10
24.0200698094728
 20
13.20238539421356
 30
0.0
 11
24.02007055599947
 21
13.23807260377012
 31
0.0
  0
LINE
  5
90B
330
1F
100
AcDbEntity
  8
OBJECT2
100
AcDbLine
 10
24.0200698094728
 20
13.20238539421356
 30
0.0
 11
24.0200698094728
 21
13.20238539421356
 31
0.0
  0
LINE
  5
90C
330
1F
100
AcDbEntity
  8
OBJECT2
100
AcDbLine
 10
24.0200698094728
 20
13.20238539421356
 30
0.0
 11
24.0200698094728
 21
13.20238539421356
 31
0.0
  0
LINE
  5
90D
330
1F
100
AcDbEntity
  8
OBJECT1
100
AcDbLine
 10
23.99893414652112
 20
13.18040117928544
 30
0.0
 11
23.99895554695226
 21
13.20238489652914
 31
0.0
  0
LINE
  5
90E
330
1F
100
AcDbEntity
  8
OBJECT1
100
AcDbLine
 10
23.99895554695226
 20
13.20238489652914
 30
0.0
 11
24.0200698094728
 21
13.20238539421356
 31
0.0
  0
LINE
  5
90F
330
1F
100
AcDbEntity
  8
OBJECT1
100
AcDbLine
 10
23.9860040558336
 20
13.37427291008711
 30
0.0
 11
23.98598290424476
 21
13.30795521376344
 31
0.0
  0
LINE
  5
910
330
1F
100
AcDbEntity
  8
OBJECT1
100
AcDbLine
 10
24.02709338118345
 20
13.34497472457556
 30
0.0
 11
24.02709412771011
 21
13.32560111339645
 31
0.0
  0
LINE
  5
911
330
1F
100
AcDbEntity
  8
OBJECT1
100
AcDbLine
 10
24.01083427925263
 20
13.37427346912468
 30
0.0
 11
24.01083427925263
 21
13.30796666050562
 31
0.0
  0
LINE
  5
912
330
1F
100
AcDbEntity
  8
OBJECT2
100
AcDbLine
 10
23.98598291045581
 20
13.30797468736554
 30
0.0
 11
23.98600354311915
 21
13.27278332726544
 31
0.0
  0
LINE
  5
913
330
1F
100
AcDbEntity
  8
OBJECT1
100
AcDbLine
 10
23.97814299612727
 20
13.30797718785416
 30
0.0
 11
23.98598291045581
 21
13.30797468736554
 31
0.0
  0
ARC
  5
914
330
1F
100
AcDbEntity
  8
OBJECT1
100
AcDbCircle
 10
23.97811973887777
 20
13.30095403785279
 30
0.0
 40
0.0070231885095824
100
AcDbArc
 50
89.81026499999705
 51
180.0929260000021
  0
ARC
  5
915
330
1F
100
AcDbEntity
  8
OBJECT1
100
AcDbCircle
 10
23.97837654405074
 20
13.2758164942899
 30
0.0
 40
0.0073019060172033
100
AcDbArc
 50
181.1378170000001
 51
234.1926270000044
  0
LINE
  5
916
330
1F
100
AcDbEntity
  8
OBJECT1
100
AcDbLine
 10
23.97107601094725
 20
13.27567166811681
 30
0.0
 11
23.97109691369391
 21
13.30094259111061
 31
0.0
  0
LINE
  5
917
330
1F
100
AcDbEntity
  8
OBJECT2
100
AcDbLine
 10
24.01083328388367
 20
13.27279380782155
 30
0.0
 11
24.01083427925263
 21
13.30796666050562
 31
0.0
  0
LINE
  5
918
330
1F
100
AcDbEntity
  8
OBJECT1
100
AcDbLine
 10
23.98600380699142
 20
13.37427271413625
 30
0.0
 11
23.97608022802782
 21
13.37427241240269
 31
0.0
  0
LINE
  5
919
330
1F
100
AcDbEntity
  8
OBJECT2
100
AcDbLine
 10
23.97608072571219
 20
13.40377415085166
 30
0.0
 11
23.97608022802782
 21
13.37427241240269
 31
0.0
  0
ARC
  5
91A
330
1F
100
AcDbEntity
  8
OBJECT1
100
AcDbCircle
 10
23.96904160274706
 20
13.37429828057392
 30
0.0
 40
0.0070386728155614
100
AcDbArc
 50
269.9459080000016
 51
359.7894290000001
  0
LINE
  5
91B
330
1F
100
AcDbEntity
  8
OBJECT2
100
AcDbLine
 10
24.00376765783752
 20
13.26574908452212
 30
0.0
 11
23.99300622711311
 21
13.26573714009546
 31
0.0
  0
ARC
  5
91C
330
1F
100
AcDbEntity
  8
OBJECT2
100
AcDbCircle
 10
24.00383111260416
 20
13.27275175348606
 30
0.0
 40
0.0070031292950188
100
AcDbArc
 50
269.4796449999994
 51
0.345641999998643
  0
LINE
  5
91D
330
1F
100
AcDbEntity
  8
OBJECT2
100
AcDbLine
 10
24.02007055599947
 20
13.23810495325895
 30
0.0
 11
24.0200698094728
 21
13.28375978685235
 31
0.0
  0
ARC
  5
91E
330
1F
100
AcDbEntity
  8
OBJECT2
100
AcDbCircle
 10
23.99302986712425
 20
13.27276220485939
 30
0.0
 40
0.0070263557539872
100
AcDbArc
 50
179.827759000002
 51
269.8083949999934
  0
LINE
  5
91F
330
1F
100
AcDbEntity
  8
OBJECT1
100
AcDbLine
 10
24.02007055599947
 20
13.23807260377012
 30
0.0
 11
23.9741041719445
 21
13.26989429825303
 31
0.0
  0
LINE
  5
920
330
1F
100
AcDbEntity
  8
OBJECT2
100
AcDbLine
 10
24.06403799048675
 20
13.32557896643876
 30
0.0
 11
24.23999606742481
 21
13.32557871759652
 31
0.0
  0
LINE
  5
921
330
1F
100
AcDbEntity
  8
OBJECT2
100
AcDbLine
 10
24.2400179655402
 20
13.3079880609367
 30
0.0
 11
24.06403749280238
 21
13.30797736072119
 31
0.0
  0
LINE
  5
922
330
1F
100
AcDbEntity
  8
OBJECT2
100
AcDbLine
 10
24.21802305039668
 20
13.34501802312215
 30
0.0
 11
24.15203880265025
 21
13.35194454636624
 31
0.0
  0
LINE
  5
923
330
1F
100
AcDbEntity
  8
OBJECT2
100
AcDbLine
 10
24.22816162903981
 20
13.40377390200941
 30
0.0
 11
24.07591647394494
 21
13.4037743996939
 31
0.0
  0
LINE
  5
924
330
1F
100
AcDbEntity
  8
OBJECT1
100
AcDbLine
 10
24.20481326105184
 20
13.35192314593516
 30
0.0
 11
24.24749194167233
 21
13.35192289709297
 31
0.0
  0
LINE
  5
925
330
1F
100
AcDbEntity
  8
OBJECT1
100
AcDbLine
 10
24.28400729814311
 20
13.3079661628212
 30
0.0
 11
24.28400655161644
 21
13.20238514537132
 31
0.0
  0
LINE
  5
926
330
1F
100
AcDbEntity
  8
OBJECT2
100
AcDbLine
 10
24.21802305039668
 20
13.34501802312215
 30
0.0
 11
24.21802305039668
 21
13.32557896643871
 31
0.0
  0
LINE
  5
927
330
1F
100
AcDbEntity
  8
OBJECT1
100
AcDbLine
 10
24.27696207715925
 20
13.34499687153331
 30
0.0
 11
24.27696207715925
 21
13.3255901643387
 31
0.0
  0
LINE
  5
928
330
1F
100
AcDbEntity
  8
OBJECT1
100
AcDbLine
 10
24.27696207715925
 20
13.3255901643387
 30
0.0
 11
24.23999606742481
 21
13.32557871759652
 31
0.0
  0
LINE
  5
929
330
1F
100
AcDbEntity
  8
OBJECT1
100
AcDbLine
 10
24.23999606742481
 20
13.32557871759652
 30
0.0
 11
24.2400179655402
 21
13.3079880609367
 31
0.0
  0
LINE
  5
92A
330
1F
100
AcDbEntity
  8
OBJECT1
100
AcDbLine
 10
24.2400179655402
 20
13.3079880609367
 30
0.0
 11
24.28400729814311
 21
13.3079661628212
 31
0.0
  0
LINE
  5
92B
330
1F
100
AcDbEntity
  8
OBJECT1
100
AcDbLine
 10
24.22816162903981
 20
13.40377390200941
 30
0.0
 11
24.25056315237393
 21
13.40987476676159
 31
0.0
  0
LINE
  5
92C
330
1F
100
AcDbEntity
  8
OBJECT1
100
AcDbLine
 10
24.27696207715925
 20
13.34499687153331
 30
0.0
 11
24.24749194167233
 21
13.35192289709297
 31
0.0
  0
LINE
  5
92D
330
1F
100
AcDbEntity
  8
OBJECT2
100
AcDbLine
 10
24.21802305039668
 20
13.34501802312215
 30
0.0
 11
24.24749194167233
 21
13.35192289709297
 31
0.0
  0
LINE
  5
92E
330
1F
100
AcDbEntity
  8
OBJECT2
100
AcDbLine
 10
24.0860326567882
 20
13.34501802312215
 30
0.0
 11
24.0860326567882
 21
13.32557946412319
 31
0.0
  0
LINE
  5
92F
330
1F
100
AcDbEntity
  8
OBJECT1
100
AcDbLine
 10
24.06403799048675
 20
13.32557896643876
 30
0.0
 11
24.06403749280238
 21
13.30797736072119
 31
0.0
  0
LINE
  5
930
330
1F
100
AcDbEntity
  8
OBJECT2
100
AcDbLine
 10
24.09923408221342
 20
13.37427615698456
 30
0.0
 11
24.20481262014536
 21
13.37427936717628
 31
0.0
  0
LINE
  5
931
330
1F
100
AcDbEntity
  8
OBJECT1
100
AcDbLine
 10
24.09923408221342
 20
13.37427615698456
 30
0.0
 11
24.09922079685983
 21
13.35194479520848
 31
0.0
  0
LINE
  5
932
330
1F
100
AcDbEntity
  8
OBJECT2
100
AcDbLine
 10
24.20481326105184
 20
13.35192314593516
 30
0.0
 11
24.09922079685983
 21
13.35194479520848
 31
0.0
  0
LINE
  5
933
330
1F
100
AcDbEntity
  8
OBJECT1
100
AcDbLine
 10
24.20481262014536
 20
13.37427936717628
 30
0.0
 11
24.20481326105184
 21
13.35192314593516
 31
0.0
  0
LINE
  5
934
330
1F
100
AcDbEntity
  8
OBJECT1
100
AcDbLine
 10
24.07591647394494
 20
13.4037743996939
 30
0.0
 11
24.05349205712647
 21
13.40988472045043
 31
0.0
  0
LINE
  5
935
330
1F
100
AcDbEntity
  8
OBJECT2
100
AcDbLine
 10
24.0860326567882
 20
13.34501802312215
 30
0.0
 11
24.05656301898588
 21
13.35194504405066
 31
0.0
  0
LINE
  5
936
330
1F
100
AcDbEntity
  8
OBJECT2
100
AcDbLine
 10
24.0860326567882
 20
13.34501802312215
 30
0.0
 11
24.15203880265025
 21
13.35194454636624
 31
0.0
  0
LINE
  5
937
330
1F
100
AcDbEntity
  8
OBJECT1
100
AcDbLine
 10
24.09924219729086
 20
13.3519452928929
 30
0.0
 11
24.05656301898588
 21
13.35194504405066
 31
0.0
  0
ARC
  5
938
330
1F
100
AcDbEntity
  8
OBJECT2
100
AcDbCircle
 10
24.1520397980191
 20
13.5819902221103
 30
0.0
 40
0.4018898829426113
100
AcDbArc
 50
250.8299260000005
 51
289.1696010000059
  0
LINE
  5
939
330
1F
100
AcDbEntity
  8
OBJECT1
100
AcDbLine
 10
24.02709412771011
 20
13.32560111339645
 30
0.0
 11
24.06403799048675
 21
13.32557896643876
 31
0.0
  0
LINE
  5
93A
330
1F
100
AcDbEntity
  8
OBJECT1
100
AcDbLine
 10
24.01083427925263
 20
13.30796666050562
 30
0.0
 11
24.06403749280238
 21
13.30797736072119
 31
0.0
  0
LINE
  5
93B
330
1F
100
AcDbEntity
  8
OBJECT1
100
AcDbLine
 10
24.09923408221342
 20
13.37427615698456
 30
0.0
 11
24.01083427925263
 21
13.37427346912468
 31
0.0
  0
LINE
  5
93C
330
1F
100
AcDbEntity
  8
OBJECT1
100
AcDbLine
 10
24.02709338118345
 20
13.34497472457556
 30
0.0
 11
24.05656301898588
 21
13.35194504405066
 31
0.0
  0
LINE
  5
93D
330
1F
100
AcDbEntity
  8
OBJECT1
100
AcDbLine
 10
24.07591647394494
 20
13.4037743996939
 30
0.0
 11
23.97608072571219
 21
13.40377415085166
 31
0.0
  0
ARC
  5
93E
330
1F
100
AcDbEntity
  8
OBJECT1
100
AcDbCircle
 10
24.33507222854641
 20
13.37429213079977
 30
0.0
 40
0.0070752720842389
100
AcDbArc
 50
180.0730289999989
 51
269.5811160000003
  0
LINE
  5
93F
330
1F
100
AcDbEntity
  8
OBJECT2
100
AcDbLine
 10
24.32799712843038
 20
13.40375299926282
 30
0.0
 11
24.32799613306142
 21
13.3742831126182
 31
0.0
  0
LINE
  5
940
330
1F
100
AcDbEntity
  8
OBJECT1
100
AcDbLine
 10
24.43885136140258
 20
13.19459912109309
 30
0.0
 11
24.5534429557043
 21
13.19459837456642
 31
0.0
  0
LINE
  5
941
330
1F
100
AcDbEntity
  8
OBJECT2
100
AcDbLine
 10
24.55352830858632
 20
13.0775263209978
 30
0.0
 11
24.43777686068878
 21
13.07753677237113
 31
0.0
  0
LINE
  5
942
330
1F
100
AcDbEntity
  8
OBJECT1
100
AcDbLine
 10
24.32799696220953
 20
13.37428311268522
 30
0.0
 11
24.20481262014536
 21
13.37427936717628
 31
0.0
  0
LINE
  5
943
330
1F
100
AcDbEntity
  8
OBJECT1
100
AcDbLine
 10
24.28400655161644
 20
13.20238514537132
 30
0.0
 11
24.43777686068878
 21
13.20238489652914
 31
0.0
  0
LINE
  5
944
330
1F
100
AcDbEntity
  8
OBJECT1
100
AcDbLine
 10
24.22816162903981
 20
13.40377390200941
 30
0.0
 11
24.32799712843038
 21
13.40375299926282
 31
0.0
  0
LINE
  5
945
330
1F
100
AcDbEntity
  8
OBJECT1
100
AcDbLine
 10
24.25056414774289
 20
13.48566464225845
 30
0.0
 11
24.25056315237393
 21
13.40987476676159
 31
0.0
  0
LINE
  5
946
330
1F
100
AcDbEntity
  8
OBJECT1
100
AcDbLine
 10
24.05349205712647
 20
13.40988472045043
 30
0.0
 11
24.05349155944199
 21
13.48567459594735
 31
0.0
  0
LINE
  5
947
330
1F
100
AcDbEntity
  8
OBJECT2
100
AcDbLine
 10
24.20481276336735
 20
13.41049761884275
 30
0.0
 11
24.22816162903981
 21
13.40377390200941
 31
0.0
  0
ARC
  5
948
330
1F
100
AcDbEntity
  8
OBJECT1
100
AcDbCircle
 10
24.33500201372552
 20
13.40377056227819
 30
0.0
 40
0.0070066484554686
100
AcDbArc
 50
89.85251199999874
 51
180.1436159999986
  0
LINE
  5
949
330
1F
100
AcDbEntity
  8
OBJECT2
100
AcDbLine
 10
24.15203880265025
 20
13.40377390200941
 30
0.0
 11
24.20481276336735
 21
13.41049761884275
 31
0.0
  0
LINE
  5
94A
330
1F
100
AcDbEntity
  8
OBJECT2
100
AcDbLine
 10
24.09924219729086
 20
13.41049737000057
 30
0.0
 11
24.15203880265025
 21
13.40377390200941
 31
0.0
  0
LINE
  5
94B
330
1F
100
AcDbEntity
  8
OBJECT2
100
AcDbLine
 10
24.07591647394494
 20
13.4037743996939
 30
0.0
 11
24.09924219729086
 21
13.41049737000057
 31
0.0
  0
ARC
  5
94C
330
1F
100
AcDbEntity
  8
OBJECT1
100
AcDbCircle
 10
23.96904064652923
 20
13.40377842374553
 30
0.0
 40
0.0070400804797413
100
AcDbArc
 50
359.9652249999995
 51
90.04248799999928
  0
LINE
  5
94D
330
1F
100
AcDbEntity
  8
OBJECT1
100
AcDbLine
 10
23.87278706596529
 20
12.7404944157773
 30
0.0
 11
23.99895554695226
 21
12.74049491346173
 31
0.0
  0
LINE
  5
94E
330
1F
100
AcDbEntity
  8
OBJECT2
100
AcDbLine
 10
23.86692334785047
 20
12.83954606216909
 30
0.0
 11
23.88885306633207
 21
12.78465619603983
 31
0.0
  0
LINE
  5
94F
330
1F
100
AcDbEntity
  8
OBJECT1
100
AcDbLine
 10
23.87278706596529
 20
12.7404944157773
 30
0.0
 11
23.86479674222286
 21
12.71853259664917
 31
0.0
  0
LINE
  5
950
330
1F
100
AcDbEntity
  8
OBJECT2
100
AcDbLine
 10
24.57580292238728
 20
12.78464524698208
 30
0.0
 11
24.5535288062708
 21
12.84338121849165
 31
0.0
  0
LINE
  5
951
330
1F
100
AcDbEntity
  8
OBJECT1
100
AcDbLine
 10
24.57580292238728
 20
12.78464524698208
 30
0.0
 11
24.55344245801981
 21
12.72628726680747
 31
0.0
  0
LINE
  5
952
330
1F
100
AcDbEntity
  8
OBJECT1
100
AcDbLine
 10
24.2374190573756
 20
12.72591076852589
 30
0.0
 11
23.99895654232111
 21
12.72595307170357
 31
0.0
  0
LINE
  5
953
330
1F
100
AcDbEntity
  8
OBJECT2
100
AcDbLine
 10
24.5535288062708
 20
12.84338121849165
 30
0.0
 11
24.4377766118466
 21
12.84337002059166
 31
0.0
  0
LINE
  5
954
330
1F
100
AcDbEntity
  8
OBJECT1
100
AcDbLine
 10
24.4388513614027
 20
12.72630742302746
 30
0.0
 11
24.55344245801981
 21
12.72628726680747
 31
0.0
  0
LINE
  5
955
330
1F
100
AcDbEntity
  8
OBJECT1
100
AcDbLine
 10
24.43775521141546
 20
12.71853234780692
 30
0.0
 11
24.23825641145217
 21
12.7185109473759
 31
0.0
  0
LINE
  5
956
330
1F
100
AcDbEntity
  8
OBJECT2
100
AcDbLine
 10
23.88885306633207
 20
12.91977155026975
 30
0.0
 11
23.86692334785047
 21
12.83954606216909
 31
0.0
  0
LINE
  5
957
330
1F
100
AcDbEntity
  8
OBJECT2
100
AcDbLine
 10
24.57548092055216
 20
12.92362711165449
 30
0.0
 11
24.5535288062708
 21
12.84338121849165
 31
0.0
  0
LINE
  5
958
330
1F
100
AcDbEntity
  8
OBJECT2
100
AcDbLine
 10
23.99895629347892
 20
13.180411879501
 30
0.0
 11
23.99895654232111
 21
12.72595307170357
 31
0.0
  0
LINE
  5
959
330
1F
100
AcDbEntity
  8
OBJECT2
100
AcDbLine
 10
24.23825641145217
 20
12.7185109473759
 30
0.0
 11
24.2382556649255
 21
13.18293638384128
 31
0.0
  0
LINE
  5
95A
330
1F
100
AcDbEntity
  8
OBJECT2
100
AcDbLine
 10
24.43775521141546
 20
12.71853234780692
 30
0.0
 11
24.43777686068878
 21
13.20238489652914
 31
0.0
  0
LINE
  5
95B
330
1F
100
AcDbEntity
  8
OBJECT2
100
AcDbLine
 10
24.57580292238728
 20
12.78464524698208
 30
0.0
 11
24.57580217586061
 21
13.13626104829623
 31
0.0
  0
LINE
  5
95C
330
1F
100
AcDbEntity
  8
OBJECT1
100
AcDbLine
 10
24.57580254912395
 20
13.13622332823979
 30
0.0
 11
24.57580254912395
 21
12.78468296703854
 31
0.0
  0
LINE
  5
95D
330
1F
100
AcDbEntity
  8
OBJECT1
100
AcDbLine
 10
24.33501993036552
 20
13.41077696387552
 30
0.0
 11
24.58488887518339
 21
13.41077646619103
 31
0.0
  0
LINE
  5
95E
330
1F
100
AcDbEntity
  8
OBJECT1
100
AcDbLine
 10
24.58488866765569
 20
13.36723770265368
 30
0.0
 11
24.33502022052207
 21
13.36721580453817
 31
0.0
  0
LINE
  5
95F
330
1F
100
AcDbEntity
  8
TEXT
100
AcDbLine
 10
24.12846900455216
 20
10.51830623338597
 30
0.0
 11
24.12846900455216
 21
11.46963682390921
 31
0.0
  0
TEXT
  5
960
330
1F
100
AcDbEntity
  8
TEXT
100
AcDbText
 10
22.97290375078826
 20
9.533886464067316
 30
0.0
 40
0.35191604497582
  1
30" MAX.
  7
ROMANS
 72
     1
 11
24.19623095475182
 21
9.709844486555226
 31
0.0
100
AcDbText
 73
     2
  0
SOLID
  5
961
330
1F
100
AcDbEntity
  8
TEXT
100
AcDbTrace
 10
24.06981633038955
 20
8.810795673093338
 30
0.0
 11
24.18712167871481
 21
8.810795673093338
 31
0.0
 12
24.12846900455216
 22
8.458879628117529
 32
0.0
 13
24.12846900455216
 23
8.458879628117529
 33
0.0
  0
LINE
  5
962
330
1F
100
AcDbEntity
  8
TEXT
100
AcDbLine
 10
24.12846900455216
 20
9.470809100592674
 30
0.0
 11
24.12846900455216
 21
8.458879628117529
 31
0.0
  0
TEXT
  5
963
330
1F
100
AcDbEntity
  8
TEXT
100
AcDbText
 10
23.01479851804728
 20
10.08715295197138
 30
0.0
 40
0.35191604497582
  1
12" MIN.
  7
ROMANS
 72
     1
 11
24.19623095475182
 21
10.26311097445929
 31
0.0
100
AcDbText
 73
     2
  0
LINE
  5
964
330
1F
100
AcDbEntity
  8
OBJECT1
100
AcDbLine
 10
22.86959641180678
 20
11.50727245591232
 30
0.0
 11
24.48881839801279
 21
11.50727245591235
 31
0.0
  0
SOLID
  5
965
330
1F
100
AcDbEntity
  8
TEXT
100
AcDbTrace
 10
24.06981633038955
 20
11.1177207789334
 30
0.0
 11
24.18712167871481
 21
11.1177207789334
 31
0.0
 12
24.12846900455216
 22
11.46963682390921
 32
0.0
 13
24.12846900455216
 23
11.46963682390921
 33
0.0
  0
ARC
  5
966
330
1F
100
AcDbEntity
  8
OBJECT1
100
AcDbCircle
 10
22.98701429055617
 20
11.95729267364791
 30
0.0
 40
0.0219961604751687
100
AcDbArc
 50
225.0035100000049
 51
314.9960629999987
  0
LINE
  5
967
330
1F
100
AcDbEntity
  8
OBJECT1
100
AcDbLine
 10
20.57882213308809
 20
12.15768794640428
 30
0.0
 11
20.57882213308809
 21
11.70931382535195
 31
0.0
  0
LINE
  5
968
330
1F
100
AcDbEntity
  8
0
100
AcDbLine
 10
20.47204472247298
 20
11.70931382535195
 30
0.0
 11
20.47204472247298
 21
12.15768794640428
 31
0.0
  0
LINE
  5
969
330
1F
100
AcDbEntity
  8
OBJECT1
100
AcDbLine
 10
22.64730185692232
 20
11.95571800006828
 30
0.0
 11
22.64730164586635
 21
11.50727245591232
 31
0.0
  0
LINE
  5
96A
330
1F
100
AcDbEntity
  8
OBJECT2
100
AcDbLine
 10
21.97162903267505
 20
12.11177541800137
 30
0.0
 11
21.9716280373062
 21
11.78414228349871
 31
0.0
  0
LINE
  5
96B
330
1F
100
AcDbEntity
  8
OBJECT1
100
AcDbLine
 10
21.64083189542211
 20
11.3924116400328
 30
0.0
 11
21.43319221278486
 21
11.39241164003283
 31
0.0
  0
LINE
  5
96C
330
1F
100
AcDbEntity
  8
OBJECT1
100
AcDbLine
 10
21.29703014476749
 20
11.50949053487954
 30
0.0
 11
21.29703014476749
 21
11.53258171112412
 31
0.0
  0
LINE
  5
96D
330
1F
100
AcDbEntity
  8
OBJECT1
100
AcDbLine
 10
21.30073661981779
 20
11.57739676706845
 30
0.0
 11
21.34011589837959
 21
11.57739676706845
 31
0.0
  0
ARC
  5
96E
330
1F
100
AcDbEntity
  8
OBJECT1
100
AcDbCircle
 10
21.30636757991416
 20
11.59372101314255
 30
0.0
 40
0.0337483184654326
100
AcDbArc
 50
0.0
 51
90.0
  0
LINE
  5
96F
330
1F
100
AcDbEntity
  8
OBJECT1
100
AcDbLine
 10
21.34011589837959
 20
11.57739676706845
 30
0.0
 11
21.34011589837959
 21
11.59372101314255
 31
0.0
  0
ARC
  5
970
330
1F
100
AcDbEntity
  8
OBJECT1
100
AcDbCircle
 10
21.36344322176759
 20
11.52103612300183
 30
0.0
 40
0.0843127518688572
100
AcDbArc
 50
138.0508214825663
 51
172.1293215993773
  0
LINE
  5
971
330
1F
100
AcDbEntity
  8
OBJECT1
100
AcDbLine
 10
21.29703014476749
 20
11.53258171112412
 30
0.0
 11
21.27992472368132
 21
11.53258171112412
 31
0.0
  0
LINE
  5
972
330
1F
100
AcDbEntity
  8
OBJECT1
100
AcDbLine
 10
21.29703014476749
 20
11.50949053487954
 30
0.0
 11
21.27992472368132
 21
11.50949053487954
 31
0.0
  0
ARC
  5
973
330
1F
100
AcDbEntity
  8
OBJECT1
100
AcDbCircle
 10
20.61257045155352
 20
11.70931382535195
 30
0.0
 40
0.0337483184654326
100
AcDbArc
 50
180.0
 51
270.0
  0
LINE
  5
974
330
1F
100
AcDbEntity
  8
OBJECT1
100
AcDbLine
 10
21.34011589837959
 20
11.44835123286111
 30
0.0
 11
21.34011589837959
 21
11.46467547893522
 31
0.0
  0
ARC
  5
975
330
1F
100
AcDbEntity
  8
OBJECT1
100
AcDbCircle
 10
21.37386421684502
 20
11.44835123286111
 30
0.0
 40
0.0337483184654326
100
AcDbArc
 50
180.0
 51
270.0
  0
LINE
  5
976
330
1F
100
AcDbEntity
  8
OBJECT1
100
AcDbLine
 10
21.30073661981779
 20
11.46467547893522
 30
0.0
 11
21.34011589837959
 21
11.46467547893522
 31
0.0
  0
LINE
  5
977
330
1F
100
AcDbEntity
  8
OBJECT2
100
AcDbLine
 10
21.34011589837959
 20
11.46467547893522
 30
0.0
 11
21.34011589837959
 21
11.57739676706845
 31
0.0
  0
ARC
  5
978
330
1F
100
AcDbEntity
  8
OBJECT1
100
AcDbCircle
 10
21.36344322176759
 20
11.52103612300183
 30
0.0
 40
0.0843127518688572
100
AcDbArc
 50
187.8706784006226
 51
221.9491785174336
  0
LINE
  5
979
330
1F
100
AcDbEntity
  8
0
100
AcDbLine
 10
21.30636757991416
 20
11.62746933160798
 30
0.0
 11
21.17467264535329
 21
11.67556550688652
 31
0.0
  0
LINE
  5
97A
330
1F
100
AcDbEntity
  8
0
100
AcDbLine
 10
21.17467264535329
 20
11.67556550688652
 30
0.0
 11
20.61257045155352
 21
11.67556550688652
 31
0.0
  0
LINE
  5
97B
330
1F
100
AcDbEntity
  8
0
100
AcDbLine
 10
20.57882213308809
 20
11.70931382535195
 30
0.0
 11
20.47204472247298
 21
11.70931382535195
 31
0.0
  0
LINE
  5
97C
330
1F
100
AcDbEntity
  8
0
100
AcDbLine
 10
20.57882213308809
 20
11.82140735561506
 30
0.0
 11
20.47204472247287
 21
11.82140735561503
 31
0.0
  0
LINE
  5
97D
330
1F
100
AcDbEntity
  8
OBJECT2
100
AcDbLine
 10
22.33409136875351
 20
11.58457853571533
 30
0.0
 11
22.33409111991122
 21
11.76367252233254
 31
0.0
  0
LINE
  5
97E
330
1F
100
AcDbEntity
  8
OBJECT1
100
AcDbLine
 10
22.30436393040926
 20
11.60515604556351
 30
0.0
 11
21.9858690288182
 21
11.48540893811045
 31
0.0
  0
ARC
  5
97F
330
1F
100
AcDbEntity
  8
OBJECT1
100
AcDbCircle
 10
21.94960948215143
 20
11.33372541991011
 30
0.0
 40
0.0220193869341371
100
AcDbArc
 50
270.0635990000031
 51
359.9644930000005
  0
LINE
  5
980
330
1F
100
AcDbEntity
  8
OBJECT1
100
AcDbLine
 10
21.94963411753141
 20
11.31170611822878
 30
0.0
 11
21.94434945526686
 21
11.31169591569769
 31
0.0
  0
LINE
  5
981
330
1F
100
AcDbEntity
  8
OBJECT2
100
AcDbLine
 10
21.97162903267505
 20
11.46482047920446
 30
0.0
 11
21.97160688571736
 21
11.52870051712326
 31
0.0
  0
ARC
  5
982
330
1F
100
AcDbEntity
  8
OBJECT1
100
AcDbCircle
 10
21.99356546989665
 20
11.46486676385771
 30
0.0
 40
0.0219366866635678
100
AcDbArc
 50
110.5393940000015
 51
180.1214900000026
  0
LINE
  5
983
330
1F
100
AcDbEntity
  8
OBJECT1
100
AcDbLine
 10
21.97162903267505
 20
11.46482047920446
 30
0.0
 11
21.97162828614839
 21
11.33371173358793
 31
0.0
  0
LINE
  5
984
330
1F
100
AcDbEntity
  8
OBJECT1
100
AcDbLine
 10
21.9223547889654
 20
11.28970124939624
 30
0.0
 11
21.92235454012322
 21
11.23693749121017
 31
0.0
  0
LINE
  5
985
330
1F
100
AcDbEntity
  8
OBJECT1
100
AcDbLine
 10
22.64730164586635
 20
11.50727245591232
 30
0.0
 11
22.33409049554754
 21
11.50727245591232
 31
0.0
  0
ARC
  5
986
330
1F
100
AcDbEntity
  8
OBJECT1
100
AcDbCircle
 10
22.31210416771872
 20
11.58457405655534
 30
0.0
 40
0.0219870106579993
100
AcDbArc
 50
0.0111240000026271
 51
110.6098919999989
  0
LINE
  5
987
330
1F
100
AcDbEntity
  8
OBJECT1
100
AcDbLine
 10
22.33409037338455
 20
11.58469698461291
 30
0.0
 11
22.33409049554754
 21
11.50727245591232
 31
0.0
  0
LINE
  5
988
330
1F
100
AcDbEntity
  8
OBJECT2
100
AcDbLine
 10
21.65279595752062
 20
11.33136255565043
 30
0.0
 11
21.64083237002259
 21
11.3101947920521
 31
0.0
  0
LINE
  5
989
330
1F
100
AcDbEntity
  8
OBJECT1
100
AcDbLine
 10
21.64083237002259
 20
11.48072885508125
 30
0.0
 11
21.64083137465362
 21
11.29550314727643
 31
0.0
  0
LINE
  5
98A
330
1F
100
AcDbEntity
  8
OBJECT2
100
AcDbLine
 10
21.6527962063628
 20
11.44488064460719
 30
0.0
 11
21.64083212118029
 21
11.39871120529906
 31
0.0
  0
LINE
  5
98B
330
1F
100
AcDbEntity
  8
OBJECT1
100
AcDbLine
 10
21.65279570867832
 20
11.49834240522543
 30
0.0
 11
21.64083237002259
 21
11.48072885508125
 31
0.0
  0
LINE
  5
98C
330
1F
100
AcDbEntity
  8
OBJECT2
100
AcDbLine
 10
21.6527962063628
 20
11.44488064460719
 30
0.0
 11
21.64083212118029
 21
11.46602651009001
 31
0.0
  0
LINE
  5
98D
330
1F
100
AcDbEntity
  8
OBJECT2
100
AcDbLine
 10
21.71121888551508
 20
11.44489159366494
 30
0.0
 11
21.6527962063628
 21
11.44488064460719
 31
0.0
  0
LINE
  5
98E
330
1F
100
AcDbEntity
  8
OBJECT1
100
AcDbLine
 10
21.71122110228665
 20
11.49835285681726
 30
0.0
 11
21.65279570867832
 21
11.49834240522543
 31
0.0
  0
LINE
  5
98F
330
1F
100
AcDbEntity
  8
OBJECT2
100
AcDbLine
 10
21.71121913435726
 20
11.33134165290383
 30
0.0
 11
21.65279595752062
 21
11.33136255565043
 31
0.0
  0
LINE
  5
990
330
1F
100
AcDbEntity
  8
OBJECT2
100
AcDbLine
 10
21.65279595752062
 20
11.33136255565043
 30
0.0
 11
21.64083237002259
 21
11.37751059452748
 31
0.0
  0
ARC
  5
991
330
1F
100
AcDbEntity
  8
OBJECT1
100
AcDbCircle
 10
21.73319836103664
 20
11.23696388554318
 30
0.0
 40
0.0219996796356184
100
AcDbArc
 50
180.0485229999985
 51
270.042953000006
  0
LINE
  5
992
330
1F
100
AcDbEntity
  8
OBJECT1
100
AcDbLine
 10
21.71122011832196
 20
11.27789494723995
 30
0.0
 11
21.71119871789082
 21
11.23694497353435
 31
0.0
  0
LINE
  5
993
330
1F
100
AcDbEntity
  8
OBJECT1
100
AcDbLine
 10
21.71121913435726
 20
11.27787939460111
 30
0.0
 11
21.65279595752062
 21
11.27790029734771
 31
0.0
  0
LINE
  5
994
330
1F
100
AcDbEntity
  8
OBJECT2
100
AcDbLine
 10
21.71122110228665
 20
11.49835285681726
 30
0.0
 11
21.71121913435726
 21
11.27787939460111
 31
0.0
  0
LINE
  5
995
330
1F
100
AcDbEntity
  8
OBJECT1
100
AcDbLine
 10
21.65279595752062
 20
11.27790029734771
 30
0.0
 11
21.64083137465362
 21
11.29550314727643
 31
0.0
  0
LINE
  5
996
330
1F
100
AcDbEntity
  8
OBJECT1
100
AcDbLine
 10
21.81679118208293
 20
11.21494807782798
 30
0.0
 11
21.90035987382177
 21
11.21494282490877
 31
0.0
  0
LINE
  5
997
330
1F
100
AcDbEntity
  8
OBJECT1
100
AcDbLine
 10
21.81679093324063
 20
11.21493985585962
 30
0.0
 11
21.733214853563
 21
11.21496421208954
 31
0.0
  0
ARC
  5
998
330
1F
100
AcDbEntity
  8
OBJECT1
100
AcDbCircle
 10
21.90040939342392
 20
11.23688797160801
 30
0.0
 40
0.0219451326486472
100
AcDbArc
 50
269.8704990000034
 51
0.1295009999966062
  0
ARC
  5
999
330
1F
100
AcDbEntity
  8
OBJECT1
100
AcDbCircle
 10
21.94426584428023
 20
11.2897848603828
 30
0.0
 40
0.0219109967922845
100
AcDbArc
 50
89.78094499999938
 51
180.2190550000006
  0
ARC
  5
99A
330
1F
100
AcDbEntity
  8
OBJECT1
100
AcDbCircle
 10
20.61257045155352
 20
12.15768794640428
 30
0.0
 40
0.0337483184654326
100
AcDbArc
 50
90.0
 51
180.0
  0
LINE
  5
99B
330
1F
100
AcDbEntity
  8
0
100
AcDbLine
 10
21.17467264535329
 20
12.1914362648697
 30
0.0
 11
20.61257045155352
 21
12.1914362648697
 31
0.0
  0
LINE
  5
99C
330
1F
100
AcDbEntity
  8
0
100
AcDbLine
 10
20.57882213308809
 20
12.15768794640428
 30
0.0
 11
20.47204472247298
 21
12.15768794640428
 31
0.0
  0
LINE
  5
99D
330
1F
100
AcDbEntity
  8
0
100
AcDbLine
 10
20.57882213308809
 20
12.0455944161412
 30
0.0
 11
20.47204472247298
 21
12.0455944161412
 31
0.0
  0
LINE
  5
99E
330
1F
100
AcDbEntity
  8
OBJECT1
100
AcDbLine
 10
22.94440205080886
 20
11.96817603706105
 30
0.0
 11
22.77332028604936
 21
12.13926924856255
 31
0.0
  0
LINE
  5
99F
330
1F
100
AcDbEntity
  8
OBJECT2
100
AcDbLine
 10
21.92235553549207
 20
12.05067793380683
 30
0.0
 11
21.97162878383287
 21
12.05068888286459
 31
0.0
  0
LINE
  5
9A0
330
1F
100
AcDbEntity
  8
OBJECT2
100
AcDbLine
 10
21.92235553549207
 20
11.83966570192464
 30
0.0
 11
21.97160663687518
 21
11.83967689982463
 31
0.0
  0
ARC
  5
9A1
330
1F
100
AcDbEntity
  8
OBJECT2
100
AcDbCircle
 10
22.40540108888885
 20
12.18010027568615
 30
0.0
 40
0.0220366308203409
100
AcDbArc
 50
180.1098329999966
 51
269.8895570000004
  0
ARC
  5
9A2
330
1F
100
AcDbEntity
  8
OBJECT2
100
AcDbCircle
 10
22.48093316384401
 20
12.13599199650136
 30
0.0
 40
0.022093289303582
100
AcDbArc
 50
0.200026999997793
 51
89.74889800000187
  0
ARC
  5
9A3
330
1F
100
AcDbEntity
  8
OBJECT2
100
AcDbCircle
 10
22.52506085272224
 20
12.11427155432838
 30
0.0
 40
0.0220366308203409
100
AcDbArc
 50
180.0394900000009
 51
264.4665989999988
  0
LINE
  5
9A4
330
1F
100
AcDbEntity
  8
OBJECT2
100
AcDbLine
 10
22.48102996346833
 20
12.15808495548034
 30
0.0
 11
22.40535853686898
 21
12.15806355504926
 31
0.0
  0
LINE
  5
9A5
330
1F
100
AcDbEntity
  8
OBJECT1
100
AcDbLine
 10
22.63963353501489
 20
12.03540623781211
 30
0.0
 11
22.77332028604936
 21
12.16912533833542
 31
0.0
  0
ARC
  5
9A6
330
1F
100
AcDbEntity
  8
OBJECT1
100
AcDbCircle
 10
22.78823713303594
 20
12.15419754229125
 30
0.0
 40
0.021103349469065
100
AcDbArc
 50
134.9790429999996
 51
225.0218810000037
  0
LINE
  5
9A7
330
1F
100
AcDbEntity
  8
OBJECT2
100
AcDbLine
 10
22.77332028604936
 20
12.16912533833542
 30
0.0
 11
22.77332028604936
 21
12.16912533833542
 31
0.0
  0
ARC
  5
9A8
330
1F
100
AcDbEntity
  8
OBJECT2
100
AcDbCircle
 10
22.75842757675852
 20
12.18404293184855
 30
0.0
 40
0.0210790672619617
100
AcDbArc
 50
314.9525600000016
 51
45.04743999999832
  0
ARC
  5
9A9
330
1F
100
AcDbEntity
  8
OBJECT1
100
AcDbCircle
 10
22.65450882535034
 20
12.02048615587679
 30
0.0
 40
0.0210685097806124
100
AcDbArc
 50
134.9142060000046
 51
204.219603999999
  0
ARC
  5
9AA
330
1F
100
AcDbEntity
  8
OBJECT2
100
AcDbCircle
 10
22.51008602549799
 20
11.95573666323494
 30
0.0
 40
0.1372039718670377
100
AcDbArc
 50
24.13735999999776
 51
84.6260720000053
  0
ARC
  5
9AB
330
1F
100
AcDbEntity
  8
OBJECT1
100
AcDbCircle
 10
22.5104941267418
 20
11.95579738073709
 30
0.0
 40
0.13680806631644
100
AcDbArc
 50
359.9669039999992
 51
24.18408999999462
  0
LINE
  5
9AC
330
1F
100
AcDbEntity
  8
OBJECT2
100
AcDbLine
 10
22.50302562513863
 20
11.86721278472131
 30
0.0
 11
22.50302537629644
 21
12.13606913759011
 31
0.0
  0
LINE
  5
9AD
330
1F
100
AcDbEntity
  8
OBJECT1
100
AcDbLine
 10
22.95217563297589
 20
11.9610245604484
 30
0.0
 11
22.97146165169292
 21
11.94173804404695
 31
0.0
  0
LINE
  5
9AE
330
1F
100
AcDbEntity
  8
OBJECT1
100
AcDbLine
 10
22.95932885148417
 20
11.96817678358772
 30
0.0
 11
22.94440205080886
 21
11.96817603706105
 31
0.0
  0
LINE
  5
9AF
330
1F
100
AcDbEntity
  8
OBJECT1
100
AcDbLine
 10
22.95217563297589
 20
11.9610245604484
 30
0.0
 11
22.95217563297589
 21
11.9610245604484
 31
0.0
  0
LINE
  5
9B0
330
1F
100
AcDbEntity
  8
OBJECT2
100
AcDbLine
 10
22.3833648659365
 20
11.79785697371156
 30
0.0
 11
22.38336411940971
 21
12.21564937780962
 31
0.0
  0
LINE
  5
9B1
330
1F
100
AcDbEntity
  8
OBJECT1
100
AcDbLine
 10
23.53079625808354
 20
12.18354997540714
 30
0.0
 11
23.33682225312881
 21
11.98957796119012
 31
0.0
  0
ARC
  5
9B2
330
1F
100
AcDbEntity
  8
OBJECT1
100
AcDbCircle
 10
23.17806141329796
 20
12.0861267525149
 30
0.0
 40
0.0219954566430787
100
AcDbArc
 50
45.00524100000546
 51
134.9969400000003
  0
LINE
  5
9B3
330
1F
100
AcDbEntity
  8
OBJECT1
100
AcDbLine
 10
23.0025669294192
 20
11.94173804404695
 30
0.0
 11
23.1625092721193
 21
12.10168038674694
 31
0.0
  0
ARC
  5
9B4
330
1F
100
AcDbEntity
  8
OBJECT1
100
AcDbCircle
 10
23.32126961426556
 20
12.00513507921326
 30
0.0
 40
0.0219979200553935
100
AcDbArc
 50
225.012238
 51
314.9916989999975
  0
LINE
  5
9B5
330
1F
100
AcDbEntity
  8
OBJECT1
100
AcDbLine
 10
23.30571797077126
 20
11.98957696582121
 30
0.0
 11
23.19361330563455
 21
12.10168113327361
 31
0.0
  0
ARC
  5
9B6
330
1F
100
AcDbEntity
  8
OBJECT1
100
AcDbCircle
 10
23.51524312153591
 20
12.19910311195476
 30
0.0
 40
0.0219958085591237
100
AcDbArc
 50
314.9999999999954
 51
44.99825299999881
  0
LINE
  5
9B7
330
1F
100
AcDbEntity
  8
OBJECT2
100
AcDbLine
 10
22.95932885148417
 20
11.96817678358772
 30
0.0
 11
23.55219992410817
 21
12.56104586547402
 31
0.0
  0
LINE
  5
9B8
330
1F
100
AcDbEntity
  8
OBJECT2
100
AcDbLine
 10
22.77332028604936
 20
12.16912533833542
 30
0.0
 11
23.36266825049719
 21
12.75847330278313
 31
0.0
  0
ARC
  5
9B9
330
1F
100
AcDbEntity
  8
OBJECT2
100
AcDbCircle
 10
22.36144062198385
 20
12.21564589401853
 30
0.0
 40
0.0219229619378137
100
AcDbArc
 50
359.9243320000029
 51
69.60372899999796
  0
LINE
  5
9BA
330
1F
100
AcDbEntity
  8
OBJECT2
100
AcDbLine
 10
21.34011589837959
 20
12.23953244014828
 30
0.0
 11
21.34011589837959
 21
11.62746933160798
 31
0.0
  0
LINE
  5
9BB
330
1F
100
AcDbEntity
  8
OBJECT2
100
AcDbLine
 10
21.43319225257787
 20
12.45239885736057
 30
0.0
 11
21.43319411352771
 21
11.41460291439568
 31
0.0
  0
LINE
  5
9BC
330
1F
100
AcDbEntity
  8
OBJECT2
100
AcDbLine
 10
21.9223547889654
 20
11.28970124939624
 30
0.0
 11
21.92235553549207
 21
12.5143182730624
 31
0.0
  0
LINE
  5
9BD
330
1F
100
AcDbEntity
  8
OBJECT2
100
AcDbLine
 10
21.43319221278497
 20
12.47459013172343
 30
0.0
 11
21.43319415332061
 21
11.3924116400328
 31
0.0
  0
LINE
  5
9BE
330
1F
100
AcDbEntity
  8
OBJECT2
100
AcDbLine
 10
21.81679118208293
 20
12.65075473753037
 30
0.0
 11
21.81679118208293
 21
11.21494807782798
 31
0.0
  0
LINE
  5
9BF
330
1F
100
AcDbEntity
  8
OBJECT2
100
AcDbLine
 10
21.71118068108646
 20
11.49835284958638
 30
0.0
 11
21.71122011832196
 21
12.65077390855654
 31
0.0
  0
LINE
  5
9C0
330
1F
100
AcDbEntity
  8
0
100
AcDbLine
 10
21.30636757991416
 20
12.23953244014825
 30
0.0
 11
21.17467264535329
 21
12.1914362648697
 31
0.0
  0
LINE
  5
9C1
330
1F
100
AcDbEntity
  8
OBJECT2
100
AcDbLine
 10
22.3270670505162
 20
12.16727843136513
 30
0.0
 11
22.32706779704287
 21
12.52599220821426
 31
0.0
  0
LINE
  5
9C2
330
1F
100
AcDbEntity
  8
OBJECT2
100
AcDbLine
 10
22.773319788365
 20
12.1989600276772
 30
0.0
 11
22.35350778079472
 21
12.6188043847363
 31
0.0
  0
LINE
  5
9C3
330
1F
100
AcDbEntity
  8
OBJECT2
100
AcDbLine
 10
21.61971884262433
 20
11.93620921413096
 30
0.0
 11
21.61971864917356
 21
12.47459013172343
 31
0.0
  0
LINE
  5
9C4
330
1F
100
AcDbEntity
  8
OBJECT1
100
AcDbLine
 10
23.5307970046102
 20
12.21465599966015
 30
0.0
 11
23.41869258831556
 21
12.32676041595479
 31
0.0
  0
LINE
  5
9C5
330
1F
100
AcDbEntity
  8
OBJECT2
100
AcDbLine
 10
23.1625092721193
 20
12.10168038674694
 30
0.0
 11
23.41869209063119
 21
12.35786519599665
 31
0.0
  0
LINE
  5
9C6
330
1F
100
AcDbEntity
  8
OBJECT2
100
AcDbLine
 10
23.43380900676399
 20
12.0865647148253
 30
0.0
 11
23.29060005926962
 21
12.22977316463513
 31
0.0
  0
LINE
  5
9C7
330
1F
100
AcDbEntity
  8
0
100
AcDbLine
 10
18.45802554411685
 20
13.92156395827825
 30
0.0
 11
18.4580255441169
 21
13.81478654766303
 31
0.0
  0
LINE
  5
9C8
330
1F
100
AcDbEntity
  8
0
100
AcDbLine
 10
18.57011907437996
 20
13.92156395827825
 30
0.0
 11
18.57011907437996
 21
13.81478654766314
 31
0.0
  0
LINE
  5
9C9
330
1F
100
AcDbEntity
  8
OBJECT1
100
AcDbLine
 10
18.57011907437996
 20
13.92156395827825
 30
0.0
 11
18.79056999313647
 21
13.92156395827825
 31
0.0
  0
LINE
  5
9CA
330
1F
100
AcDbEntity
  8
OBJECT1
100
AcDbLine
 10
18.79056999313647
 20
13.92156395827825
 30
0.0
 11
18.79056999313647
 21
15.73335649158505
 31
0.0
  0
LINE
  5
9CB
330
1F
100
AcDbEntity
  8
OBJECT1
100
AcDbLine
 10
18.79056999313647
 20
13.92156395827825
 30
0.0
 11
18.79056999313647
 21
13.88051666936237
 31
0.0
  0
LINE
  5
9CC
330
1F
100
AcDbEntity
  8
OBJECT1
100
AcDbLine
 10
18.79056999313647
 20
13.88051666936237
 30
0.0
 11
18.9399134274316
 21
13.88051666936237
 31
0.0
  0
LINE
  5
9CD
330
1F
100
AcDbEntity
  8
OBJECT1
100
AcDbLine
 10
18.9399134274316
 20
13.88051666936237
 30
0.0
 11
18.9399134274316
 21
15.77070776903272
 31
0.0
  0
LINE
  5
9CE
330
1F
100
AcDbEntity
  8
OBJECT1
100
AcDbLine
 10
18.79056999313647
 20
15.73335649158505
 30
0.0
 11
18.79056999313641
 21
15.77070776903272
 31
0.0
  0
LINE
  5
9CF
330
1F
100
AcDbEntity
  8
OBJECT1
100
AcDbLine
 10
18.9399134274316
 20
15.77070776903272
 30
0.0
 11
18.79056999313641
 21
15.77070776903272
 31
0.0
  0
LINE
  5
9D0
330
1F
100
AcDbEntity
  8
0
100
AcDbLine
 10
18.23383848359068
 20
13.92156395827825
 30
0.0
 11
18.23383848359068
 21
13.81478654766314
 31
0.0
  0
LINE
  5
9D1
330
1F
100
AcDbEntity
  8
0
100
AcDbLine
 10
18.12174495332763
 20
13.92156395827825
 30
0.0
 11
18.12174495332763
 21
13.81478654766314
 31
0.0
  0
LINE
  5
9D2
330
1F
100
AcDbEntity
  8
OBJECT1
100
AcDbLine
 10
18.12174495332763
 20
13.92156395827825
 30
0.0
 11
17.79219797419918
 21
13.92156395827825
 31
0.0
  0
LINE
  5
9D3
330
1F
100
AcDbEntity
  8
OBJECT1
100
AcDbLine
 10
17.79219797419918
 20
13.92156395827825
 30
0.0
 11
17.79219797419912
 21
15.73335649158505
 31
0.0
  0
LINE
  5
9D4
330
1F
100
AcDbEntity
  8
OBJECT1
100
AcDbLine
 10
18.57011907437996
 20
13.92156395827825
 30
0.0
 11
18.12174495332763
 21
13.92156395827825
 31
0.0
  0
LINE
  5
9D5
330
1F
100
AcDbEntity
  8
0
100
AcDbLine
 10
18.57011907437996
 20
13.81478654766314
 30
0.0
 11
18.12174495332763
 21
13.81478654766314
 31
0.0
  0
LINE
  5
9D6
330
1F
100
AcDbEntity
  8
OBJECT1
100
AcDbLine
 10
18.79056999313647
 20
15.73335649158505
 30
0.0
 11
17.79219797419912
 21
15.73335649158505
 31
0.0
  0
LINE
  5
9D7
102
{ACAD_REACTORS
330
79A
102
}
330
1F
100
AcDbEntity
  8
OBJECT1
100
AcDbLine
 10
17.79219797419918
 20
17.08479960638416
 30
0.0
 11
17.65020065456312
 21
17.21381908510562
 31
0.0
  0
LINE
  5
9D8
102
{ACAD_REACTORS
330
79A
102
}
330
1F
100
AcDbEntity
  8
OBJECT1
100
AcDbLine
 10
17.39202368222814
 20
16.89127033936259
 30
0.0
 11
17.19839095297689
 21
17.08479960638416
 31
0.0
  0
LINE
  5
9D9
102
{ACAD_REACTORS
330
79A
102
}
330
1F
100
AcDbEntity
  8
OBJECT1
100
AcDbLine
 10
17.65020065456312
 20
17.21381908510562
 30
0.0
 11
17.39202368222814
 21
16.89127033936259
 31
0.0
  0
LINE
  5
9DA
330
1F
100
AcDbEntity
  8
OBJECT1
100
AcDbLine
 10
22.61472554840165
 20
14.04323486935541
 30
0.0
 11
22.80869681609201
 21
13.84926161092724
 31
0.0
  0
LINE
  5
9DB
330
1F
100
AcDbEntity
  8
OBJECT1
100
AcDbLine
 10
22.22235548778937
 20
14.0646692673944
 30
0.0
 11
22.05127297650332
 21
13.89359820285059
 31
0.0
  0
ARC
  5
9DC
330
1F
100
AcDbEntity
  8
OBJECT1
100
AcDbCircle
 10
22.06618210938094
 20
13.8786756324931
 30
0.0
 40
0.0210938477358507
100
AcDbArc
 50
134.9735640000043
 51
225.0291750000006
  0
LINE
  5
9DD
330
1F
100
AcDbEntity
  8
OBJECT1
100
AcDbLine
 10
22.05127372302999
 20
13.86375231560887
 30
0.0
 11
22.05127372302999
 21
13.86375231560887
 31
0.0
  0
ARC
  5
9DE
330
1F
100
AcDbEntity
  8
OBJECT1
100
AcDbCircle
 10
22.03631606591929
 20
13.84880809597805
 30
0.0
 40
0.0211434678981923
100
AcDbArc
 50
315.0263669999935
 51
44.97453299999237
  0
LINE
  5
9DF
330
1F
100
AcDbEntity
  8
OBJECT1
100
AcDbLine
 10
22.23007569329987
 20
14.07179150504598
 30
0.0
 11
22.24935997012138
 21
14.09107578186743
 31
0.0
  0
LINE
  5
9E0
330
1F
100
AcDbEntity
  8
OBJECT1
100
AcDbLine
 10
22.23706952836502
 20
14.06466976507883
 30
0.0
 11
22.22235548778937
 21
14.0646692673944
 31
0.0
  0
ARC
  5
9E1
330
1F
100
AcDbEntity
  8
OBJECT1
100
AcDbCircle
 10
22.26491285782671
 20
14.07551393584205
 30
0.0
 40
0.0220014392158433
100
AcDbArc
 50
45.01311499999846
 51
134.9842679999993
  0
ARC
  5
9E2
330
1F
100
AcDbEntity
  8
OBJECT1
100
AcDbCircle
 10
22.45596222014861
 20
13.94668757108397
 30
0.0
 40
0.0219975681393486
100
AcDbArc
 50
225.0074160000006
 51
314.9930109999982
  0
LINE
  5
9E3
330
1F
100
AcDbEntity
  8
OBJECT2
100
AcDbLine
 10
22.71171056014131
 20
13.94624786687799
 30
0.0
 11
22.56850235917372
 21
13.80303966591034
 31
0.0
  0
ARC
  5
9E4
330
1F
100
AcDbEntity
  8
OBJECT1
100
AcDbCircle
 10
22.59917141648517
 20
14.02768073743894
 30
0.0
 40
0.0219965123912136
100
AcDbArc
 50
45.00065599999906
 51
134.9947549999977
  0
LINE
  5
9E5
330
1F
100
AcDbEntity
  8
OBJECT1
100
AcDbLine
 10
22.58361902646421
 20
14.0432361135665
 30
0.0
 11
22.47151485901176
 21
13.93113144842968
 31
0.0
  0
LINE
  5
9E6
330
1F
100
AcDbEntity
  8
OBJECT1
100
AcDbLine
 10
22.28046624321663
 20
14.09107478649852
 30
0.0
 11
22.44040983012777
 21
13.93113119958744
 31
0.0
  0
ARC
  5
9E7
330
1F
100
AcDbEntity
  8
OBJECT1
100
AcDbCircle
 10
22.79313994691105
 20
13.83370872322186
 30
0.0
 40
0.0219979200553935
100
AcDbArc
 50
315.0122379999954
 51
44.99213399999552
  0
ARC
  5
9E8
330
1F
100
AcDbEntity
  8
OBJECT2
100
AcDbCircle
 10
1.812327534595837
 20
13.94068254780637
 30
0.0
 40
0.0862001521473141
100
AcDbArc
 50
282.1143365401264
 51
77.88660274259426
  0
ARC
  5
9E9
330
1F
100
AcDbEntity
  8
OBJECT1
100
AcDbCircle
 10
1.848508017082835
 20
13.94068254780637
 30
0.0
 40
0.0862001521473141
100
AcDbArc
 50
102.1133972574184
 51
257.8856634598735
  0
LINE
  5
9EA
330
1F
100
AcDbEntity
  8
OBJECT2
100
AcDbLine
 10
26.10081533510342
 20
12.85116007742482
 30
0.0
 11
26.13339328863597
 21
12.78470442999534
 31
0.0
  0
LINE
  5
9EB
330
1F
100
AcDbEntity
  8
OBJECT2
100
AcDbLine
 10
26.10081533510342
 20
12.8966341012983
 30
0.0
 11
26.10081533510342
 21
12.85116007742482
 31
0.0
  0
LINE
  5
9EC
330
1F
100
AcDbEntity
  8
OBJECT2
100
AcDbLine
 10
26.143271878369
 20
12.95450984380406
 30
0.0
 11
26.10081533510342
 21
12.8966341012983
 31
0.0
  0
LINE
  5
9ED
330
1F
100
AcDbEntity
  8
OBJECT1
100
AcDbLine
 10
26.22391172539622
 20
12.92970605468784
 30
0.0
 11
26.19844188091721
 21
12.98757124164106
 31
0.0
  0
LINE
  5
9EE
330
1F
100
AcDbEntity
  8
OBJECT1
100
AcDbLine
 10
26.22391172539622
 20
13.04958124220931
 30
0.0
 11
26.19844188091721
 21
12.98757124164106
 31
0.0
  0
LINE
  5
9EF
330
1F
100
AcDbEntity
  8
OBJECT1
100
AcDbLine
 10
26.18995908707645
 20
12.80929394139582
 30
0.0
 11
26.22391172539622
 21
12.87130394196404
 31
0.0
  0
LINE
  5
9F0
330
1F
100
AcDbEntity
  8
OBJECT1
100
AcDbLine
 10
26.22391172539622
 20
12.87130394196404
 30
0.0
 11
26.22391172539622
 21
12.92970605468784
 31
0.0
  0
LINE
  5
9F1
330
1F
100
AcDbEntity
  8
OBJECT1
100
AcDbLine
 10
26.18995908707645
 20
13.11159124277756
 30
0.0
 11
26.22391172539622
 21
13.04958124220931
 31
0.0
  0
LINE
  5
9F2
330
1F
100
AcDbEntity
  8
OBJECT2
100
AcDbLine
 10
26.19844188091721
 20
12.98757124164106
 30
0.0
 11
26.143271878369
 21
12.95450984380406
 31
0.0
  0
LINE
  5
9F3
330
1F
100
AcDbEntity
  8
OBJECT1
100
AcDbLine
 10
26.13339328863597
 20
12.78470442999534
 30
0.0
 11
26.18995908707645
 21
12.80929394139582
 31
0.0
  0
LINE
  5
9F4
330
1F
100
AcDbEntity
  8
OBJECT1
100
AcDbLine
 10
26.13339328863597
 20
13.13618040232631
 30
0.0
 11
26.18995908707645
 21
13.11159124277756
 31
0.0
  0
LINE
  5
9F5
330
1F
100
AcDbEntity
  8
OBJECT1
100
AcDbLine
 10
26.13894468793037
 20
8.4588796281175
 30
0.0
 11
26.23535799385453
 21
8.351295785843717
 31
0.0
  0
LINE
  5
9F6
330
1F
100
AcDbEntity
  8
OBJECT1
  6
CONTINUOUS
100
AcDbLine
 10
3.015737858191343
 20
13.68784062190505
 30
0.0
 11
3.015737858191286
 21
9.764675898935706
 31
0.0
  0
ARC
  5
9F7
330
1F
100
AcDbEntity
  8
OBJECT1
100
AcDbCircle
 10
1.848508017082835
 20
13.77212146805223
 30
0.0
 40
0.0862001521473141
100
AcDbArc
 50
102.1143365401264
 51
257.8866027425815
  0
LINE
  5
9F8
330
1F
100
AcDbEntity
  8
OBJECT1
  6
CONTINUOUS
100
AcDbLine
 10
3.641362088703417
 20
10.38914034570316
 30
0.0
 11
3.641362088703417
 21
13.68784026031531
 31
0.0
  0
LINE
  5
9F9
330
1F
100
AcDbEntity
  8
OBJECT1
  6
CONTINUOUS
100
AcDbLine
 10
3.641362088703473
 20
14.02497232465651
 30
0.0
 11
3.641362088703417
 21
14.67262821119004
 31
0.0
  0
LINE
  5
9FA
330
1F
100
AcDbEntity
  8
OBJECT1
  6
CONTINUOUS
100
AcDbLine
 10
3.015737858191286
 20
14.67262870276644
 30
0.0
 11
3.015737858191286
 21
14.02497232465651
 31
0.0
  0
LINE
  5
9FB
330
1F
100
AcDbEntity
  8
OBJECT1
  6
CONTINUOUS
100
AcDbLine
 10
3.64136208870336
 20
15.00976027530842
 30
0.0
 11
3.64136208870336
 21
17.11389416569255
 31
0.0
  0
ARC
  5
9FC
330
1F
100
AcDbEntity
  8
OBJECT1
100
AcDbCircle
 10
1.341338331477899
 20
14.75691835912479
 30
0.0
 40
0.0862001521473141
100
AcDbArc
 50
102.1143365401264
 51
257.8866027425815
  0
ARC
  5
9FD
330
1F
100
AcDbEntity
  8
OBJECT1
100
AcDbCircle
 10
1.341338331477899
 20
14.92547943887893
 30
0.0
 40
0.0862001521473141
100
AcDbArc
 50
102.1133972574184
 51
257.8856634598735
  0
ARC
  5
9FE
330
1F
100
AcDbEntity
  8
OBJECT2
100
AcDbCircle
 10
1.305157848990901
 20
14.92547943887893
 30
0.0
 40
0.0862001521473141
100
AcDbArc
 50
282.1143365401264
 51
77.88660274259426
  0
LINE
  5
9FF
330
1F
100
AcDbEntity
  8
OBJECT1
  6
CONTINUOUS
100
AcDbLine
 10
3.015737858191343
 20
17.11389416569255
 30
0.0
 11
3.015737858191343
 21
15.00976027530842
 31
0.0
  0
LINE
  5
A00
330
1F
100
AcDbEntity
  8
OBJECT1
  6
CONTINUOUS
100
AcDbLine
 10
3.015737858191343
 20
16.89337706672438
 30
0.0
 11
1.182340299000642
 21
16.89337706672438
 31
0.0
  0
LINE
  5
A01
330
1F
100
AcDbEntity
  8
OBJECT1
  6
CONTINUOUS
100
AcDbLine
 10
3.015737858191343
 20
17.45769900071812
 30
0.0
 11
3.015737858191343
 21
17.11389416569255
 31
0.0
  0
ARC
  5
A02
330
1F
100
AcDbEntity
  8
OBJECT2
100
AcDbCircle
 10
6.885484579327666
 20
8.044709886264115
 30
0.0
 40
0.2950396054240691
100
AcDbArc
 50
13.36224781238487
 51
166.6377521876214
  0
LINE
  5
A03
330
1F
100
AcDbEntity
  8
OBJECT1
100
AcDbLine
 10
6.598432178199445
 20
9.507127537421041
 30
0.0
 11
6.598432178199445
 21
8.112895572264392
 31
0.0
  0
LINE
  5
A04
330
1F
100
AcDbEntity
  8
OBJECT1
100
AcDbLine
 10
7.74664178271233
 20
9.507127537421041
 30
0.0
 11
7.74664178271233
 21
8.095148584830297
 31
0.0
  0
HATCH
  5
A05
330
1F
100
AcDbEntity
  8
OBJECT1
100
AcDbHatch
 10
0.0
 20
0.0
 30
0.0
210
0.0
220
0.0
230
1.0
  2
EARTH
 70
     0
 71
     0
 91
        1
 92
        7
 72
     1
 73
     1
 93
       79
 10
9.505877672697451
 20
9.30118403134918
 42
0.0
 10
9.253047048146115
 20
9.020477833457931
 42
0.0
 10
8.91593575308677
 20
9.048547172638478
 42
0.0
 10
8.915935753086714
 20
8.627486275040723
 42
0.0
 10
8.578824458027767
 20
8.739770034805957
 42
0.0
 10
8.578824458027654
 20
8.37484941633005
 42
0.0
 10
8.213621503961448
 20
8.402920356271266
 42
0.0
 10
8.213621503961448
 20
8.009930398614983
 42
0.0
 10
7.960790879409714
 20
8.066070677736803
 42
0.0
 10
7.988882538416973
 20
7.701151660021821
 42
0.0
 10
7.820326890887471
 20
7.645009780139076
 42
0.0
 10
7.904604714652279
 20
7.36430198148713
 42
0.0
 10
7.5113101015787
 20
7.167807002658889
 42
0.0
 10
7.314662795041428
 20
7.30816170236531
 42
0.0
 10
7.146107147511983
 20
7.392372921428346
 42
0.0
 10
7.172536980455888
 20
8.112899647095105
 42
0.7902874824673324
 10
7.74664178271233
 20
8.112899647095105
 42
0.0
 10
7.74664178271233
 20
9.507131612251782
 42
0.0
 10
7.982034791322448
 20
9.507131612251782
 42
0.0
 10
7.982034791322504
 20
9.764679973766448
 42
0.0
 10
11.32933610272049
 20
9.764679973766448
 42
0.0
 10
11.32933610272037
 20
14.67263277759724
 42
0.0
 10
13.02178955533081
 20
14.6726341074214
 42
0.8083113807096689
 10
13.02182587067737
 20
14.84120297383262
 42
0.8081400760270385
 10
13.02182448901548
 20
15.00976435013916
 42
0.0
 10
11.32933610272037
 20
15.00976435013916
 42
0.0
 10
11.32933610272037
 20
16.89338114155512
 42
0.0
 10
13.16273366191113
 20
16.89338114155512
 42
0.0
 10
13.0736293895976
 20
16.51536917419517
 42
0.0
 10
12.62414861176613
 20
16.54344011413667
 42
0.0
 10
12.56796244700869
 20
16.23466137554319
 42
0.0
 10
12.23085115194969
 20
16.23466137554316
 42
0.0
 10
12.11848166917768
 20
15.9539535768913
 42
0.0
 10
12.28703731670707
 20
15.44867985946973
 42
0.0
 10
12.53987078800138
 20
15.44867985946973
 42
0.0
 10
12.68033192978065
 20
15.22411394070033
 42
0.0
 10
13.15790436661943
 20
15.28025582058279
 42
0.0
 10
13.27027669613435
 20
15.0556899018135
 42
0.0
 10
13.77594079198034
 20
14.91533520210703
 42
0.0
 10
13.57929348544364
 20
14.60655806427451
 42
0.0
 10
13.8040324509876
 20
14.38199214550505
 42
0.0
 10
13.49501566167843
 20
14.18549556591611
 42
0.0
 10
13.21409053137681
 20
14.26970838573987
 42
0.0
 10
13.18599887236972
 20
13.87671842808364
 42
0.0
 10
12.93316540107535
 20
13.84864748814229
 42
0.0
 10
12.96125706008261
 20
13.48372686966695
 42
0.0
 10
12.96125706008261
 20
13.34337377072102
 42
0.0
 10
12.87697923631786
 20
12.97845315224495
 42
0.0
 10
12.45559296423657
 20
13.03459503212764
 42
0.0
 10
12.48368462324388
 20
12.6696760144124
 42
0.0
 10
12.09039001017036
 20
12.64160507447118
 42
0.0
 10
12.20275949294243
 20
12.19247323693224
 42
0.0
 10
12.00611218640555
 20
12.02404759728475
 42
0.0
 10
12.06229835116305
 20
11.54684481980456
 42
0.0
 10
12.48368462324383
 20
11.32227890103504
 42
0.0
 10
12.42750130522942
 20
10.98542922250032
 42
0.0
 10
12.70842643553088
 20
10.90121800343732
 42
0.0
 10
12.70842643553088
 20
10.5924392648441
 42
0.0
 10
13.18599887236966
 20
10.56436832490285
 42
0.0
 10
13.0736293895976
 20
10.22752024712906
 42
0.0
 10
13.38264617890636
 20
10.03102366754018
 42
0.0
 10
13.15790436661932
 20
9.638033709883728
 42
0.0
 10
13.38264617890636
 20
9.357325911231725
 42
0.0
 10
13.0174432248401
 20
9.048547172638507
 42
0.0
 10
12.79270425929563
 20
9.357325911231697
 42
0.0
 10
12.56796244700864
 20
8.992406893516687
 42
0.0
 10
12.17466783393511
 20
9.104689052520967
 42
0.0
 10
12.17466783393511
 20
9.301184031349151
 42
0.0
 10
11.83755653887565
 20
9.048547172638507
 42
0.0
 10
11.9780205273979
 20
8.76784097474723
 42
0.0
 10
11.66900089134621
 20
8.48713317609517
 42
0.0
 10
11.3880757610447
 20
8.767840974747173
 42
0.0
 10
11.10715063074262
 20
8.487133176095255
 42
0.0
 10
10.88241166519871
 20
8.880123133751482
 42
0.0
 10
10.65767269965458
 20
8.655557214982025
 42
0.0
 10
10.43293088736764
 20
9.160830932403428
 42
0.0
 10
10.18009741607293
 20
8.936265013633942
 42
0.0
 10
9.983450109536235
 20
9.216972812286115
 42
0.0
 10
9.81489730874965
 20
8.992406893516687
 42
0.0
 97
        0
 75
     0
 76
     1
 52
0.0
 41
0.75
 77
     0
 78
     6
 53
180.0
 43
339.3635203953505
 44
-147.1686534480035
 45
-0.1875
 46
0.1875
 79
     2
 49
0.1875
 49
-0.1875
 53
180.0
 43
339.3635203953505
 44
-147.0983409480035
 45
-0.1875
 46
0.1875
 79
     2
 49
0.1875
 49
-0.1875
 53
180.0
 43
339.3635203953505
 44
-147.0280284480035
 45
-0.1875
 46
0.1875
 79
     2
 49
0.1875
 49
-0.1875
 53
90.0
 43
339.3400828953505
 44
-147.0045909480035
 45
0.1875
 46
0.1875
 79
     2
 49
0.1875
 49
-0.1875
 53
90.0
 43
339.2697703953505
 44
-147.0045909480035
 45
0.1875
 46
0.1875
 79
     2
 49
0.1875
 49
-0.1875
 53
90.0
 43
339.1994578953505
 44
-147.0045909480035
 45
0.1875
 46
0.1875
 79
     2
 49
0.1875
 49
-0.1875
 47
0.1198270882410543
 98
        1
 10
11.1387807911834
 20
9.258094754356676
  0
LINE
  5
A06
330
1F
100
AcDbEntity
  8
TEXT
100
AcDbLine
 10
9.820849038130489
 20
5.840168254797148
 30
0.0
 11
9.640930702196016
 21
5.840168254797148
 31
0.0
  0
LINE
  5
A07
330
1F
100
AcDbEntity
  8
TEXT
100
AcDbLine
 10
9.820849038130489
 20
5.456273328220063
 30
0.0
 11
9.640930702196016
 21
5.456273328220063
 31
0.0
  0
TEXT
  5
A08
330
1F
100
AcDbEntity
  8
OBJECT1
100
AcDbText
 10
5.168067866111179
 20
3.041793093866829
 30
0.0
 40
0.1875
  1
(SHOWN WITH OPTIONAL MS)
  7
ROMANS
 72
     1
 11
7.226103580396895
 21
3.135543093866829
 31
0.0
100
AcDbText
 73
     2
  0
TEXT
  5
A09
330
1F
100
AcDbEntity
  8
OBJECT1
100
AcDbText
 10
4.854169711893707
 20
3.530072418838642
 30
0.0
 40
0.1875
  1
 HORIZONTAL PIT INSTALLATION
  7
ROMANS
 72
     1
 11
7.180062569036564
 21
3.623822418838642
 31
0.0
100
AcDbText
 73
     2
  0
LINE
  5
A0A
330
1F
100
AcDbEntity
  8
TEXT
100
AcDbLine
 10
9.640930702196016
 20
5.840168254797148
 30
0.0
 11
9.771911168177297
 21
5.719684306915283
 31
0.0
  0
LINE
  5
A0B
330
1F
100
AcDbEntity
  8
TEXT
100
AcDbLine
 10
9.640930702196016
 20
5.456273328220063
 30
0.0
 11
9.771911168177297
 21
5.576757276101943
 31
0.0
  0
LINE
  5
A0C
330
1F
100
AcDbEntity
  8
TEXT
100
AcDbLine
 10
9.378767620724289
 20
5.719684306915283
 30
0.0
 11
9.378767620724289
 21
5.576757276101943
 31
0.0
  0
LINE
  5
A0D
330
1F
100
AcDbEntity
  8
TEXT
100
AcDbLine
 10
9.378767620724289
 20
5.576757276101943
 30
0.0
 11
9.771911168177297
 21
5.576757276101943
 31
0.0
  0
LINE
  5
A0E
330
1F
100
AcDbEntity
  8
TEXT
100
AcDbLine
 10
9.378767620724289
 20
5.719684306915283
 30
0.0
 11
9.771911168177297
 21
5.719684306915283
 31
0.0
  0
ARC
  5
A0F
330
1F
100
AcDbEntity
  8
OBJECT1
100
AcDbCircle
 10
6.885484579327666
 20
8.18108125826464
 30
0.0
 40
0.2950396054240691
100
AcDbArc
 50
193.3622478123785
 51
346.637752187615
  0
ARC
  5
A10
330
1F
100
AcDbEntity
  8
OBJECT1
100
AcDbCircle
 10
7.459589381584109
 20
8.18108125826464
 30
0.0
 40
0.2950396054240691
100
AcDbArc
 50
193.3622478123848
 51
346.6377521876214
  0
LINE
  5
A11
330
1F
100
AcDbEntity
  8
TEXT
100
AcDbLine
 10
10.01289913997808
 20
5.648220791508606
 30
0.0
 11
9.820849038130489
 21
5.840168254797148
 31
0.0
  0
LINE
  5
A12
330
1F
100
AcDbEntity
  8
TEXT
100
AcDbLine
 10
10.01289913997808
 20
5.648220791508606
 30
0.0
 11
9.820849038130489
 21
5.456273328220063
 31
0.0
  0
LINE
  5
A13
330
1F
100
AcDbEntity
  8
OBJECT1
  6
CONTINUOUS
100
AcDbLine
 10
11.32933610272043
 20
14.67263205225688
 30
0.0
 11
11.32933610272043
 21
9.764675898935763
 31
0.0
  0
LINE
  5
A14
330
1F
100
AcDbEntity
  8
OBJECT1
  6
CONTINUOUS
100
AcDbLine
 10
10.70487165595294
 20
10.38914034570316
 30
0.0
 11
10.70487165595294
 21
14.67263070543668
 31
0.0
  0
ARC
  5
A15
330
1F
100
AcDbEntity
  8
OBJECT1
100
AcDbCircle
 10
7.647820607346019
 20
13.87922175095673
 30
0.0
 40
0.021094048973634
100
AcDbArc
 50
225.0035100000049
 51
314.9960629999987
  0
LINE
  5
A16
330
1F
100
AcDbEntity
  8
OBJECT2
100
AcDbLine
 10
7.18368139438995
 20
13.79283623878052
 30
0.0
 11
7.183681155753319
 21
14.05066619418064
 31
0.0
  0
LINE
  5
A17
330
1F
100
AcDbEntity
  8
OBJECT2
100
AcDbLine
 10
7.06892818927109
 20
13.72632486395684
 30
0.0
 11
7.068927473361199
 21
14.12698267161403
 31
0.0
  0
LINE
  5
A18
330
1F
100
AcDbEntity
  8
OBJECT1
100
AcDbLine
 10
7.322040536768881
 20
13.87771165824563
 30
0.0
 11
7.322040334368793
 21
13.44765786403397
 31
0.0
  0
LINE
  5
A19
330
1F
100
AcDbEntity
  8
OBJECT2
100
AcDbLine
 10
6.674078558999426
 20
14.02736881410675
 30
0.0
 11
6.674077604452904
 21
13.71317264371663
 31
0.0
  0
LINE
  5
A1A
330
1F
100
AcDbEntity
  8
OBJECT2
100
AcDbLine
 10
6.525590953308082
 20
14.54424339204757
 30
0.0
 11
6.525590953308082
 21
13.16732235936899
 31
0.0
  0
LINE
  5
A1B
330
1F
100
AcDbEntity
  8
OBJECT2
100
AcDbLine
 10
6.626825161702171
 20
13.23900973698093
 30
0.0
 11
6.626825877612063
 21
14.41340249067636
 31
0.0
  0
LINE
  5
A1C
330
1F
100
AcDbEntity
  8
OBJECT2
100
AcDbLine
 10
6.064647877381602
 20
14.16243727163077
 30
0.0
 11
6.064647877381602
 21
13.55037416309048
 31
0.0
  0
LINE
  5
A1D
330
1F
100
AcDbEntity
  8
OBJECT1
100
AcDbLine
 10
5.303354112090104
 20
14.08059277788678
 30
0.0
 11
5.303354112090104
 21
13.63221865683445
 31
0.0
  0
LINE
  5
A1E
330
1F
100
AcDbEntity
  8
OBJECT2
100
AcDbLine
 10
6.157724231579877
 20
14.37530368884307
 30
0.0
 11
6.157726092529728
 21
13.33750774587818
 31
0.0
  0
LINE
  5
A1F
330
1F
100
AcDbEntity
  8
OBJECT2
100
AcDbLine
 10
6.424236127768025
 20
13.22767276302323
 30
0.0
 11
6.42434959385865
 21
14.54426177682722
 31
0.0
  0
LINE
  5
A20
330
1F
100
AcDbEntity
  8
0
100
AcDbLine
 10
5.196576701474995
 20
13.63221865683445
 30
0.0
 11
5.196576701474995
 21
14.08059277788678
 31
0.0
  0
LINE
  5
A21
330
1F
100
AcDbEntity
  8
0
100
AcDbLine
 10
4.785597038948353
 20
14.04820818584087
 30
0.0
 11
4.785597038948239
 21
13.66460324888035
 31
0.0
  0
LINE
  5
A22
330
1F
100
AcDbEntity
  8
OBJECT1
  6
CONTINUOUS
100
AcDbLine
 10
8.483544320665416
 20
10.38914034570316
 30
0.0
 11
10.70487165595294
 21
10.38914034570316
 31
0.0
  0
TEXT
  5
A23
330
1F
100
AcDbEntity
  8
TEXT
100
AcDbText
 10
7.957531263181777
 20
11.46414718165295
 30
0.0
 40
0.35191604497582
  1
30" MAX.
  7
ROMANS
 72
     1
 11
9.180858467145341
 21
11.64010520414086
 31
0.0
100
AcDbText
 73
     2
  0
TEXT
  5
A24
330
1F
100
AcDbEntity
  8
TEXT
100
AcDbText
 10
7.999426030440803
 20
12.01741366955702
 30
0.0
 40
0.35191604497582
  1
12" MIN.
  7
ROMANS
 72
     1
 11
9.180858467145341
 21
12.19337169204493
 31
0.0
100
AcDbText
 73
     2
  0
SOLID
  5
A25
330
1F
100
AcDbEntity
  8
TEXT
100
AcDbTrace
 10
9.054443842783072
 20
10.74105639067897
 30
0.0
 11
9.171749191108332
 21
10.74105639067897
 31
0.0
 12
9.113096516945674
 22
10.38914034570316
 32
0.0
 13
9.113096516945674
 23
10.38914034570316
 33
0.0
  0
LINE
  5
A26
330
1F
100
AcDbEntity
  8
TEXT
100
AcDbLine
 10
9.113096516945674
 20
11.40106981817831
 30
0.0
 11
9.113096516945674
 21
10.38914034570316
 31
0.0
  0
LINE
  5
A27
330
1F
100
AcDbEntity
  8
TEXT
100
AcDbLine
 10
9.113096516945674
 20
12.44856695097161
 30
0.0
 11
9.113096516945674
 21
13.39989754149485
 31
0.0
  0
SOLID
  5
A28
330
1F
100
AcDbEntity
  8
TEXT
100
AcDbTrace
 10
9.054443842783072
 20
13.04798149651904
 30
0.0
 11
9.171749191108332
 21
13.04798149651904
 31
0.0
 12
9.113096516945674
 22
13.39989754149485
 32
0.0
 13
9.113096516945674
 23
13.39989754149485
 33
0.0
  0
LINE
  5
A29
330
1F
100
AcDbEntity
  8
OBJECT1
  6
CONTINUOUS
100
AcDbLine
 10
7.620725111655573
 20
12.58479604425821
 30
0.0
 11
7.615969636100643
 21
12.59828659708156
 31
0.0
  0
LINE
  5
A2A
330
1F
100
AcDbEntity
  8
OBJECT2
100
AcDbLine
 10
7.322040334368793
 20
13.44765786403397
 30
0.0
 11
7.0216746704899
 21
13.44765786403397
 31
0.0
  0
LINE
  5
A2B
330
1F
100
AcDbEntity
  8
OBJECT2
100
AcDbLine
 10
7.021675507883728
 20
13.5217934494315
 30
0.0
 11
7.021675269247097
 21
13.69354239301878
 31
0.0
  0
LINE
  5
A2C
330
1F
100
AcDbEntity
  8
OBJECT1
100
AcDbLine
 10
7.021674553337092
 20
13.52190704047615
 30
0.0
 11
7.0216746704899
 21
13.44765786403397
 31
0.0
  0
LINE
  5
A2D
330
1F
100
AcDbEntity
  8
OBJECT1
100
AcDbLine
 10
7.387693900180906
 20
13.44765786403397
 30
0.0
 11
7.322040334368793
 21
13.44765786403397
 31
0.0
  0
ARC
  5
A2E
330
1F
100
AcDbEntity
  8
OBJECT1
  6
CONTINUOUS
100
AcDbCircle
 10
7.387693579261721
 20
13.43753269353305
 30
0.0
 40
0.0101251705059991
100
AcDbArc
 50
0.0027160000020872
 51
89.99818400000453
  0
LINE
  5
A2F
330
1F
100
AcDbEntity
  8
OBJECT2
100
AcDbLine
 10
6.626825877612063
 20
13.76641892316539
 30
0.0
 11
6.674057081701093
 21
13.76642966181458
 31
0.0
  0
LINE
  5
A30
330
1F
100
AcDbEntity
  8
OBJECT1
100
AcDbLine
 10
6.993167257955278
 20
13.54152702979811
 30
0.0
 11
6.687734541204562
 21
13.42669101776235
 31
0.0
  0
ARC
  5
A31
330
1F
100
AcDbEntity
  8
OBJECT1
  6
CONTINUOUS
100
AcDbCircle
 10
6.957380381650054
 20
13.43753269353305
 30
0.0
 40
0.0101251705059991
100
AcDbArc
 50
90.00181599999546
 51
179.9972839999979
  0
LINE
  5
A32
330
1F
100
AcDbEntity
  8
OBJECT1
100
AcDbLine
 10
7.0216746704899
 20
13.44765786403397
 30
0.0
 11
6.957380060730983
 21
13.44765786403397
 31
0.0
  0
ARC
  5
A33
330
1F
100
AcDbEntity
  8
OBJECT1
100
AcDbCircle
 10
7.000590050903937
 20
13.52178915397183
 30
0.0
 40
0.021085274410833
100
AcDbArc
 50
0.0111240000026271
 51
110.6098919999989
  0
LINE
  5
A34
330
1F
100
AcDbEntity
  8
OBJECT1
  6
CONTINUOUS
100
AcDbLine
 10
7.088166184292376
 20
13.17092131513933
 30
0.0
 11
7.088166184292376
 21
12.58370057384081
 31
0.0
  0
LINE
  5
A35
330
1F
100
AcDbEntity
  8
OBJECT1
  6
CONTINUOUS
100
AcDbLine
 10
7.256907776619513
 20
13.17092131513933
 30
0.0
 11
7.256907776619513
 21
12.58370057384081
 31
0.0
  0
ARC
  5
A36
330
1F
100
AcDbEntity
  8
OBJECT1
  6
CONTINUOUS
100
AcDbCircle
 10
7.044293032804134
 20
12.58370124880718
 30
0.0
 40
0.0438731514882471
100
AcDbArc
 50
270.0008539999999
 51
359.999146
  0
ARC
  5
A37
330
1F
100
AcDbEntity
  8
OBJECT1
  6
CONTINUOUS
100
AcDbCircle
 10
7.300780928107755
 20
12.58370124880718
 30
0.0
 40
0.0438731514882471
100
AcDbArc
 50
180.0008389999984
 51
269.9991589999986
  0
LINE
  5
A38
330
1F
100
AcDbEntity
  8
OBJECT1
  6
CONTINUOUS
100
AcDbLine
 10
7.300780253141383
 20
12.53982809731891
 30
0.0
 11
7.588897072510789
 21
12.53982809731891
 31
0.0
  0
ARC
  5
A39
330
1F
100
AcDbEntity
  8
OBJECT1
  6
CONTINUOUS
100
AcDbCircle
 10
7.044293370287263
 20
13.17092131513933
 30
0.0
 40
0.0438728140050624
100
AcDbArc
 50
0.000214000000694
 51
89.99957300000653
  0
ARC
  5
A3A
330
1F
100
AcDbEntity
  8
OBJECT1
  6
CONTINUOUS
100
AcDbCircle
 10
7.368791489138843
 20
13.17260873106261
 30
0.0
 40
0.0421853980817908
100
AcDbArc
 50
19.4175555364768
 51
90.0
  0
ARC
  5
A3B
330
1F
100
AcDbEntity
  8
OBJECT1
  6
CONTINUOUS
100
AcDbCircle
 10
7.300780928107755
 20
13.17092097765615
 30
0.0
 40
0.0438731514882471
100
AcDbArc
 50
90.00083899999845
 51
179.9995799999968
  0
LINE
  5
A3C
330
1F
100
AcDbEntity
  8
OBJECT1
  6
CONTINUOUS
100
AcDbLine
 10
7.300780253141383
 20
13.21479412914439
 30
0.0
 11
7.368791489138843
 21
13.21479412914439
 31
0.0
  0
LINE
  5
A3D
330
1F
100
AcDbEntity
  8
OBJECT1
100
AcDbLine
 10
7.411133603064271
 20
13.27657946294988
 30
0.0
 11
7.397818412284649
 21
13.27657946294988
 31
0.0
  0
ARC
  5
A3E
330
1F
100
AcDbEntity
  8
OBJECT1
  6
CONTINUOUS
100
AcDbCircle
 10
7.411133603064271
 20
13.23439406486807
 30
0.0
 40
0.0421853980817908
100
AcDbArc
 50
19.41758860550073
 51
90.0
  0
LINE
  5
A3F
330
1F
100
AcDbEntity
  8
OBJECT1
  6
CONTINUOUS
100
AcDbLine
 10
6.894154460964827
 20
13.2484186462438
 30
0.0
 11
6.644375458988733
 21
12.53982809731891
 31
0.0
  0
LINE
  5
A40
330
1F
100
AcDbEntity
  8
OBJECT1
  6
CONTINUOUS
100
AcDbLine
 10
6.729104324811245
 20
12.59828659708156
 30
0.0
 11
6.936496543746201
 21
13.18663327178103
 31
0.0
  0
ARC
  5
A41
330
1F
100
AcDbEntity
  8
OBJECT1
  6
CONTINUOUS
100
AcDbCircle
 10
6.756177225884229
 20
12.57357641578437
 30
0.0
 40
0.0337483184654326
100
AcDbArc
 50
160.582336000001
 51
269.9994540000023
  0
LINE
  5
A42
330
1F
100
AcDbEntity
  8
OBJECT1
  6
CONTINUOUS
100
AcDbLine
 10
6.724348511773072
 20
12.58479604425821
 30
0.0
 11
6.729104324811245
 21
12.59828659708156
 31
0.0
  0
ARC
  5
A43
330
1F
100
AcDbEntity
  8
OBJECT1
100
AcDbCircle
 10
6.652962079255402
 20
13.28122837827024
 30
0.0
 40
0.0211163228638212
100
AcDbArc
 50
270.0635990000031
 51
359.9644930000005
  0
ARC
  5
A44
330
1F
100
AcDbEntity
  8
OBJECT1
100
AcDbCircle
 10
6.605779795679254
 20
13.18836244926993
 30
0.0
 40
0.0210451139118591
100
AcDbArc
 50
269.8704990000034
 51
0.1295010000031199
  0
LINE
  5
A45
330
1F
100
AcDbEntity
  8
OBJECT1
100
AcDbLine
 10
6.605732229156828
 20
13.16731738911346
 30
0.0
 11
6.445442276050229
 21
13.16731738911346
 31
0.0
  0
ARC
  5
A46
330
1F
100
AcDbEntity
  8
OBJECT1
100
AcDbCircle
 10
6.647837595867585
 20
13.23908991889479
 30
0.0
 40
0.0210123780429477
100
AcDbArc
 50
89.78094499999938
 51
180.2190550000006
  0
LINE
  5
A47
330
1F
100
AcDbEntity
  8
OBJECT1
100
AcDbLine
 10
6.626825161702171
 20
13.23900973698093
 30
0.0
 11
6.626824923065541
 21
13.18840993796297
 31
0.0
  0
LINE
  5
A48
330
1F
100
AcDbEntity
  8
OBJECT1
100
AcDbLine
 10
6.652985704283636
 20
13.26011213716276
 30
0.0
 11
6.64791777778133
 21
13.2601023530602
 31
0.0
  0
LINE
  5
A49
330
1F
100
AcDbEntity
  8
OBJECT1
100
AcDbLine
 10
6.674078558999426
 20
13.40694693738322
 30
0.0
 11
6.674077843089534
 21
13.28121525325457
 31
0.0
  0
ARC
  5
A4A
330
1F
100
AcDbEntity
  8
OBJECT1
  6
CONTINUOUS
100
AcDbCircle
 10
6.933940374659968
 20
13.23439406486807
 30
0.0
 40
0.0421853980817908
100
AcDbArc
 50
90.0
 51
160.5823859128628
  0
ARC
  5
A4B
330
1F
100
AcDbEntity
  8
OBJECT1
  6
CONTINUOUS
100
AcDbCircle
 10
6.976282471773046
 20
13.17260873106261
 30
0.0
 40
0.0421853980817908
100
AcDbArc
 50
90.0
 51
160.5824444635232
  0
LINE
  5
A4C
330
1F
100
AcDbEntity
  8
OBJECT1
100
AcDbLine
 10
6.933940374659968
 20
13.27657946294988
 30
0.0
 11
6.947255548627353
 21
13.27657946294988
 31
0.0
  0
LINE
  5
A4D
330
1F
100
AcDbEntity
  8
OBJECT1
  6
CONTINUOUS
100
AcDbLine
 10
7.044293707770506
 20
12.53982809731891
 30
0.0
 11
6.756176888400986
 21
12.53982809731891
 31
0.0
  0
LINE
  5
A4E
330
1F
100
AcDbEntity
  8
OBJECT2
100
AcDbLine
 10
6.729185057511116
 20
12.59851562599968
 30
0.0
 11
7.088166184292376
 21
12.59851562599968
 31
0.0
  0
LINE
  5
A4F
330
1F
100
AcDbEntity
  8
OBJECT2
100
AcDbLine
 10
7.397818412284649
 20
13.27657946294988
 30
0.0
 11
6.947255548627353
 21
13.27657946294988
 31
0.0
  0
LINE
  5
A50
330
1F
100
AcDbEntity
  8
OBJECT1
  6
CONTINUOUS
100
AcDbLine
 10
7.044293707770506
 20
13.21479412914439
 30
0.0
 11
6.976282471773046
 21
13.21479412914439
 31
0.0
  0
CIRCLE
  5
A51
330
1F
100
AcDbEntity
  8
OBJECT2
100
AcDbCircle
 10
7.172536980455888
 20
13.36441353588861
 30
0.0
 40
0.0758915783362497
  0
LINE
  5
A52
330
1F
100
AcDbEntity
  8
OBJECT1
  6
CONTINUOUS
100
AcDbLine
 10
6.947255548627353
 20
13.43753303101624
 30
0.0
 11
6.947255548627353
 21
13.27657946294988
 31
0.0
  0
ARC
  5
A53
330
1F
100
AcDbEntity
  8
OBJECT1
100
AcDbCircle
 10
6.695115334102965
 20
13.40699132379984
 30
0.0
 40
0.0210370143154274
100
AcDbArc
 50
110.5393940000015
 51
180.1214900000026
  0
LINE
  5
A54
330
1F
100
AcDbEntity
  8
OBJECT2
100
AcDbLine
 10
6.674078558999426
 20
13.40694693738322
 30
0.0
 11
6.674057320337723
 21
13.46820711275876
 31
0.0
  0
LINE
  5
A55
330
1F
100
AcDbEntity
  8
OBJECT1
  6
CONTINUOUS
100
AcDbLine
 10
7.397818412284649
 20
13.43753303101624
 30
0.0
 11
7.397818412284649
 21
13.27657946294988
 31
0.0
  0
LINE
  5
A56
330
1F
100
AcDbEntity
  8
OBJECT1
  6
CONTINUOUS
100
AcDbLine
 10
7.450919522996613
 20
13.2484186285495
 30
0.0
 11
7.700698164440026
 21
12.53982809731891
 31
0.0
  0
LINE
  5
A57
330
1F
100
AcDbEntity
  8
OBJECT1
  6
CONTINUOUS
100
AcDbLine
 10
7.615969636100643
 20
12.59828659708156
 30
0.0
 11
7.408577417165687
 21
13.18663327178103
 31
0.0
  0
LINE
  5
A58
330
1F
100
AcDbEntity
  8
OBJECT2
100
AcDbLine
 10
7.256907776619513
 20
12.59851562599968
 30
0.0
 11
7.615888903400772
 21
12.59851562599968
 31
0.0
  0
ARC
  5
A59
330
1F
100
AcDbEntity
  8
OBJECT1
  6
CONTINUOUS
100
AcDbCircle
 10
7.58889673502766
 20
12.57357641578437
 30
0.0
 40
0.0337483184654326
100
AcDbArc
 50
270.0005489999953
 51
19.41766399999897
  0
LINE
  5
A5A
330
1F
100
AcDbEntity
  8
OBJECT1
100
AcDbLine
 10
6.021562123769498
 20
13.43239536636204
 30
0.0
 11
6.021562123769498
 21
13.45548654260662
 31
0.0
  0
LINE
  5
A5B
330
1F
100
AcDbEntity
  8
OBJECT1
100
AcDbLine
 10
6.025268598819806
 20
13.50030159855094
 30
0.0
 11
6.064647877381602
 21
13.50030159855094
 31
0.0
  0
ARC
  5
A5C
330
1F
100
AcDbEntity
  8
OBJECT1
100
AcDbCircle
 10
6.030899558916175
 20
13.51662584462505
 30
0.0
 40
0.0337483184654326
100
AcDbArc
 50
0.0
 51
90.0
  0
LINE
  5
A5D
330
1F
100
AcDbEntity
  8
OBJECT1
100
AcDbLine
 10
6.064647877381602
 20
13.50030159855094
 30
0.0
 11
6.064647877381602
 21
13.51662584462505
 31
0.0
  0
ARC
  5
A5E
330
1F
100
AcDbEntity
  8
OBJECT1
100
AcDbCircle
 10
6.087975200769605
 20
13.44394095448433
 30
0.0
 40
0.0843127518688572
100
AcDbArc
 50
138.0508214825663
 51
172.1293215993773
  0
LINE
  5
A5F
330
1F
100
AcDbEntity
  8
OBJECT1
100
AcDbLine
 10
6.021562123769498
 20
13.45548654260662
 30
0.0
 11
6.004456702683327
 21
13.45548654260662
 31
0.0
  0
LINE
  5
A60
330
1F
100
AcDbEntity
  8
OBJECT1
100
AcDbLine
 10
6.021562123769498
 20
13.43239536636204
 30
0.0
 11
6.004456702683327
 21
13.43239536636204
 31
0.0
  0
LINE
  5
A61
330
1F
100
AcDbEntity
  8
OBJECT2
100
AcDbLine
 10
6.424350537468725
 20
13.4391040775516
 30
0.0
 11
6.368321299299267
 21
13.43909405460286
 31
0.0
  0
LINE
  5
A62
330
1F
100
AcDbEntity
  8
OBJECT2
100
AcDbLine
 10
6.368321299299267
 20
13.43909405460286
 30
0.0
 11
6.356848603790567
 21
13.42220287535539
 31
0.0
  0
ARC
  5
A63
330
1F
100
AcDbEntity
  8
OBJECT1
100
AcDbCircle
 10
5.337102430555532
 20
13.63221865683445
 30
0.0
 40
0.0337483184654326
100
AcDbArc
 50
180.0
 51
270.0
  0
LINE
  5
A64
330
1F
100
AcDbEntity
  8
OBJECT1
100
AcDbLine
 10
6.35684814865452
 20
13.33750774587818
 30
0.0
 11
6.09839619584703
 21
13.33750774587818
 31
0.0
  0
LINE
  5
A65
330
1F
100
AcDbEntity
  8
OBJECT1
100
AcDbLine
 10
6.064647877381602
 20
13.37125606434361
 30
0.0
 11
6.064647877381602
 21
13.38758031041771
 31
0.0
  0
ARC
  5
A66
330
1F
100
AcDbEntity
  8
OBJECT1
100
AcDbCircle
 10
6.09839619584703
 20
13.37125606434361
 30
0.0
 40
0.0337483184654326
100
AcDbArc
 50
180.0
 51
270.0
  0
LINE
  5
A67
330
1F
100
AcDbEntity
  8
OBJECT1
100
AcDbLine
 10
6.025268598819806
 20
13.38758031041771
 30
0.0
 11
6.064647877381602
 21
13.38758031041771
 31
0.0
  0
LINE
  5
A68
330
1F
100
AcDbEntity
  8
OBJECT2
100
AcDbLine
 10
6.368321776572528
 20
13.3878248797861
 30
0.0
 11
6.356848365153936
 21
13.3435489519509
 31
0.0
  0
LINE
  5
A69
330
1F
100
AcDbEntity
  8
OBJECT1
100
AcDbLine
 10
6.424348650248575
 20
13.22767272276473
 30
0.0
 11
6.368321537935898
 21
13.2276927682432
 31
0.0
  0
LINE
  5
A6A
330
1F
100
AcDbEntity
  8
OBJECT2
100
AcDbLine
 10
6.424348650248575
 20
13.27894237485478
 30
0.0
 11
6.368321537935898
 21
13.27896242033324
 31
0.0
  0
LINE
  5
A6B
330
1F
100
AcDbEntity
  8
OBJECT2
100
AcDbLine
 10
6.368321537935898
 20
13.27896242033324
 30
0.0
 11
6.356848603790567
 21
13.32321782541669
 31
0.0
  0
LINE
  5
A6C
330
1F
100
AcDbEntity
  8
OBJECT1
100
AcDbLine
 10
6.35684814865452
 20
13.33750774587818
 30
0.0
 11
6.356847649243931
 21
13.24457368611476
 31
0.0
  0
LINE
  5
A6D
330
1F
100
AcDbEntity
  8
OBJECT1
100
AcDbLine
 10
6.368321537935898
 20
13.2276927682432
 30
0.0
 11
6.356847649243931
 21
13.24457368611476
 31
0.0
  0
LINE
  5
A6E
330
1F
100
AcDbEntity
  8
OBJECT2
100
AcDbLine
 10
6.368321537935898
 20
13.27896242033324
 30
0.0
 11
6.356848603790567
 21
13.25866279383663
 31
0.0
  0
LINE
  5
A6F
330
1F
100
AcDbEntity
  8
OBJECT1
100
AcDbLine
 10
6.42434959385865
 20
13.22768763755527
 30
0.0
 11
6.424329043679321
 21
13.1883969398774
 31
0.0
  0
LINE
  5
A70
330
1F
100
AcDbEntity
  8
OBJECT2
100
AcDbLine
 10
6.424348411611944
 20
13.38783537979864
 30
0.0
 11
6.368321776572528
 21
13.3878248797861
 31
0.0
  0
LINE
  5
A71
330
1F
100
AcDbEntity
  8
OBJECT2
100
AcDbLine
 10
6.368321776572528
 20
13.3878248797861
 30
0.0
 11
6.356848365153936
 21
13.40810350625767
 31
0.0
  0
LINE
  5
A72
330
1F
100
AcDbEntity
  8
OBJECT2
100
AcDbLine
 10
6.064647877381602
 20
13.38758031041771
 30
0.0
 11
6.064647877381602
 21
13.50030159855094
 31
0.0
  0
ARC
  5
A73
330
1F
100
AcDbEntity
  8
OBJECT1
100
AcDbCircle
 10
6.087975200769605
 20
13.44394095448433
 30
0.0
 40
0.0843127518688572
100
AcDbArc
 50
187.8706784006226
 51
221.9491785174336
  0
LINE
  5
A74
330
1F
100
AcDbEntity
  8
OBJECT2
100
AcDbLine
 10
6.356848603790567
 20
13.42220287535539
 30
0.0
 11
6.35684814865452
 21
13.33750774587818
 31
0.0
  0
ARC
  5
A75
330
1F
100
AcDbEntity
  8
OBJECT1
100
AcDbCircle
 10
6.445426459919062
 20
13.18841480699049
 30
0.0
 40
0.0210974238054806
100
AcDbArc
 50
180.0485229999985
 51
270.042953000006
  0
LINE
  5
A76
330
1F
100
AcDbEntity
  8
OBJECT1
  6
CONTINUOUS
100
AcDbLine
 10
7.467834767028406
 20
11.77036609882389
 30
0.0
 11
7.467834767028406
 21
11.95827842345533
 31
0.0
  0
ARC
  5
A77
330
1F
100
AcDbEntity
  8
OBJECT1
  6
CONTINUOUS
100
AcDbCircle
 10
7.552210625439883
 20
11.95827572358985
 30
0.0
 40
0.0843758584113514
100
AcDbArc
 50
136.3572999999956
 51
179.9982529999971
  0
LINE
  5
A78
330
1F
100
AcDbEntity
  8
OBJECT1
  6
CONTINUOUS
100
AcDbLine
 10
6.877239193883369
 20
11.77036609882389
 30
0.0
 11
6.877239193883369
 21
11.95827842345533
 31
0.0
  0
ARC
  5
A79
330
1F
100
AcDbEntity
  8
OBJECT1
  6
CONTINUOUS
100
AcDbCircle
 10
6.792862997988876
 20
11.95827572358985
 30
0.0
 40
0.084376195894536
100
AcDbArc
 50
0.0017399999995141
 51
43.64254799999649
  0
LINE
  5
A7A
330
1F
100
AcDbEntity
  8
OBJECT2
  6
CONTINUOUS
100
AcDbLine
 10
6.877239193883369
 20
11.95827842345533
 30
0.0
 11
7.467834767028406
 21
11.95827842345533
 31
0.0
  0
ARC
  5
A7B
330
1F
100
AcDbEntity
  8
OBJECT1
  6
CONTINUOUS
100
AcDbCircle
 10
6.942459844216941
 20
12.53982775983575
 30
0.0
 40
0.7582383202229995
100
AcDbArc
 50
316.3558349999965
 51
0.0000309999979089
  0
ARC
  5
A7C
330
1F
100
AcDbEntity
  8
OBJECT1
  6
CONTINUOUS
100
AcDbCircle
 10
7.402613104245332
 20
12.53982775983575
 30
0.0
 40
0.7582376452566301
100
AcDbArc
 50
179.9999770000002
 51
223.6442260000036
  0
LINE
  5
A7D
330
1F
100
AcDbEntity
  8
0
100
AcDbLine
 10
6.030899558916175
 20
13.55037416309048
 30
0.0
 11
5.899204624355306
 21
13.59847033836902
 31
0.0
  0
LINE
  5
A7E
330
1F
100
AcDbEntity
  8
0
100
AcDbLine
 10
5.899204624355306
 20
13.59847033836902
 30
0.0
 11
5.337102430555532
 21
13.59847033836902
 31
0.0
  0
LINE
  5
A7F
330
1F
100
AcDbEntity
  8
0
100
AcDbLine
 10
5.303354112090104
 20
13.63221865683445
 30
0.0
 11
5.196576701474995
 21
13.63221865683445
 31
0.0
  0
LINE
  5
A80
330
1F
100
AcDbEntity
  8
0
100
AcDbLine
 10
5.196576701474882
 20
13.66460324888035
 30
0.0
 11
4.785597038948353
 21
13.66460324888035
 31
0.0
  0
LINE
  5
A81
330
1F
100
AcDbEntity
  8
0
100
AcDbLine
 10
5.303354112090104
 20
13.74431218709756
 30
0.0
 11
5.196576701474882
 21
13.74431218709753
 31
0.0
  0
LINE
  5
A82
330
1F
100
AcDbEntity
  8
OBJECT1
100
AcDbLine
 10
8.295892083796942
 20
9.764675898935706
 30
0.0
 11
7.982034791322448
 21
9.764675898935706
 31
0.0
  0
LINE
  5
A83
330
1F
100
AcDbEntity
  8
OBJECT1
100
AcDbLine
 10
7.982034791322448
 20
9.507127537421041
 30
0.0
 11
7.74664178271233
 21
9.507127537421041
 31
0.0
  0
LINE
  5
A84
330
1F
100
AcDbEntity
  8
OBJECT1
100
AcDbLine
 10
7.982034791322448
 20
9.764675898935706
 30
0.0
 11
7.982034791322448
 21
9.507127537421041
 31
0.0
  0
LINE
  5
A85
330
1F
100
AcDbEntity
  8
OBJECT1
100
AcDbLine
 10
6.363039169589328
 20
9.507127537421041
 30
0.0
 11
6.598432178199445
 21
9.507127537421041
 31
0.0
  0
LINE
  5
A86
330
1F
100
AcDbEntity
  8
OBJECT1
100
AcDbLine
 10
6.363039169589328
 20
9.764675898935706
 30
0.0
 11
6.363039169589328
 21
9.507127537421041
 31
0.0
  0
LINE
  5
A87
330
1F
100
AcDbEntity
  8
OBJECT2
100
AcDbLine
 10
6.598432178199445
 20
9.507127537421041
 30
0.0
 11
7.74664178271233
 21
9.507127537421041
 31
0.0
  0
LINE
  5
A88
330
1F
100
AcDbEntity
  8
OBJECT2
100
AcDbLine
 10
7.982034791322448
 20
9.764675898935706
 30
0.0
 11
6.363039169589328
 21
9.764675898935706
 31
0.0
  0
LINE
  5
A89
330
1F
100
AcDbEntity
  8
OBJECT1
100
AcDbLine
 10
5.861529640246303
 20
10.38914034570316
 30
0.0
 11
6.049181877114833
 21
9.764675898935706
 31
0.0
  0
LINE
  5
A8A
330
1F
100
AcDbEntity
  8
OBJECT1
100
AcDbLine
 10
6.049181877114833
 20
9.764675898935706
 30
0.0
 11
6.363039169589328
 21
9.764675898935706
 31
0.0
  0
LINE
  5
A8B
330
1F
100
AcDbEntity
  8
OBJECT1
  6
CONTINUOUS
100
AcDbLine
 10
7.388582588433436
 20
11.76024194076742
 30
0.0
 11
7.457709934005706
 21
11.76024194076742
 31
0.0
  0
LINE
  5
A8C
330
1F
100
AcDbEntity
  8
OBJECT1
  6
CONTINUOUS
100
AcDbLine
 10
6.887363689423054
 20
11.76024194076742
 30
0.0
 11
6.956491034995323
 21
11.76024194076742
 31
0.0
  0
LINE
  5
A8D
330
1F
100
AcDbEntity
  8
OBJECT2
  6
CONTINUOUS
100
AcDbLine
 10
6.956491034995323
 20
11.76024194076742
 30
0.0
 11
7.388582588433436
 21
11.76024194076742
 31
0.0
  0
ARC
  5
A8E
330
1F
100
AcDbEntity
  8
OBJECT1
100
AcDbCircle
 10
7.280559700073908
 20
10.80697689041008
 30
0.0
 40
0.1379967335661003
100
AcDbArc
 50
218.4829764584438
 51
321.5170235415561
  0
ARC
  5
A8F
330
1F
100
AcDbEntity
  8
OBJECT1
100
AcDbCircle
 10
7.064513923354851
 20
10.80697689041008
 30
0.0
 40
0.1379967335661003
100
AcDbArc
 50
218.4829764584438
 51
321.5170235415561
  0
ARC
  5
A90
330
1F
100
AcDbEntity
  8
OBJECT2
100
AcDbCircle
 10
7.064513923354851
 20
10.635231100763
 30
0.0
 40
0.1379967335661003
100
AcDbArc
 50
38.48297645844386
 51
141.5170235415561
  0
LINE
  5
A91
330
1F
100
AcDbEntity
  8
OBJECT1
100
AcDbLine
 10
6.956491034995323
 20
11.76024194076742
 30
0.0
 11
6.956491034995323
 21
10.72110399558647
 31
0.0
  0
LINE
  5
A92
330
1F
100
AcDbEntity
  8
OBJECT1
100
AcDbLine
 10
7.388582588433436
 20
11.76024194076742
 30
0.0
 11
7.38858258843355
 21
10.72110399558658
 31
0.0
  0
ARC
  5
A93
330
1F
100
AcDbEntity
  8
OBJECT1
  6
CONTINUOUS
100
AcDbCircle
 10
7.457710946455208
 20
11.77036576134071
 30
0.0
 40
0.0101238205732605
100
AcDbArc
 50
269.9945350000018
 51
0.0018309999969921
  0
ARC
  5
A94
330
1F
100
AcDbEntity
  8
OBJECT1
  6
CONTINUOUS
100
AcDbCircle
 10
6.887363014456681
 20
11.77036576134071
 30
0.0
 40
0.0101238205732605
100
AcDbArc
 50
179.9981770000012
 51
270.0054629999952
  0
LINE
  5
A95
330
1F
100
AcDbEntity
  8
OBJECT1
100
AcDbLine
 10
7.854223924200297
 20
13.43753317349796
 30
0.0
 11
9.473445910406312
 21
13.43753317349799
 31
0.0
  0
ARC
  5
A96
330
1F
100
AcDbEntity
  8
OBJECT1
100
AcDbCircle
 10
7.172536980455774
 20
5.039012691005382
 30
0.0
 40
5.508412309154544
100
AcDbArc
 50
76.23141544599995
 51
103.7685845539873
  0
LINE
  5
A97
330
1F
100
AcDbEntity
  8
OBJECT1
100
AcDbLine
 10
5.861529640246303
 20
10.38914034570316
 30
0.0
 11
8.483544320665416
 21
10.38914034570316
 31
0.0
  0
LINE
  5
A98
330
1F
100
AcDbEntity
  8
OBJECT1
100
AcDbLine
 10
8.483544320665416
 20
10.38914034570316
 30
0.0
 11
8.295892083796942
 21
9.764675898935706
 31
0.0
  0
LINE
  5
A99
330
1F
100
AcDbEntity
  8
OBJECT1
100
AcDbLine
 10
9.171443597346282
 20
14.67262739819975
 30
0.0
 11
13.01977039535056
 21
14.67263569811871
 31
0.0
  0
LINE
  5
A9A
330
1F
100
AcDbEntity
  8
OBJECT1
100
AcDbLine
 10
9.171478558151633
 20
15.00976027530842
 30
0.0
 11
13.01977039535056
 21
15.00976027530836
 31
0.0
  0
LINE
  5
A9B
330
1F
100
AcDbEntity
  8
OBJECT2
100
AcDbLine
 10
9.383756777593461
 20
15.00975538180225
 30
0.0
 11
9.383756777593461
 21
14.67263229170595
 31
0.0
  0
LINE
  5
A9C
330
1F
100
AcDbEntity
  8
OBJECT2
100
AcDbLine
 10
9.383756777593461
 20
15.00976027530842
 30
0.0
 11
9.383756777593461
 21
14.67262739819975
 31
0.0
  0
LINE
  5
A9D
330
1F
100
AcDbEntity
  8
OBJECT2
100
AcDbLine
 10
8.847746503770039
 20
14.60922076891122
 30
0.0
 11
8.847745787860034
 21
15.0545990844796
 31
0.0
  0
LINE
  5
A9E
330
1F
100
AcDbEntity
  8
OBJECT2
100
AcDbLine
 10
9.039063413889934
 20
14.60924129166298
 30
0.0
 11
9.039084175278375
 21
15.07324997037238
 31
0.0
  0
LINE
  5
A9F
330
1F
100
AcDbEntity
  8
OBJECT2
100
AcDbLine
 10
9.224510949632971
 20
14.72528169341112
 30
0.0
 11
9.224510949632971
 21
14.95711644207577
 31
0.0
  0
LINE
  5
AA0
330
1F
100
AcDbEntity
  8
OBJECT2
100
AcDbLine
 10
9.171449480959253
 20
14.67264275368466
 30
0.0
 11
9.171448765049362
 21
15.00983800833819
 31
0.0
  0
LINE
  5
AA1
330
1F
100
AcDbEntity
  8
OBJECT2
100
AcDbLine
 10
9.277593004780882
 20
15.00974525730669
 30
0.0
 11
9.277593004780882
 21
14.67257053228314
 31
0.0
  0
LINE
  5
AA2
330
1F
100
AcDbEntity
  8
OBJECT2
100
AcDbLine
 10
9.330674722445664
 20
14.72528169341112
 30
0.0
 11
9.330674722445664
 21
14.95711644207577
 31
0.0
  0
LINE
  5
AA3
330
1F
100
AcDbEntity
  8
OBJECT2
100
AcDbLine
 10
8.618260616284246
 20
15.05217811568152
 30
0.0
 11
8.618260854920876
 21
14.61635767515508
 31
0.0
  0
LINE
  5
AA4
330
1F
100
AcDbEntity
  8
OBJECT2
100
AcDbLine
 10
8.36088359324286
 20
15.00982750832565
 30
0.0
 11
8.360883115969485
 21
14.67266303779976
 31
0.0
  0
LINE
  5
AA5
330
1F
100
AcDbEntity
  8
OBJECT2
100
AcDbLine
 10
8.332351747262336
 20
14.95716827503196
 30
0.0
 11
8.332351508625706
 21
14.72527191876065
 31
0.0
  0
LINE
  5
AA6
330
1F
100
AcDbEntity
  8
OBJECT1
100
AcDbLine
 10
9.171443597346282
 20
14.67262739819975
 30
0.0
 11
9.150006069006948
 21
14.61667816417389
 31
0.0
  0
LINE
  5
AA7
330
1F
100
AcDbEntity
  8
OBJECT1
100
AcDbLine
 10
9.039063413889934
 20
14.60924129166298
 30
0.0
 11
8.847746503770039
 21
14.60922076891122
 31
0.0
  0
LINE
  5
AA8
330
1F
100
AcDbEntity
  8
OBJECT1
100
AcDbLine
 10
9.040114608326106
 20
14.6166974937424
 30
0.0
 11
9.150006069006948
 21
14.61667816417389
 31
0.0
  0
LINE
  5
AA9
330
1F
100
AcDbEntity
  8
OBJECT2
100
AcDbLine
 10
9.150088875923856
 20
14.72896983226434
 30
0.0
 11
9.039083936641631
 21
14.72895909361517
 31
0.0
  0
LINE
  5
AAA
330
1F
100
AcDbEntity
  8
OBJECT2
100
AcDbLine
 10
9.171449480959253
 20
14.67264275368466
 30
0.0
 11
9.150088875923856
 21
14.72896983226434
 31
0.0
  0
LINE
  5
AAB
330
1F
100
AcDbEntity
  8
OBJECT2
100
AcDbLine
 10
9.171140685136251
 20
14.80592466273222
 30
0.0
 11
9.150088875923856
 21
14.72896983226434
 31
0.0
  0
LINE
  5
AAC
330
1F
100
AcDbEntity
  8
OBJECT1
100
AcDbLine
 10
8.383954029864057
 20
14.60922100754785
 30
0.0
 11
8.36088383187949
 21
14.67267377644896
 31
0.0
  0
LINE
  5
AAD
330
1F
100
AcDbEntity
  8
OBJECT1
100
AcDbLine
 10
8.497265869626389
 20
14.6303026463413
 30
0.0
 11
8.618259900374241
 21
14.63030312361462
 31
0.0
  0
LINE
  5
AAE
330
1F
100
AcDbEntity
  8
OBJECT1
100
AcDbLine
 10
8.497265869626389
 20
14.6303026463413
 30
0.0
 11
8.489603246846158
 21
14.60924153029964
 31
0.0
  0
LINE
  5
AAF
330
1F
100
AcDbEntity
  8
OBJECT1
100
AcDbLine
 10
8.383954029864057
 20
14.60922100754785
 30
0.0
 11
8.489603246846158
 21
14.60924153029964
 31
0.0
  0
LINE
  5
AB0
330
1F
100
AcDbEntity
  8
OBJECT1
100
AcDbLine
 10
8.489603246846158
 20
14.60924153029964
 30
0.0
 11
8.383954029864057
 21
14.60922100754785
 31
0.0
  0
LINE
  5
AB1
330
1F
100
AcDbEntity
  8
OBJECT2
100
AcDbLine
 10
8.381914641066813
 20
14.7252819414999
 30
0.0
 11
8.36088383187949
 21
14.67267377644896
 31
0.0
  0
LINE
  5
AB2
330
1F
100
AcDbEntity
  8
OBJECT2
100
AcDbLine
 10
8.360884070516121
 20
14.8022374878777
 30
0.0
 11
8.381914641066813
 21
14.7252819414999
 31
0.0
  0
LINE
  5
AB3
330
1F
100
AcDbEntity
  8
OBJECT2
100
AcDbLine
 10
8.491642635643401
 20
14.72529196423912
 30
0.0
 11
8.512672967557463
 21
14.67265325369717
 31
0.0
  0
LINE
  5
AB4
330
1F
100
AcDbEntity
  8
OBJECT2
100
AcDbLine
 10
8.491642635643401
 20
14.72529196423912
 30
0.0
 11
8.381914641066813
 21
14.7252819414999
 31
0.0
  0
LINE
  5
AB5
330
1F
100
AcDbEntity
  8
OBJECT2
100
AcDbLine
 10
8.512672967557463
 20
14.80222722650182
 30
0.0
 11
8.491642635643401
 21
14.72529196423912
 31
0.0
  0
LINE
  5
AB6
330
1F
100
AcDbEntity
  8
OBJECT1
100
AcDbLine
 10
8.846943491448072
 20
14.61631710692486
 30
0.0
 11
8.618260854920876
 21
14.61635767515508
 31
0.0
  0
LINE
  5
AB7
330
1F
100
AcDbEntity
  8
OBJECT1
100
AcDbLine
 10
8.940541535390352
 20
15.27309541518462
 30
0.0
 11
9.180162798607156
 21
15.27309493791134
 31
0.0
  0
LINE
  5
AB8
330
1F
100
AcDbEntity
  8
OBJECT1
100
AcDbLine
 10
9.180162599590616
 20
15.23134179597795
 30
0.0
 11
8.940541813647072
 21
15.23132079595291
 31
0.0
  0
LINE
  5
AB9
330
1F
100
AcDbEntity
  8
OBJECT1
100
AcDbLine
 10
8.891620328852567
 20
15.07325020900904
 30
0.0
 11
9.039084175278375
 21
15.07324997037238
 31
0.0
  0
LINE
  5
ABA
330
1F
100
AcDbEntity
  8
OBJECT2
100
AcDbLine
 10
8.828342957888125
 20
15.21003339496198
 30
0.0
 11
8.765064871013677
 21
15.21667584607035
 31
0.0
  0
LINE
  5
ABB
330
1F
100
AcDbEntity
  8
OBJECT2
100
AcDbLine
 10
8.765064871013677
 20
15.26637956447354
 30
0.0
 11
8.815674454134168
 21
15.27282752671345
 31
0.0
  0
LINE
  5
ABC
330
1F
100
AcDbEntity
  8
OBJECT2
100
AcDbLine
 10
8.815673976860907
 20
15.3442839301654
 30
0.0
 11
8.765064871013677
 21
15.35073046058545
 31
0.0
  0
LINE
  5
ABD
330
1F
100
AcDbEntity
  8
OBJECT2
100
AcDbLine
 10
8.815674454134168
 20
15.27282752671345
 30
0.0
 11
8.838065730854154
 21
15.26637956447354
 31
0.0
  0
LINE
  5
ABE
330
1F
100
AcDbEntity
  8
OBJECT2
100
AcDbLine
 10
8.838127299109473
 20
15.35072998331213
 30
0.0
 11
8.815673976860907
 21
15.3442839301654
 31
0.0
  0
LINE
  5
ABF
330
1F
100
AcDbEntity
  8
OBJECT1
100
AcDbLine
 10
8.815674931407542
 20
15.21665532331857
 30
0.0
 11
8.856603264339
 21
15.21665508468194
 31
0.0
  0
LINE
  5
AC0
330
1F
100
AcDbEntity
  8
OBJECT1
100
AcDbLine
 10
8.933806594790652
 20
15.23809825806196
 30
0.0
 11
8.815674316786143
 21
15.23809466616472
 31
0.0
  0
LINE
  5
AC1
330
1F
100
AcDbEntity
  8
OBJECT2
100
AcDbLine
 10
8.815674454134281
 20
15.30855572843944
 30
0.0
 11
8.815673976860907
 21
15.3442839301654
 31
0.0
  0
LINE
  5
AC2
330
1F
100
AcDbEntity
  8
OBJECT2
100
AcDbLine
 10
8.815674454134281
 20
15.30855572843944
 30
0.0
 11
8.815674454134168
 21
15.27282752671345
 31
0.0
  0
LINE
  5
AC3
330
1F
100
AcDbEntity
  8
OBJECT1
100
AcDbLine
 10
8.815674316786143
 20
15.23809466616472
 30
0.0
 11
8.815674931407542
 21
15.21665532331857
 31
0.0
  0
LINE
  5
AC4
330
1F
100
AcDbEntity
  8
OBJECT1
100
AcDbLine
 10
8.859549472400075
 20
15.34491178318737
 30
0.0
 11
8.859548517853554
 21
15.27223021918251
 31
0.0
  0
LINE
  5
AC5
330
1F
100
AcDbEntity
  8
OBJECT1
100
AcDbLine
 10
8.838065730854154
 20
15.26637956447354
 30
0.0
 11
8.859548517853554
 21
15.27223021918251
 31
0.0
  0
LINE
  5
AC6
330
1F
100
AcDbEntity
  8
OBJECT1
100
AcDbLine
 10
8.859549472400075
 20
15.34491178318737
 30
0.0
 11
8.838127299109473
 21
15.35072998331213
 31
0.0
  0
LINE
  5
AC7
330
1F
100
AcDbEntity
  8
OBJECT2
100
AcDbLine
 10
8.828342957888125
 20
15.21003339496198
 30
0.0
 11
8.856603264339
 21
15.21665508468194
 31
0.0
  0
LINE
  5
AC8
330
1F
100
AcDbEntity
  8
OBJECT1
100
AcDbLine
 10
8.884864763972913
 20
15.21001311084688
 30
0.0
 11
8.856603264339
 21
15.21665508468194
 31
0.0
  0
LINE
  5
AC9
330
1F
100
AcDbEntity
  8
OBJECT1
100
AcDbLine
 10
8.84941481257907
 20
15.19139133862521
 30
0.0
 11
8.849435812604141
 21
15.17452211394942
 31
0.0
  0
LINE
  5
ACA
330
1F
100
AcDbEntity
  8
OBJECT1
100
AcDbLine
 10
8.884864763972913
 20
15.19140231591103
 30
0.0
 11
8.84941481257907
 21
15.19139133862521
 31
0.0
  0
LINE
  5
ACB
330
1F
100
AcDbEntity
  8
OBJECT1
100
AcDbLine
 10
8.884864763972913
 20
15.21001311084688
 30
0.0
 11
8.884864763972913
 21
15.19140231591103
 31
0.0
  0
LINE
  5
ACC
330
1F
100
AcDbEntity
  8
OBJECT2
100
AcDbLine
 10
8.828342957888125
 20
15.21003339496198
 30
0.0
 11
8.828342957888125
 21
15.19139157726184
 31
0.0
  0
ARC
  5
ACD
330
1F
100
AcDbEntity
  8
OBJECT1
100
AcDbCircle
 10
8.940524353551708
 20
15.26637636171213
 30
0.0
 40
0.0067192902064676
100
AcDbArc
 50
89.85251199999874
 51
180.1436159999986
  0
LINE
  5
ACE
330
1F
100
AcDbEntity
  8
OBJECT1
100
AcDbLine
 10
8.891621044762572
 20
15.17450111392435
 30
0.0
 11
8.891620328852567
 21
15.07325020900904
 31
0.0
  0
ARC
  5
ACF
330
1F
100
AcDbEntity
  8
OBJECT1
100
AcDbCircle
 10
8.940591688706589
 20
15.23810690632362
 30
0.0
 40
0.0067850994274752
100
AcDbArc
 50
180.0730289999989
 51
269.5811160000003
  0
LINE
  5
AD0
330
1F
100
AcDbEntity
  8
OBJECT2
100
AcDbLine
 10
8.933806754194492
 20
15.26635951899507
 30
0.0
 11
8.933805799647856
 21
15.2380982579977
 31
0.0
  0
LINE
  5
AD1
330
1F
100
AcDbEntity
  8
OBJECT1
100
AcDbLine
 10
8.838065730854154
 20
15.26637956447354
 30
0.0
 11
8.933806754194492
 21
15.26635951899507
 31
0.0
  0
LINE
  5
AD2
330
1F
100
AcDbEntity
  8
OBJECT1
100
AcDbLine
 10
8.849435812604141
 20
15.17452211394942
 30
0.0
 11
8.891621044762572
 21
15.17450111392435
 31
0.0
  0
LINE
  5
AD3
330
1F
100
AcDbEntity
  8
OBJECT1
100
AcDbLine
 10
9.171478558151633
 20
15.00976027530842
 30
0.0
 11
9.150006546280209
 21
15.0657827910071
 31
0.0
  0
LINE
  5
AD4
330
1F
100
AcDbEntity
  8
OBJECT2
100
AcDbLine
 10
9.150088398650595
 20
14.95351212294173
 30
0.0
 11
9.039084175278262
 21
14.95352214568097
 31
0.0
  0
LINE
  5
AD5
330
1F
100
AcDbEntity
  8
OBJECT2
100
AcDbLine
 10
9.171448765049362
 20
15.00983800833819
 30
0.0
 11
9.150088398650595
 21
14.95351212294173
 31
0.0
  0
LINE
  5
AD6
330
1F
100
AcDbEntity
  8
OBJECT2
100
AcDbLine
 10
9.171139730589729
 20
14.8765668379398
 30
0.0
 11
9.150088398650595
 21
14.95351212294173
 31
0.0
  0
LINE
  5
AD7
330
1F
100
AcDbEntity
  8
OBJECT1
100
AcDbLine
 10
9.040114608326106
 20
15.06578350691705
 30
0.0
 11
9.150006546280209
 21
15.0657827910071
 31
0.0
  0
ARC
  5
AD8
330
1F
100
AcDbEntity
  8
OBJECT1
100
AcDbCircle
 10
9.180215537306466
 20
15.26641144129942
 30
0.0
 40
0.0066838544720789
100
AcDbArc
 50
359.5551299999998
 51
90.45261400000036
  0
ARC
  5
AD9
330
1F
100
AcDbEntity
  8
OBJECT1
100
AcDbCircle
 10
9.180179065519368
 20
15.23806013354052
 30
0.0
 40
0.0067182777569137
100
AcDbArc
 50
269.8602600000039
 51
0.3182679999992302
  0
LINE
  5
ADA
330
1F
100
AcDbEntity
  8
OBJECT1
100
AcDbLine
 10
9.186899190305993
 20
15.26635954539213
 30
0.0
 11
9.186897239626759
 21
15.2380974522025
 31
0.0
  0
LINE
  5
ADB
330
1F
100
AcDbEntity
  8
OBJECT1
100
AcDbLine
 10
8.497265153716497
 20
15.0521671383957
 30
0.0
 11
8.618239377622543
 21
15.05216785430565
 31
0.0
  0
LINE
  5
ADC
330
1F
100
AcDbEntity
  8
OBJECT1
100
AcDbLine
 10
8.371594480124358
 20
15.27311536334138
 30
0.0
 11
8.589566626597829
 21
15.27313540881985
 31
0.0
  0
LINE
  5
ADD
330
1F
100
AcDbEntity
  8
OBJECT1
100
AcDbLine
 10
8.370544679962776
 20
15.23137298902091
 30
0.0
 11
8.589566350415893
 21
15.23136296628166
 31
0.0
  0
LINE
  5
ADE
330
1F
100
AcDbEntity
  8
OBJECT1
100
AcDbLine
 10
8.383953791227426
 20
15.0732401862698
 30
0.0
 11
8.36088359324286
 21
15.00982750832565
 31
0.0
  0
LINE
  5
ADF
330
1F
100
AcDbEntity
  8
OBJECT1
100
AcDbLine
 10
8.497265153716497
 20
15.0521671383957
 30
0.0
 11
8.489602769572783
 21
15.0732599931116
 31
0.0
  0
LINE
  5
AE0
330
1F
100
AcDbEntity
  8
OBJECT2
100
AcDbLine
 10
8.381915118340074
 20
14.95717758186123
 30
0.0
 11
8.36088359324286
 21
15.00982750832565
 31
0.0
  0
LINE
  5
AE1
330
1F
100
AcDbEntity
  8
OBJECT2
100
AcDbLine
 10
8.360884309152751
 20
14.88024327414513
 30
0.0
 11
8.381915118340074
 21
14.95717758186123
 31
0.0
  0
LINE
  5
AE2
330
1F
100
AcDbEntity
  8
OBJECT1
100
AcDbLine
 10
8.36088359324286
 20
15.00982750832565
 30
0.0
 11
8.36088359324286
 21
15.00982750832565
 31
0.0
  0
LINE
  5
AE3
330
1F
100
AcDbEntity
  8
OBJECT2
100
AcDbLine
 10
8.49164191973351
 20
14.95719882052296
 30
0.0
 11
8.512652683442283
 21
15.00983800833816
 31
0.0
  0
LINE
  5
AE4
330
1F
100
AcDbEntity
  8
OBJECT2
100
AcDbLine
 10
8.512673683467355
 20
14.88023205822267
 30
0.0
 11
8.49164191973351
 21
14.95719882052296
 31
0.0
  0
LINE
  5
AE5
330
1F
100
AcDbEntity
  8
OBJECT2
100
AcDbLine
 10
8.49164191973351
 20
14.95719882052296
 30
0.0
 11
8.381915118340074
 21
14.95717758186123
 31
0.0
  0
ARC
  5
AE6
330
1F
100
AcDbEntity
  8
OBJECT1
100
AcDbCircle
 10
8.370523001573005
 20
15.26637960530348
 30
0.0
 40
0.0067358268825157
100
AcDbArc
 50
89.81996500000091
 51
180.1761779999991
  0
ARC
  5
AE7
330
1F
100
AcDbEntity
  8
OBJECT1
100
AcDbCircle
 10
8.370487884440407
 20
15.23807295156155
 30
0.0
 40
0.0067000536649423
100
AcDbArc
 50
179.5134279999995
 51
270.4846039999969
  0
LINE
  5
AE8
330
1F
100
AcDbEntity
  8
OBJECT1
100
AcDbLine
 10
8.363787206533842
 20
15.26635889343521
 30
0.0
 11
8.363788072374163
 21
15.23812984963248
 31
0.0
  0
LINE
  5
AE9
330
1F
100
AcDbEntity
  8
OBJECT1
100
AcDbLine
 10
8.383953791227426
 20
15.0732401862698
 30
0.0
 11
8.489602769572783
 21
15.0732599931116
 31
0.0
  0
LINE
  5
AEA
330
1F
100
AcDbEntity
  8
OBJECT1
100
AcDbLine
 10
8.618239377622543
 20
15.05216785430565
 30
0.0
 11
8.618259900374241
 21
15.07324997037238
 31
0.0
  0
LINE
  5
AEB
330
1F
100
AcDbEntity
  8
OBJECT1
100
AcDbLine
 10
8.692064488446575
 20
15.26638004174685
 30
0.0
 11
8.596323226469607
 21
15.26637980311019
 31
0.0
  0
LINE
  5
AEC
330
1F
100
AcDbEntity
  8
OBJECT1
100
AcDbLine
 10
8.638508935901526
 20
15.10747404530346
 30
0.0
 11
8.594427735571329
 21
15.13799066126489
 31
0.0
  0
LINE
  5
AED
330
1F
100
AcDbEntity
  8
OBJECT1
100
AcDbLine
 10
8.598300918584513
 20
15.17451168679616
 30
0.0
 11
8.60581930057593
 21
15.17450928885813
 31
0.0
  0
LINE
  5
AEE
330
1F
100
AcDbEntity
  8
OBJECT1
100
AcDbLine
 10
8.605839340098086
 20
15.23808828598066
 30
0.0
 11
8.596322749196346
 21
15.23808799662182
 31
0.0
  0
LINE
  5
AEF
330
1F
100
AcDbEntity
  8
OBJECT1
100
AcDbLine
 10
8.591523766196914
 20
15.14353108833094
 30
0.0
 11
8.59154381167535
 21
15.1677655945231
 31
0.0
  0
LINE
  5
AF0
330
1F
100
AcDbEntity
  8
OBJECT2
100
AcDbLine
 10
8.596323226469607
 20
15.26637980311019
 30
0.0
 11
8.596322749196346
 21
15.23808799662182
 31
0.0
  0
ARC
  5
AF1
330
1F
100
AcDbEntity
  8
OBJECT1
100
AcDbCircle
 10
8.589571876604153
 20
15.26638390076317
 30
0.0
 40
0.0067513511090098
100
AcDbArc
 50
359.9652249999995
 51
90.04248799999928
  0
ARC
  5
AF2
330
1F
100
AcDbEntity
  8
OBJECT1
100
AcDbCircle
 10
8.598524888187839
 20
15.1436699748603
 30
0.0
 40
0.0070024385983926
100
AcDbArc
 50
181.1378170000001
 51
234.1926270000044
  0
ARC
  5
AF3
330
1F
100
AcDbEntity
  8
OBJECT1
100
AcDbCircle
 10
8.598278615166677
 20
15.16777657180893
 30
0.0
 40
0.0067351519161464
100
AcDbArc
 50
89.81026499999705
 51
180.0929260000021
  0
ARC
  5
AF4
330
1F
100
AcDbEntity
  8
OBJECT1
100
AcDbCircle
 10
8.589572793605483
 20
15.23811280388182
 30
0.0
 40
0.0067500011762712
100
AcDbArc
 50
269.9459080000016
 51
359.7894290000001
  0
LINE
  5
AF5
330
1F
100
AcDbEntity
  8
OBJECT2
100
AcDbLine
 10
8.692064488446575
 20
15.26638004174685
 30
0.0
 11
8.714433571958224
 21
15.27282728807682
 31
0.0
  0
LINE
  5
AF6
330
1F
100
AcDbEntity
  8
OBJECT1
100
AcDbLine
 10
8.670559746875468
 20
15.27223976464844
 30
0.0
 11
8.670559269602208
 21
15.3449213286533
 31
0.0
  0
LINE
  5
AF7
330
1F
100
AcDbEntity
  8
OBJECT1
100
AcDbLine
 10
8.692064488446575
 20
15.26638004174685
 30
0.0
 11
8.670559746875468
 21
15.27223976464844
 31
0.0
  0
LINE
  5
AF8
330
1F
100
AcDbEntity
  8
OBJECT2
100
AcDbLine
 10
8.71443333332148
 20
15.3086067966822
 30
0.0
 11
8.714434049231485
 21
15.34428321425548
 31
0.0
  0
LINE
  5
AF9
330
1F
100
AcDbEntity
  8
OBJECT2
100
AcDbLine
 10
8.691981920166298
 20
15.35073046058545
 30
0.0
 11
8.714434049231485
 21
15.34428321425548
 31
0.0
  0
LINE
  5
AFA
330
1F
100
AcDbEntity
  8
OBJECT1
100
AcDbLine
 10
8.670559269602208
 20
15.3449213286533
 30
0.0
 11
8.691981920166298
 21
15.35073046058545
 31
0.0
  0
LINE
  5
AFB
330
1F
100
AcDbEntity
  8
OBJECT2
100
AcDbLine
 10
8.71443333332148
 20
15.3086067966822
 30
0.0
 11
8.714433571958224
 21
15.27282728807682
 31
0.0
  0
LINE
  5
AFC
330
1F
100
AcDbEntity
  8
OBJECT1
100
AcDbLine
 10
8.714425789698097
 20
15.23809158763009
 30
0.0
 11
8.714413049206413
 21
15.21667608470701
 31
0.0
  0
LINE
  5
AFD
330
1F
100
AcDbEntity
  8
OBJECT1
100
AcDbLine
 10
8.629651459422561
 20
15.23808901000535
 30
0.0
 11
8.629651459422674
 21
15.17450159119763
 31
0.0
  0
LINE
  5
AFE
330
1F
100
AcDbEntity
  8
OBJECT1
100
AcDbLine
 10
8.605839578734716
 20
15.23808847389511
 30
0.0
 11
8.605819294619649
 21
15.17449061391181
 31
0.0
  0
LINE
  5
AFF
330
1F
100
AcDbEntity
  8
OBJECT1
100
AcDbLine
 10
8.645243739392739
 20
15.20999187218515
 30
0.0
 11
8.673504761753505
 21
15.21667632334365
 31
0.0
  0
LINE
  5
B00
330
1F
100
AcDbEntity
  8
OBJECT1
100
AcDbLine
 10
8.629651459422674
 20
15.17450159119763
 30
0.0
 11
8.680672690761625
 21
15.17451185257354
 31
0.0
  0
LINE
  5
B01
330
1F
100
AcDbEntity
  8
OBJECT1
100
AcDbLine
 10
8.645244455302744
 20
15.19141281592354
 30
0.0
 11
8.680673168034999
 21
15.19139157726184
 31
0.0
  0
LINE
  5
B02
330
1F
100
AcDbEntity
  8
OBJECT1
100
AcDbLine
 10
8.714433571958224
 20
15.2166765619803
 30
0.0
 11
8.673504761753505
 21
15.21667632334365
 31
0.0
  0
LINE
  5
B03
330
1F
100
AcDbEntity
  8
OBJECT2
100
AcDbLine
 10
8.701765784114158
 20
15.21003339496198
 30
0.0
 11
8.673504761753505
 21
15.21667632334365
 31
0.0
  0
LINE
  5
B04
330
1F
100
AcDbEntity
  8
OBJECT1
100
AcDbLine
 10
8.680673168034999
 20
15.19139157726184
 30
0.0
 11
8.680672690761625
 21
15.17451185257354
 31
0.0
  0
LINE
  5
B05
330
1F
100
AcDbEntity
  8
OBJECT2
100
AcDbLine
 10
8.701765784114158
 20
15.21003339496198
 30
0.0
 11
8.701765784114158
 21
15.19139205453515
 31
0.0
  0
ARC
  5
B06
330
1F
100
AcDbEntity
  8
OBJECT2
100
AcDbCircle
 10
8.612577245865836
 20
15.14074094863778
 30
0.0
 40
0.0067381892648083
100
AcDbArc
 50
179.827759000002
 51
269.8083949999934
  0
LINE
  5
B07
330
1F
100
AcDbEntity
  8
OBJECT2
100
AcDbLine
 10
8.638508935901526
 20
15.10750506806775
 30
0.0
 11
8.638508219991521
 21
15.15128749531405
 31
0.0
  0
ARC
  5
B08
330
1F
100
AcDbEntity
  8
OBJECT2
100
AcDbCircle
 10
8.622935508226518
 20
15.14073092589853
 30
0.0
 40
0.0067159153746211
100
AcDbArc
 50
269.4796449999994
 51
0.345641999998643
  0
LINE
  5
B09
330
1F
100
AcDbEntity
  8
OBJECT2
100
AcDbLine
 10
8.622874655881204
 20
15.13401545197578
 30
0.0
 11
8.612554575384237
 21
15.13400399741664
 31
0.0
  0
LINE
  5
B0A
330
1F
100
AcDbEntity
  8
OBJECT2
100
AcDbLine
 10
8.629650504875925
 20
15.14077125549212
 30
0.0
 11
8.629651459422674
 21
15.17450159119763
 31
0.0
  0
LINE
  5
B0B
330
1F
100
AcDbEntity
  8
OBJECT2
100
AcDbLine
 10
8.60581930057593
 20
15.17450928885813
 30
0.0
 11
8.605839087047669
 21
15.14076120476693
 31
0.0
  0
LINE
  5
B0C
330
1F
100
AcDbEntity
  8
OBJECT1
100
AcDbLine
 10
8.645243739392739
 20
15.20999187218515
 30
0.0
 11
8.645244455302744
 21
15.19141281592354
 31
0.0
  0
LINE
  5
B0D
330
1F
100
AcDbEntity
  8
OBJECT1
100
AcDbLine
 10
8.618259900374241
 20
15.07324997037238
 30
0.0
 11
8.638508219991521
 21
15.07325044764567
 31
0.0
  0
LINE
  5
B0E
330
1F
100
AcDbEntity
  8
OBJECT2
100
AcDbLine
 10
8.638508219991521
 20
15.07325044764567
 30
0.0
 11
8.638508219991521
 21
15.07325044764567
 31
0.0
  0
LINE
  5
B0F
330
1F
100
AcDbEntity
  8
OBJECT2
100
AcDbLine
 10
8.638508219991521
 20
15.07325044764567
 30
0.0
 11
8.638508219991521
 21
15.07325044764567
 31
0.0
  0
LINE
  5
B10
330
1F
100
AcDbEntity
  8
OBJECT1
100
AcDbLine
 10
8.638508219991521
 20
15.07325044764567
 30
0.0
 11
8.638508935901526
 21
15.10747404530346
 31
0.0
  0
LINE
  5
B11
330
1F
100
AcDbEntity
  8
OBJECT1
100
AcDbLine
 10
8.714425789698097
 20
15.23809158763009
 30
0.0
 11
8.629651459422561
 21
15.23808901000535
 31
0.0
  0
ARC
  5
B12
330
1F
100
AcDbEntity
  8
OBJECT2
100
AcDbCircle
 10
8.765065825560313
 20
15.43728683660191
 30
0.0
 40
0.3854074842911637
100
AcDbArc
 50
250.8299260000005
 51
289.1696010000059
  0
LINE
  5
B13
330
1F
100
AcDbEntity
  8
OBJECT2
100
AcDbLine
 10
8.838065730854154
 20
15.26637956447354
 30
0.0
 11
8.692064488446575
 21
15.26638004174685
 31
0.0
  0
LINE
  5
B14
330
1F
100
AcDbEntity
  8
OBJECT1
100
AcDbLine
 10
8.692002442917996
 20
15.3507509833372
 30
0.0
 11
8.838127299109473
 21
15.35072998331213
 31
0.0
  0
LINE
  5
B15
330
1F
100
AcDbEntity
  8
OBJECT2
100
AcDbLine
 10
8.849435812604141
 20
15.17452211394942
 30
0.0
 11
8.680672690761625
 21
15.17451185257354
 31
0.0
  0
LINE
  5
B16
330
1F
100
AcDbEntity
  8
OBJECT2
100
AcDbLine
 10
8.680673168034999
 20
15.19139157726184
 30
0.0
 11
8.84941481257907
 21
15.19139133862521
 31
0.0
  0
LINE
  5
B17
330
1F
100
AcDbEntity
  8
OBJECT2
100
AcDbLine
 10
8.815674931407542
 20
15.21665532331857
 30
0.0
 11
8.714413049206413
 21
15.21667608470701
 31
0.0
  0
LINE
  5
B18
330
1F
100
AcDbEntity
  8
OBJECT2
100
AcDbLine
 10
8.714425789698097
 20
15.23809158763009
 30
0.0
 11
8.815674316786143
 21
15.23809466616472
 31
0.0
  0
LINE
  5
B19
330
1F
100
AcDbEntity
  8
OBJECT2
100
AcDbLine
 10
8.714433571958224
 20
15.27282728807682
 30
0.0
 11
8.765064871013677
 21
15.26637956447354
 31
0.0
  0
LINE
  5
B1A
330
1F
100
AcDbEntity
  8
OBJECT2
100
AcDbLine
 10
8.765064871013677
 20
15.35073046058545
 30
0.0
 11
8.714434049231485
 21
15.34428321425548
 31
0.0
  0
LINE
  5
B1B
330
1F
100
AcDbEntity
  8
OBJECT2
100
AcDbLine
 10
8.701765784114158
 20
15.21003339496198
 30
0.0
 11
8.765064871013677
 21
15.21667584607035
 31
0.0
  0
LINE
  5
B1C
330
1F
100
AcDbEntity
  8
OBJECT2
100
AcDbLine
 10
8.186695091303008
 20
14.95596367221469
 30
0.0
 11
8.186696045849643
 21
14.72648780746817
 31
0.0
  0
LINE
  5
B1D
330
1F
100
AcDbEntity
  8
OBJECT2
100
AcDbLine
 10
8.246740844774862
 20
14.6726633114203
 30
0.0
 11
8.246740367501601
 21
15.00981680466037
 31
0.0
  0
LINE
  5
B1E
330
1F
100
AcDbEntity
  8
OBJECT2
100
AcDbLine
 10
8.303820009661521
 20
15.00982756704783
 30
0.0
 11
8.303819793005786
 21
14.67266309652169
 31
0.0
  0
LINE
  5
B1F
330
1F
100
AcDbEntity
  8
OBJECT2
100
AcDbLine
 10
8.275288204384978
 20
14.95716831169994
 30
0.0
 11
8.275288144996906
 21
14.72527195542852
 31
0.0
  0
LINE
  5
B20
330
1F
100
AcDbEntity
  8
OBJECT2
100
AcDbLine
 10
8.017955117215578
 20
14.72649783020742
 30
0.0
 11
8.017955117215578
 21
14.95598371769315
 31
0.0
  0
LINE
  5
B21
330
1F
100
AcDbEntity
  8
OBJECT2
100
AcDbLine
 10
5.98281145138479
 20
14.67266358504085
 30
0.0
 11
5.982810974111416
 21
15.00981707828088
 31
0.0
  0
LINE
  5
B22
330
1F
100
AcDbEntity
  8
OBJECT2
100
AcDbLine
 10
6.011358810994792
 20
14.95716858532046
 30
0.0
 11
6.011358751606834
 21
14.72527222904906
 31
0.0
  0
LINE
  5
B23
330
1F
100
AcDbEntity
  8
OBJECT2
100
AcDbLine
 10
6.039890616271449
 20
15.00982784066837
 30
0.0
 11
6.039890399615714
 21
14.67266337014223
 31
0.0
  0
LINE
  5
B24
330
1F
100
AcDbEntity
  8
OBJECT2
100
AcDbLine
 10
6.096954199852675
 20
15.00982778194617
 30
0.0
 11
6.096953722579414
 21
14.6726633114203
 31
0.0
  0
LINE
  5
B25
330
1F
100
AcDbEntity
  8
OBJECT2
100
AcDbLine
 10
6.068422353872264
 20
14.9571685486525
 30
0.0
 11
6.06842211523552
 21
14.72527219238119
 31
0.0
  0
LINE
  5
B26
330
1F
100
AcDbEntity
  8
OBJECT2
100
AcDbLine
 10
6.157718488272834
 20
14.72647683018235
 30
0.0
 11
6.157718488272834
 21
14.95594314946294
 31
0.0
  0
LINE
  5
B27
330
1F
100
AcDbEntity
  8
OBJECT2
100
AcDbLine
 10
6.326460132816905
 20
14.95596295630474
 30
0.0
 11
6.32646108736354
 21
14.72649759157076
 31
0.0
  0
LINE
  5
B28
330
1F
100
AcDbEntity
  8
OBJECT2
100
AcDbLine
 10
5.659128996947274
 20
14.60920007749058
 30
0.0
 11
5.659128281037268
 21
15.03443268720059
 31
0.0
  0
LINE
  5
B29
330
1F
100
AcDbEntity
  8
OBJECT2
100
AcDbLine
 10
5.850445907067168
 20
14.60922060024236
 30
0.0
 11
5.85046714572887
 21
15.07323930169099
 31
0.0
  0
LINE
  5
B2B
330
1F
100
AcDbEntity
  8
OBJECT2
100
AcDbLine
 10
4.893199243049238
 20
15.00975538180225
 30
0.0
 11
4.893199243049238
 21
14.67263229170595
 31
0.0
  0
LINE
  5
B2C
330
1F
100
AcDbEntity
  8
OBJECT2
100
AcDbLine
 10
4.946281298197149
 20
14.72536948101495
 30
0.0
 11
4.946281298197149
 21
14.95720389219644
 31
0.0
  0
LINE
  5
B2D
330
1F
100
AcDbEntity
  8
OBJECT2
100
AcDbLine
 10
4.999361665929072
 20
15.00983270742736
 30
0.0
 11
4.999361665929072
 21
14.672658319887
 31
0.0
  0
LINE
  5
B2E
330
1F
100
AcDbEntity
  8
OBJECT2
100
AcDbLine
 10
5.052443721077096
 20
14.72536948101495
 30
0.0
 11
5.052443721077096
 21
14.95720389219644
 31
0.0
  0
LINE
  5
B2F
330
1F
100
AcDbEntity
  8
OBJECT2
100
AcDbLine
 10
5.105566949173507
 20
15.00982258293183
 30
0.0
 11
5.105566732517772
 21
14.67265811240568
 31
0.0
  0
LINE
  5
B34
330
1F
100
AcDbEntity
  8
OBJECT1
100
AcDbLine
 10
8.182062199410992
 20
14.59426592241283
 30
0.0
 11
8.223691408178737
 21
14.63592615394486
 31
0.0
  0
ARC
  5
B35
330
1F
100
AcDbEntity
  8
OBJECT1
100
AcDbCircle
 10
8.200253948392159
 20
14.43166606928878
 30
0.0
 40
0.0210997861877731
100
AcDbArc
 50
315.0157320000005
 51
44.97902699999769
  0
LINE
  5
B36
330
1F
100
AcDbEntity
  8
OBJECT2
100
AcDbLine
 10
8.175203066225876
 20
14.60898336042996
 30
0.0
 11
8.175202588952501
 21
14.70823759250805
 31
0.0
  0
LINE
  5
B37
330
1F
100
AcDbEntity
  8
OBJECT1
100
AcDbLine
 10
8.167128556590327
 20
14.58812794917918
 30
0.0
 11
8.123973027819474
 21
14.58811840371325
 31
0.0
  0
LINE
  5
B38
330
1F
100
AcDbEntity
  8
OBJECT2
100
AcDbLine
 10
8.166447726232476
 20
14.70623948785098
 30
0.0
 11
8.038201766376218
 21
14.70622922647507
 31
0.0
  0
ARC
  5
B39
330
1F
100
AcDbEntity
  8
OBJECT2
100
AcDbCircle
 10
8.038207732292434
 20
14.72648112564201
 30
0.0
 40
0.0202527033942908
100
AcDbArc
 50
179.9530030000025
 51
269.9826200000035
  0
ARC
  5
B3A
330
1F
100
AcDbEntity
  8
OBJECT1
100
AcDbCircle
 10
8.167172943006889
 20
14.60925540620914
 30
0.0
 40
0.0211274598089148
100
AcDbArc
 50
269.8796540000011
 51
314.8079829999976
  0
ARC
  5
B3B
330
1F
100
AcDbEntity
  8
OBJECT2
100
AcDbCircle
 10
8.16644152167963
 20
14.72649353474773
 30
0.0
 40
0.0202540533270294
100
AcDbArc
 50
270.0173799999964
 51
359.983902000001
  0
LINE
  5
B3C
330
1F
100
AcDbEntity
  8
OBJECT2
100
AcDbLine
 10
7.497685575096042
 20
15.10120413769348
 30
0.0
 11
7.047847505024364
 21
14.6513683314632
 31
0.0
  0
LINE
  5
B3D
330
1F
100
AcDbEntity
  8
OBJECT2
100
AcDbLine
 10
6.526429530534741
 20
14.58811792643996
 30
0.0
 11
6.571601300348092
 21
14.58812818781584
 31
0.0
  0
LINE
  5
B3E
330
1F
100
AcDbEntity
  8
OBJECT2
100
AcDbLine
 10
6.79892418525263
 20
14.76605710468686
 30
0.0
 11
6.772929972415099
 21
14.74004093727771
 31
0.0
  0
LINE
  5
B3F
330
1F
100
AcDbEntity
  8
OBJECT1
100
AcDbLine
 10
8.189826720040045
 20
14.4582356350856
 30
0.0
 11
8.18982743595005
 21
14.47133559389982
 31
0.0
  0
LINE
  5
B40
330
1F
100
AcDbEntity
  8
OBJECT1
100
AcDbLine
 10
8.196685614588531
 20
14.46507352960901
 30
0.0
 11
8.215179238930076
 21
14.44658038254081
 31
0.0
  0
LINE
  5
B41
330
1F
100
AcDbEntity
  8
OBJECT1
100
AcDbLine
 10
7.61441076065931
 20
13.88280058477286
 30
0.0
 11
7.632905816820638
 21
13.86430505133819
 31
0.0
  0
LINE
  5
B42
330
1F
100
AcDbEntity
  8
OBJECT1
100
AcDbLine
 10
7.621270609754319
 20
13.88965947932132
 30
0.0
 11
7.606955990399782
 21
13.8896587634114
 31
0.0
  0
LINE
  5
B43
330
1F
100
AcDbEntity
  8
OBJECT1
100
AcDbLine
 10
7.61441076065931
 20
13.88280058477286
 30
0.0
 11
7.61441076065931
 21
13.88280058477286
 31
0.0
  0
LINE
  5
B44
330
1F
100
AcDbEntity
  8
OBJECT1
100
AcDbLine
 10
8.169300866000739
 20
14.09619973715294
 30
0.0
 11
7.983282166748821
 21
13.91018294699415
 31
0.0
  0
LINE
  5
B45
330
1F
100
AcDbEntity
  8
OBJECT1
100
AcDbLine
 10
8.169301581910744
 20
14.12603003411359
 30
0.0
 11
8.06179481725745
 21
14.23353679876686
 31
0.0
  0
LINE
  5
B46
330
1F
100
AcDbEntity
  8
OBJECT2
100
AcDbLine
 10
7.816118149087387
 20
14.01768780255423
 30
0.0
 11
8.061794339984189
 21
14.26336590254425
 31
0.0
  0
LINE
  5
B47
330
1F
100
AcDbEntity
  8
OBJECT1
100
AcDbLine
 10
7.953453540244694
 20
13.91018199244754
 30
0.0
 11
7.84594653695477
 21
14.01768851846418
 31
0.0
  0
LINE
  5
B48
330
1F
100
AcDbEntity
  8
OBJECT1
100
AcDbLine
 10
7.662735397871287
 20
13.86430505133819
 30
0.0
 11
7.816118149087387
 21
14.01768780255423
 31
0.0
  0
ARC
  5
B49
330
1F
100
AcDbEntity
  8
OBJECT1
100
AcDbCircle
 10
7.831032462339393
 20
14.0027720574823
 30
0.0
 40
0.0210933740072647
100
AcDbArc
 50
45.00524100000546
 51
134.9969400000003
  0
LINE
  5
B4A
330
1F
100
AcDbEntity
  8
OBJECT2
100
AcDbLine
 10
8.07629127773815
 20
14.00319205798351
 30
0.0
 11
7.938955647944098
 21
14.14052721050421
 31
0.0
  0
ARC
  5
B4B
330
1F
100
AcDbEntity
  8
OBJECT1
100
AcDbCircle
 10
7.96836737622344
 20
13.92510203297916
 30
0.0
 40
0.0210957363895573
100
AcDbArc
 50
225.012238
 51
314.9916989999975
  0
ARC
  5
B4C
330
1F
100
AcDbEntity
  8
OBJECT1
100
AcDbCircle
 10
8.076712948695885
 20
14.24845158929221
 30
0.0
 40
0.0210953989063726
100
AcDbArc
 50
135.0087279999979
 51
224.9930109999936
  0
ARC
  5
B4D
330
1F
100
AcDbEntity
  8
OBJECT1
100
AcDbCircle
 10
8.154385598202097
 20
14.11111500495158
 30
0.0
 40
0.0210937114904494
100
AcDbArc
 50
314.9999999999954
 51
44.99825299999881
  0
LINE
  5
B4E
330
1F
100
AcDbEntity
  8
OBJECT2
100
AcDbLine
 10
7.621270609754319
 20
13.88965947932132
 30
0.0
 11
8.189826720040045
 21
14.45821368051395
 31
0.0
  0
LINE
  5
B4F
330
1F
100
AcDbEntity
  8
OBJECT1
100
AcDbLine
 10
8.215178523020071
 20
14.41675008558019
 30
0.0
 11
8.061794339984189
 21
14.26336590254425
 31
0.0
  0
LINE
  5
B50
330
1F
100
AcDbEntity
  8
OBJECT1
100
AcDbLine
 10
8.18982743595005
 20
14.47133559389982
 30
0.0
 11
8.109060862297255
 21
14.55211219029189
 31
0.0
  0
LINE
  5
B51
330
1F
100
AcDbEntity
  8
OBJECT2
100
AcDbLine
 10
7.442890192344506
 20
14.11097778887875
 30
0.0
 11
7.04029560964885
 21
14.5136033943387
 31
0.0
  0
LINE
  5
B52
330
1F
100
AcDbEntity
  8
OBJECT2
100
AcDbLine
 10
7.162587823764042
 20
14.07177909437501
 30
0.0
 11
7.090019850803727
 21
14.07175857162326
 31
0.0
  0
LINE
  5
B53
330
1F
100
AcDbEntity
  8
OBJECT2
100
AcDbLine
 10
7.055229968379407
 20
14.14668475194304
 30
0.0
 11
7.028719345834687
 21
14.15665499111341
 31
0.0
  0
ARC
  5
B54
330
1F
100
AcDbEntity
  8
OBJECT2
100
AcDbCircle
 10
7.090060657670719
 20
14.09289151729612
 30
0.0
 40
0.0211328595398693
100
AcDbArc
 50
180.1098330000031
 51
269.8895570000004
  0
ARC
  5
B55
330
1F
100
AcDbEntity
  8
OBJECT2
100
AcDbCircle
 10
7.047903107363353
 20
14.12697933070094
 30
0.0
 40
0.0210238524712259
100
AcDbArc
 50
359.9243320000029
 51
69.60372899999796
  0
LINE
  5
B56
330
1F
100
AcDbEntity
  8
OBJECT2
100
AcDbLine
 10
7.090185464637769
 20
14.56975459770851
 30
0.0
 11
7.064354956541009
 21
14.5439240896118
 31
0.0
  0
LINE
  5
B57
330
1F
100
AcDbEntity
  8
OBJECT1
100
AcDbLine
 10
7.314686709811653
 20
13.95413170398441
 30
0.0
 11
7.442890669617767
 21
14.08236668655485
 31
0.0
  0
ARC
  5
B58
330
1F
100
AcDbEntity
  8
OBJECT2
100
AcDbCircle
 10
7.19045223201509
 20
13.87772955599425
 30
0.0
 40
0.1315769315834747
100
AcDbArc
 50
24.13735999999776
 51
84.6260720000053
  0
ARC
  5
B59
330
1F
100
AcDbEntity
  8
OBJECT2
100
AcDbCircle
 10
7.162494994107746
 20
14.05059221681963
 30
0.0
 40
0.0211871943325986
100
AcDbArc
 50
0.200026999997793
 51
89.74889800000187
  0
ARC
  5
B5A
330
1F
100
AcDbEntity
  8
OBJECT2
100
AcDbCircle
 10
7.204812908242828
 20
14.0297625783269
 30
0.0
 40
0.0211328595398693
100
AcDbArc
 50
180.0394900000009
 51
264.4665989999988
  0
ARC
  5
B5B
330
1F
100
AcDbEntity
  8
OBJECT1
100
AcDbCircle
 10
7.190843596118483
 20
13.87778778333645
 30
0.0
 40
0.1311972630007386
100
AcDbArc
 50
359.9669039999992
 51
24.18408999999462
  0
ARC
  5
B5C
330
1F
100
AcDbEntity
  8
OBJECT1
100
AcDbCircle
 10
7.328951931380046
 20
13.93982352781932
 30
0.0
 40
0.0202044432988852
100
AcDbArc
 50
134.9142060000046
 51
204.219603999999
  0
ARC
  5
B5D
330
1F
100
AcDbEntity
  8
OBJECT1
100
AcDbCircle
 10
7.457195743506517
 20
14.06805111265362
 30
0.0
 40
0.020237854134166
100
AcDbArc
 50
134.9790429999996
 51
225.0218810000037
  0
ARC
  5
B5E
330
1F
100
AcDbEntity
  8
OBJECT2
100
AcDbCircle
 10
7.428608743483991
 20
14.09667247635343
 30
0.0
 40
0.0202145677944248
100
AcDbArc
 50
314.9525600000016
 51
45.04743999999832
  0
LINE
  5
B5F
330
1F
100
AcDbEntity
  8
OBJECT2
100
AcDbLine
 10
7.442890669617767
 20
14.08236668655485
 30
0.0
 11
7.442890669617767
 21
14.08236668655485
 31
0.0
  0
LINE
  5
B60
330
1F
100
AcDbEntity
  8
OBJECT2
100
AcDbLine
 10
7.379220741366665
 20
14.52769297933383
 30
0.0
 11
7.585863374320396
 21
14.52768247932132
 31
0.0
  0
LINE
  5
B61
330
1F
100
AcDbEntity
  8
OBJECT2
100
AcDbLine
 10
7.379221218639926
 20
14.42637979025329
 30
0.0
 11
7.585863135683766
 21
14.42640102891499
 31
0.0
  0
LINE
  5
B62
330
1F
100
AcDbEntity
  8
OBJECT2
100
AcDbLine
 10
7.379220741366665
 20
14.52769297933383
 30
0.0
 11
7.379221218639926
 21
14.42637979025329
 31
0.0
  0
LINE
  5
B63
330
1F
100
AcDbEntity
  8
OBJECT2
100
AcDbLine
 10
7.585863374320396
 20
14.52768247932132
 30
0.0
 11
7.585863374320396
 21
14.56986866602645
 31
0.0
  0
LINE
  5
B64
330
1F
100
AcDbEntity
  8
OBJECT2
100
AcDbLine
 10
7.585863135683766
 20
14.42640102891499
 30
0.0
 11
7.585863374320396
 21
14.38421508084653
 31
0.0
  0
LINE
  5
B65
330
1F
100
AcDbEntity
  8
OBJECT2
100
AcDbLine
 10
6.626825877612063
 20
13.96877707373369
 30
0.0
 11
6.674078320362795
 21
13.96878757374622
 31
0.0
  0
ARC
  5
B66
330
1F
100
AcDbEntity
  8
OBJECT1
100
AcDbCircle
 10
6.526424280528416
 20
14.56534149016954
 30
0.0
 40
0.0210980987718499
100
AcDbArc
 50
270.0142209999957
 51
359.9864040000009
  0
LINE
  5
B67
330
1F
100
AcDbEntity
  8
OBJECT1
100
AcDbLine
 10
6.525591191944712
 20
14.54425127681472
 30
0.0
 11
6.525591191944712
 21
14.54425127681472
 31
0.0
  0
LINE
  5
B68
330
1F
100
AcDbEntity
  8
OBJECT1
100
AcDbLine
 10
6.547521669340639
 20
14.56702531036071
 30
0.0
 11
6.54752238525053
 21
14.56533647879993
 31
0.0
  0
LINE
  5
B69
330
1F
100
AcDbEntity
  8
OBJECT2
100
AcDbLine
 10
6.674078558999426
 20
14.2030836601539
 30
0.0
 11
6.674077604452904
 21
14.50140953887847
 31
0.0
  0
LINE
  5
B6A
330
1F
100
AcDbEntity
  8
OBJECT2
100
AcDbLine
 10
7.014939272572505
 20
14.08059552535036
 30
0.0
 11
7.01493998848251
 21
14.424597651763
 31
0.0
  0
ARC
  5
B6B
330
1F
100
AcDbEntity
  8
OBJECT2
100
AcDbCircle
 10
7.036204661585188
 20
14.17656038986686
 30
0.0
 40
0.0212654904314384
100
AcDbArc
 50
179.9368289999995
 51
249.3921360000019
  0
ARC
  5
B6C
330
1F
100
AcDbEntity
  8
OBJECT2
100
AcDbCircle
 10
7.18328883710329
 20
14.42477639061266
 30
0.0
 40
0.1683490993834101
100
AcDbArc
 50
134.9485169999959
 51
180.0608830000016
  0
LINE
  5
B6D
330
1F
100
AcDbEntity
  8
OBJECT2
100
AcDbLine
 10
7.678721428311391
 20
14.47703113478732
 30
0.0
 11
7.585863374320396
 21
14.38421508084653
 31
0.0
  0
LINE
  5
B6E
330
1F
100
AcDbEntity
  8
OBJECT2
100
AcDbLine
 10
7.678721428311391
 20
14.47703113478732
 30
0.0
 11
7.585863374320396
 21
14.56986866602645
 31
0.0
  0
LINE
  5
B6F
330
1F
100
AcDbEntity
  8
OBJECT1
100
AcDbLine
 10
7.606955990399782
 20
13.8896587634114
 30
0.0
 11
7.442890669617767
 21
14.05373506147913
 31
0.0
  0
LINE
  5
B70
330
1F
100
AcDbEntity
  8
OBJECT2
100
AcDbLine
 10
7.442890669617767
 20
14.08236668655485
 30
0.0
 11
8.008068162235403
 21
14.64754417917248
 31
0.0
  0
ARC
  5
B71
330
1F
100
AcDbEntity
  8
OBJECT2
100
AcDbCircle
 10
7.011472836617812
 20
14.50143411845326
 30
0.0
 40
0.3373957765095006
100
AcDbArc
 50
134.9923479999948
 51
180.0041810000024
  0
ARC
  5
B72
330
1F
100
AcDbEntity
  8
OBJECT2
100
AcDbCircle
 10
6.571691266364481
 20
14.79886033701333
 30
0.0
 40
0.2107319251282237
100
AcDbArc
 50
269.9755550000029
 51
307.6321560000022
  0
ARC
  5
B73
330
1F
100
AcDbEntity
  8
OBJECT1
100
AcDbCircle
 10
6.526371541829107
 20
14.56696923074832
 30
0.0
 40
0.021148721249548
100
AcDbArc
 50
0.1522830000021525
 51
89.84215900000046
  0
ARC
  5
B74
330
1F
100
AcDbEntity
  8
OBJECT1
100
AcDbCircle
 10
8.123989732384742
 20
14.56702101490103
 30
0.0
 40
0.0210974238054806
100
AcDbArc
 50
90.04511999999401
 51
224.961548000005
  0
LINE
  5
B75
330
1F
100
AcDbEntity
  8
OBJECT1
100
AcDbLine
 10
5.98281145138479
 20
14.67266358504085
 30
0.0
 11
5.961388323547438
 21
14.6166882568809
 31
0.0
  0
ARC
  5
B76
330
1F
100
AcDbEntity
  8
OBJECT1
100
AcDbCircle
 10
6.105037300407488
 20
14.6209037382911
 30
0.0
 40
0.0212128430546323
100
AcDbArc
 50
45.12865400000751
 51
89.80207100000409
  0
LINE
  5
B77
330
1F
100
AcDbEntity
  8
OBJECT2
100
AcDbLine
 10
6.168512978426846
 20
14.60898455361319
 30
0.0
 11
6.168512023880211
 21
14.70857717245874
 31
0.0
  0
ARC
  5
B78
330
1F
100
AcDbEntity
  8
OBJECT1
100
AcDbCircle
 10
6.176564101670791
 20
14.60923225845422
 30
0.0
 40
0.0211041734691736
100
AcDbArc
 50
225.1258240000022
 51
270.0617830000021
  0
LINE
  5
B79
330
1F
100
AcDbEntity
  8
OBJECT1
100
AcDbLine
 10
6.161674129356796
 20
14.59427689969865
 30
0.0
 11
6.120002920538908
 21
14.63593713123069
 31
0.0
  0
LINE
  5
B7A
330
1F
100
AcDbEntity
  8
OBJECT2
100
AcDbLine
 10
6.306212290472998
 20
14.70622874920178
 30
0.0
 11
6.177967285163376
 21
14.70622898783844
 31
0.0
  0
ARC
  5
B7B
330
1F
100
AcDbEntity
  8
OBJECT2
100
AcDbCircle
 10
6.17799114882824
 20
14.72650212566708
 30
0.0
 40
0.0202726149021854
100
AcDbArc
 50
180.0713809999991
 51
269.9324649999982
  0
LINE
  5
B7C
330
1F
100
AcDbEntity
  8
OBJECT2
100
AcDbLine
 10
5.98281145138479
 20
14.67266358504085
 30
0.0
 11
5.961492130489531
 21
14.72894794766048
 31
0.0
  0
LINE
  5
B7D
330
1F
100
AcDbEntity
  8
OBJECT1
100
AcDbLine
 10
6.096954199852675
 20
14.67266402733025
 30
0.0
 11
6.096954199852788
 21
14.64210612722863
 31
0.0
  0
LINE
  5
B7E
330
1F
100
AcDbEntity
  8
OBJECT1
100
AcDbLine
 10
6.096954199852788
 20
14.64210612722863
 30
0.0
 11
6.105110561858609
 21
14.64211686587779
 31
0.0
  0
LINE
  5
B7F
330
1F
100
AcDbEntity
  8
OBJECT1
100
AcDbLine
 10
5.982811412622012
 20
14.67266368737694
 30
0.0
 11
6.096953722579414
 21
14.6726633114203
 31
0.0
  0
LINE
  5
B80
330
1F
100
AcDbEntity
  8
OBJECT2
100
AcDbLine
 10
5.982543462428665
 20
14.8059242554267
 30
0.0
 11
5.961492130489531
 21
14.72894794766048
 31
0.0
  0
ARC
  5
B81
330
1F
100
AcDbEntity
  8
OBJECT2
100
AcDbCircle
 10
6.306187233624868
 20
14.72650212566708
 30
0.0
 40
0.0202732898685547
100
AcDbArc
 50
270.0707550000004
 51
359.9871370000004
  0
LINE
  5
B83
330
1F
100
AcDbEntity
  8
OBJECT1
100
AcDbLine
 10
5.850445907067168
 20
14.60922060024236
 30
0.0
 11
5.659128996947274
 21
14.60920007749058
 31
0.0
  0
LINE
  5
B84
330
1F
100
AcDbEntity
  8
OBJECT1
100
AcDbLine
 10
5.658325030078785
 20
14.61629593823093
 30
0.0
 11
5.429642870824849
 21
14.61631693825597
 31
0.0
  0
LINE
  5
B86
330
1F
100
AcDbEntity
  8
OBJECT1
100
AcDbLine
 10
5.961388323547438
 20
14.61665723411661
 30
0.0
 11
5.85149686286671
 21
14.61665651820666
 31
0.0
  0
LINE
  5
B87
330
1F
100
AcDbEntity
  8
OBJECT2
100
AcDbLine
 10
5.961492130489531
 20
14.72894794766048
 30
0.0
 11
5.850466429818865
 21
14.72893840219453
 31
0.0
  0
LINE
  5
B88
330
1F
100
AcDbEntity
  8
OBJECT1
100
AcDbLine
 10
5.128639488905136
 20
14.60917931610217
 30
0.0
 11
5.105557758310837
 21
14.67262706071656
 31
0.0
  0
LINE
  5
B89
330
1F
100
AcDbEntity
  8
OBJECT1
100
AcDbLine
 10
5.241950851394207
 20
14.63031297768498
 30
0.0
 11
5.234288467250607
 21
14.60919960021729
 31
0.0
  0
LINE
  5
B8A
330
1F
100
AcDbEntity
  8
OBJECT1
100
AcDbLine
 10
5.128658818473681
 20
14.60920055476387
 30
0.0
 11
5.234288467250607
 21
14.60919960021729
 31
0.0
  0
LINE
  5
B8B
330
1F
100
AcDbEntity
  8
OBJECT1
100
AcDbLine
 10
5.234288467250607
 20
14.60919960021729
 30
0.0
 11
5.128639488905136
 21
14.60917931610217
 31
0.0
  0
LINE
  5
B8C
330
1F
100
AcDbEntity
  8
OBJECT2
100
AcDbLine
 10
5.220918436063186
 20
14.7252806326762
 30
0.0
 11
5.241990290754131
 21
14.67265146760019
 31
0.0
  0
LINE
  5
B8D
330
1F
100
AcDbEntity
  8
OBJECT2
100
AcDbLine
 10
5.241959310626491
 20
14.80218911754377
 30
0.0
 11
5.220918436063186
 21
14.7252806326762
 31
0.0
  0
LINE
  5
B8E
330
1F
100
AcDbEntity
  8
OBJECT2
100
AcDbLine
 10
5.126620145586329
 20
14.72528225010433
 30
0.0
 11
5.105548290895498
 21
14.67265308502831
 31
0.0
  0
LINE
  5
B8F
330
1F
100
AcDbEntity
  8
OBJECT2
100
AcDbLine
 10
5.1055695295572
 20
14.80222634192299
 30
0.0
 11
5.126620145586329
 21
14.72528225010433
 31
0.0
  0
LINE
  5
B90
330
1F
100
AcDbEntity
  8
OBJECT2
100
AcDbLine
 10
5.220918436063186
 20
14.72528039403954
 30
0.0
 11
5.126620145586329
 21
14.72528225010433
 31
0.0
  0
LINE
  5
B91
330
1F
100
AcDbEntity
  8
OBJECT1
100
AcDbLine
 10
5.241950851394207
 20
14.63031297768498
 30
0.0
 11
5.429622348073039
 21
14.63028243219397
 31
0.0
  0
LINE
  5
B93
330
1F
100
AcDbEntity
  8
OBJECT1
100
AcDbLine
 10
6.336600803629821
 20
14.37530368884307
 30
0.0
 11
6.09839619584703
 21
14.37530368884307
 31
0.0
  0
LINE
  5
B94
330
1F
100
AcDbEntity
  8
OBJECT2
100
AcDbLine
 10
6.064647877381602
 20
14.32523112430354
 30
0.0
 11
6.064647877381602
 21
14.21250983617028
 31
0.0
  0
ARC
  5
B95
330
1F
100
AcDbEntity
  8
OBJECT1
100
AcDbCircle
 10
6.087975200769605
 20
14.26887048023692
 30
0.0
 40
0.0843127518688572
100
AcDbArc
 50
187.8706784006226
 51
221.9491785174336
  0
LINE
  5
B96
330
1F
100
AcDbEntity
  8
OBJECT1
100
AcDbLine
 10
6.025268598819806
 20
14.21250983617028
 30
0.0
 11
6.064647877381602
 21
14.21250983617028
 31
0.0
  0
ARC
  5
B97
330
1F
100
AcDbEntity
  8
OBJECT1
100
AcDbCircle
 10
6.030899558916175
 20
14.1961855900962
 30
0.0
 40
0.0337483184654326
100
AcDbArc
 50
270.0
 51
0.0
  0
LINE
  5
B98
330
1F
100
AcDbEntity
  8
OBJECT1
100
AcDbLine
 10
6.064647877381602
 20
14.21250983617028
 30
0.0
 11
6.064647877381602
 21
14.1961855900962
 31
0.0
  0
LINE
  5
B99
330
1F
100
AcDbEntity
  8
OBJECT1
100
AcDbLine
 10
6.021562123769498
 20
14.28041606835918
 30
0.0
 11
6.021562123769498
 21
14.25732489211464
 31
0.0
  0
LINE
  5
B9A
330
1F
100
AcDbEntity
  8
OBJECT1
100
AcDbLine
 10
6.025268598819806
 20
14.32523112430354
 30
0.0
 11
6.064647877381602
 21
14.32523112430354
 31
0.0
  0
ARC
  5
B9B
330
1F
100
AcDbEntity
  8
OBJECT1
100
AcDbCircle
 10
6.09839619584703
 20
14.34155537037762
 30
0.0
 40
0.0337483184654326
100
AcDbArc
 50
90.0
 51
180.0
  0
LINE
  5
B9C
330
1F
100
AcDbEntity
  8
OBJECT1
100
AcDbLine
 10
6.064647877381602
 20
14.34155537037762
 30
0.0
 11
6.064647877381602
 21
14.32523112430354
 31
0.0
  0
LINE
  5
B9D
330
1F
100
AcDbEntity
  8
OBJECT1
100
AcDbLine
 10
6.021562123769498
 20
14.25732489211464
 30
0.0
 11
6.004456702683327
 21
14.25732489211464
 31
0.0
  0
LINE
  5
B9E
330
1F
100
AcDbEntity
  8
OBJECT1
100
AcDbLine
 10
6.021562123769498
 20
14.28041606835918
 30
0.0
 11
6.004456702683327
 21
14.28041606835918
 31
0.0
  0
ARC
  5
B9F
330
1F
100
AcDbEntity
  8
OBJECT1
100
AcDbCircle
 10
6.087975200769605
 20
14.26887048023692
 30
0.0
 40
0.0843127518688572
100
AcDbArc
 50
138.0508214825663
 51
172.1293215993773
  0
LINE
  5
BA0
330
1F
100
AcDbEntity
  8
OBJECT2
100
AcDbLine
 10
6.336600989146845
 20
13.85900297104348
 30
0.0
 11
6.336600803629821
 21
14.37530368884307
 31
0.0
  0
LINE
  5
BA1
330
1F
100
AcDbEntity
  8
OBJECT2
100
AcDbLine
 10
6.368321657254327
 20
14.21517157730017
 30
0.0
 11
6.356847768562246
 21
14.23205249517172
 31
0.0
  0
LINE
  5
BA2
330
1F
100
AcDbEntity
  8
OBJECT2
100
AcDbLine
 10
6.424350656787041
 20
14.42658288660857
 30
0.0
 11
6.42434876956689
 21
14.2151515318217
 31
0.0
  0
LINE
  5
BA3
330
1F
100
AcDbEntity
  8
OBJECT2
100
AcDbLine
 10
6.42434876956689
 20
14.2151515318217
 30
0.0
 11
6.368321657254327
 21
14.21517157730017
 31
0.0
  0
LINE
  5
BA4
330
1F
100
AcDbEntity
  8
OBJECT2
100
AcDbLine
 10
6.424350656787041
 20
14.42658288660857
 30
0.0
 11
6.368321418617583
 21
14.4265728636598
 31
0.0
  0
LINE
  5
BA5
330
1F
100
AcDbEntity
  8
OBJECT2
100
AcDbLine
 10
6.424348530930259
 20
14.37531418885558
 30
0.0
 11
6.368321895890957
 21
14.37530368884307
 31
0.0
  0
LINE
  5
BA6
330
1F
100
AcDbEntity
  8
OBJECT2
100
AcDbLine
 10
6.42434876956689
 20
14.26642118391174
 30
0.0
 11
6.368321657254327
 21
14.26644122939021
 31
0.0
  0
ARC
  5
BA7
330
1F
100
AcDbEntity
  8
OBJECT1
100
AcDbCircle
 10
6.35766234382514
 20
14.52317846757725
 30
0.0
 40
0.0210619880710919
100
AcDbArc
 50
89.91394399999961
 51
180.1101989999994
  0
LINE
  5
BA8
330
1F
100
AcDbEntity
  8
OBJECT2
100
AcDbLine
 10
6.368321657254327
 20
14.26644122939021
 30
0.0
 11
6.356848723108882
 21
14.24614160289357
 31
0.0
  0
LINE
  5
BA9
330
1F
100
AcDbEntity
  8
OBJECT2
100
AcDbLine
 10
6.356848723108882
 20
14.40968168441236
 30
0.0
 11
6.356847768562246
 21
14.23205249517172
 31
0.0
  0
LINE
  5
BAA
330
1F
100
AcDbEntity
  8
OBJECT2
100
AcDbLine
 10
6.368321418617583
 20
14.4265728636598
 30
0.0
 11
6.356848723108882
 21
14.40968168441236
 31
0.0
  0
LINE
  5
BAB
330
1F
100
AcDbEntity
  8
OBJECT2
100
AcDbLine
 10
6.368321895890957
 20
14.37530368884307
 30
0.0
 11
6.356848484472251
 21
14.39558231531461
 31
0.0
  0
LINE
  5
BAC
330
1F
100
AcDbEntity
  8
OBJECT2
100
AcDbLine
 10
6.368321657254327
 20
14.26644122939021
 30
0.0
 11
6.356848723108882
 21
14.31069663447365
 31
0.0
  0
LINE
  5
BAD
330
1F
100
AcDbEntity
  8
OBJECT2
100
AcDbLine
 10
6.368321895890957
 20
14.37530368884307
 30
0.0
 11
6.356848484472251
 21
14.33102776100784
 31
0.0
  0
LINE
  5
BAE
330
1F
100
AcDbEntity
  8
OBJECT1
100
AcDbLine
 10
6.336600803629821
 20
14.37530368884307
 30
0.0
 11
6.3366007505101
 21
14.52313789934703
 31
0.0
  0
LINE
  5
BAF
330
1F
100
AcDbEntity
  8
OBJECT1
100
AcDbLine
 10
6.526429530534741
 20
14.58811792643996
 30
0.0
 11
6.17658701078902
 21
14.58812818781584
 31
0.0
  0
LINE
  5
BB0
330
1F
100
AcDbEntity
  8
OBJECT1
100
AcDbLine
 10
6.525591191944712
 20
14.54425127681472
 30
0.0
 11
6.357694082499264
 21
14.54424029952889
 31
0.0
  0
ARC
  5
BB1
330
1F
100
AcDbEntity
  8
OBJECT1
100
AcDbCircle
 10
8.238648198754148
 20
14.62091495421359
 30
0.0
 40
0.0211909066476298
100
AcDbArc
 50
90.11753099999442
 51
134.8955730000032
  0
LINE
  5
BB2
330
1F
100
AcDbEntity
  8
OBJECT1
100
AcDbLine
 10
8.246740128864857
 20
14.64210660450194
 30
0.0
 11
8.246740844774862
 21
14.6726633114203
 31
0.0
  0
LINE
  5
BB3
330
1F
100
AcDbEntity
  8
OBJECT1
100
AcDbLine
 10
8.246740128864857
 20
14.64210660450194
 30
0.0
 11
8.238604766884108
 21
14.642105888592
 31
0.0
  0
LINE
  5
BB4
330
1F
100
AcDbEntity
  8
OBJECT1
100
AcDbLine
 10
8.182061722137618
 20
15.0881430799466
 30
0.0
 11
8.223691646815368
 21
15.04652365528144
 31
0.0
  0
LINE
  5
BB5
330
1F
100
AcDbEntity
  8
OBJECT2
100
AcDbLine
 10
8.186696284486387
 20
14.84121977392521
 30
0.0
 11
8.186696284486387
 21
14.84121977392521
 31
0.0
  0
LINE
  5
BB6
330
1F
100
AcDbEntity
  8
OBJECT2
100
AcDbLine
 10
8.166448680779112
 20
14.97622153729781
 30
0.0
 11
8.038203198196114
 21
14.97623179867369
 31
0.0
  0
ARC
  5
BB7
330
1F
100
AcDbEntity
  8
OBJECT2
100
AcDbCircle
 10
8.038190073180416
 20
14.95599660407217
 30
0.0
 40
0.0202351542686888
100
AcDbArc
 50
89.96262400000231
 51
180.0367429999996
  0
LINE
  5
BB8
330
1F
100
AcDbEntity
  8
OBJECT2
100
AcDbLine
 10
8.17520211167924
 20
15.07347671017225
 30
0.0
 11
8.175202827589131
 21
14.97422271673079
 31
0.0
  0
ARC
  5
BB9
330
1F
100
AcDbEntity
  8
OBJECT2
100
AcDbCircle
 10
8.166408828458756
 20
14.95593575172682
 30
0.0
 40
0.0202857767463869
100
AcDbArc
 50
0.0790559999979922
 51
89.88687100000332
  0
ARC
  5
BBA
330
1F
100
AcDbEntity
  8
OBJECT1
100
AcDbCircle
 10
8.16712235203748
 20
15.07320752803283
 30
0.0
 40
0.0211250974266222
100
AcDbArc
 50
44.99301099999363
 51
89.98518799999619
  0
ARC
  5
BBB
330
1F
100
AcDbEntity
  8
OBJECT1
100
AcDbCircle
 10
7.13854816439526
 20
15.78702713552766
 30
0.0
 40
0.0210953989063726
100
AcDbArc
 50
225.0074160000006
 51
314.9930109999982
  0
ARC
  5
BBC
330
1F
100
AcDbEntity
  8
OBJECT1
100
AcDbCircle
 10
7.275884032825942
 20
15.86469859185069
 30
0.0
 40
0.0210943864568187
100
AcDbArc
 50
45.00065599999906
 51
134.9947549999977
  0
LINE
  5
BBD
330
1F
100
AcDbEntity
  8
OBJECT1
100
AcDbLine
 10
7.260969480937191
 20
15.87961600737915
 30
0.0
 11
7.153462954920641
 21
15.77210900408923
 31
0.0
  0
LINE
  5
BBE
330
1F
100
AcDbEntity
  8
OBJECT1
100
AcDbLine
 10
6.92863274912689
 20
15.90017061713459
 30
0.0
 11
6.914522164106742
 21
15.9001701398613
 31
0.0
  0
ARC
  5
BBF
330
1F
100
AcDbEntity
  8
OBJECT1
100
AcDbCircle
 10
6.955334161671984
 20
15.91057004431712
 30
0.0
 40
0.0210991112214038
100
AcDbArc
 50
45.01311499999846
 51
134.9842679999993
  0
LINE
  5
BC0
330
1F
100
AcDbEntity
  8
OBJECT1
100
AcDbLine
 10
6.921925746805172
 20
15.90700027869362
 30
0.0
 11
6.940419132510086
 21
15.92549366439846
 31
0.0
  0
LINE
  5
BC1
330
1F
100
AcDbEntity
  8
OBJECT1
100
AcDbLine
 10
6.970249668107371
 20
15.92549270985188
 30
0.0
 11
7.123633612506623
 21
15.7721087654526
 31
0.0
  0
LINE
  5
BC2
330
1F
100
AcDbEntity
  8
OBJECT1
100
AcDbLine
 10
7.522694225075937
 20
15.37304958470306
 30
0.0
 11
7.369311712496582
 21
15.52643209728245
 31
0.0
  0
LINE
  5
BC3
330
1F
100
AcDbEntity
  8
OBJECT1
100
AcDbLine
 10
7.497373564178573
 20
15.31849330937288
 30
0.0
 11
7.399654958932941
 21
15.22077470412725
 31
0.0
  0
ARC
  5
BC4
330
1F
100
AcDbEntity
  8
OBJECT1
100
AcDbCircle
 10
7.531089343048606
 20
15.17896508605332
 30
0.0
 40
0.084632008148504
100
AcDbArc
 50
225.0679929999961
 51
269.9183349999948
  0
LINE
  5
BC5
330
1F
100
AcDbEntity
  8
OBJECT1
100
AcDbLine
 10
7.399654720296311
 20
15.19071197507108
 30
0.0
 11
7.471316589902571
 21
15.11905010546485
 31
0.0
  0
ARC
  5
BC6
330
1F
100
AcDbEntity
  8
OBJECT1
100
AcDbCircle
 10
7.414702670071491
 20
15.20574369755414
 30
0.0
 40
0.0212692027464696
100
AcDbArc
 50
135.0312189999992
 51
224.9687810000007
  0
LINE
  5
BC7
330
1F
100
AcDbEntity
  8
OBJECT1
100
AcDbLine
 10
7.504200362097876
 20
15.32472566340095
 30
0.0
 11
7.504200362097876
 21
15.32472566340095
 31
0.0
  0
LINE
  5
BC8
330
1F
100
AcDbEntity
  8
OBJECT1
100
AcDbLine
 10
7.497372848268682
 20
15.33163622278379
 30
0.0
 11
7.497373564178573
 21
15.31849330937288
 31
0.0
  0
ARC
  5
BC9
330
1F
100
AcDbEntity
  8
OBJECT1
100
AcDbCircle
 10
7.507778718640665
 20
15.35813503281437
 30
0.0
 40
0.0210933740072647
100
AcDbArc
 50
315.0017549999993
 51
44.99825299999881
  0
LINE
  5
BCA
330
1F
100
AcDbEntity
  8
OBJECT1
100
AcDbLine
 10
7.504200362097876
 20
15.32472566340095
 30
0.0
 11
7.522694225075937
 21
15.34322000365239
 31
0.0
  0
LINE
  5
BCB
330
1F
100
AcDbEntity
  8
OBJECT1
100
AcDbLine
 10
7.476817522603241
 20
15.66376796571313
 30
0.0
 11
7.36931099658669
 21
15.5562609624232
 31
0.0
  0
ARC
  5
BCC
330
1F
100
AcDbEntity
  8
OBJECT1
100
AcDbCircle
 10
7.384227457568485
 20
15.5413468878078
 30
0.0
 40
0.0210933740072647
100
AcDbArc
 50
135.005248999999
 51
224.9978030000032
  0
ARC
  5
BCD
330
1F
100
AcDbEntity
  8
OBJECT1
100
AcDbCircle
 10
7.461897482071648
 20
15.67868180169188
 30
0.0
 40
0.0210957363895573
100
AcDbArc
 50
315.0122379999954
 51
44.99213399999552
  0
ARC
  5
BCE
330
1F
100
AcDbEntity
  8
OBJECT1
100
AcDbCircle
 10
6.73611263302574
 20
15.69316191556217
 30
0.0
 40
0.0202763272172166
100
AcDbArc
 50
315.0263669999935
 51
44.97453299999237
  0
LINE
  5
BCF
330
1F
100
AcDbEntity
  8
OBJECT1
100
AcDbLine
 10
6.75045684332484
 20
15.70749323948214
 30
0.0
 11
6.75045684332484
 21
15.70749323948214
 31
0.0
  0
ARC
  5
BD0
330
1F
100
AcDbEntity
  8
OBJECT1
100
AcDbCircle
 10
6.764753803567472
 20
15.72180451792368
 30
0.0
 40
0.0202287420881803
100
AcDbArc
 50
134.9735640000043
 51
225.0291750000006
  0
LINE
  5
BD1
330
1F
100
AcDbEntity
  8
OBJECT2
100
AcDbLine
 10
7.318394407417926
 20
15.13952512989803
 30
0.0
 11
6.75045684332484
 21
15.70749323948214
 31
0.0
  0
LINE
  5
BD2
330
1F
100
AcDbEntity
  8
OBJECT2
100
AcDbLine
 10
6.921925746805172
 20
15.90700027869362
 30
0.0
 11
7.504200362097876
 21
15.32472566340095
 31
0.0
  0
LINE
  5
BD3
330
1F
100
AcDbEntity
  8
OBJECT2
100
AcDbLine
 10
7.369311712496582
 20
15.52643209728245
 30
0.0
 11
7.123633612506623
 21
15.7721087654526
 31
0.0
  0
LINE
  5
BD4
330
1F
100
AcDbEntity
  8
OBJECT1
100
AcDbLine
 10
6.914522164106742
 20
15.9001701398613
 30
0.0
 11
6.750456127414835
 21
15.73611508045525
 31
0.0
  0
LINE
  5
BD5
330
1F
100
AcDbEntity
  8
OBJECT2
100
AcDbLine
 10
7.383807695704021
 20
15.78660546456993
 30
0.0
 11
7.246472781819974
 21
15.64927055068585
 31
0.0
  0
LINE
  5
BD6
330
1F
100
AcDbEntity
  8
OBJECT1
100
AcDbLine
 10
7.290800255171106
 20
15.87961481419591
 30
0.0
 11
7.476816329420088
 21
15.69359683085389
 31
0.0
  0
LINE
  5
BD7
330
1F
100
AcDbEntity
  8
OBJECT1
100
AcDbLine
 10
8.167128079317066
 20
15.09433259869629
 30
0.0
 11
7.53096883154113
 21
15.09433331460624
 31
0.0
  0
LINE
  5
BD8
330
1F
100
AcDbEntity
  8
OBJECT2
100
AcDbLine
 10
6.306212767746373
 20
14.97622129866118
 30
0.0
 11
6.177966807890115
 21
14.97621151455859
 31
0.0
  0
LINE
  5
BD9
330
1F
100
AcDbEntity
  8
OBJECT1
100
AcDbLine
 10
6.176586533515646
 20
15.09435336008471
 30
0.0
 11
6.245653945480498
 21
15.094332121423
 31
0.0
  0
LINE
  5
BDA
330
1F
100
AcDbEntity
  8
OBJECT1
100
AcDbLine
 10
5.961389039457444
 20
15.06576209958649
 30
0.0
 11
5.982810974111416
 21
15.00981707828088
 31
0.0
  0
LINE
  5
BDB
330
1F
100
AcDbEntity
  8
OBJECT2
100
AcDbLine
 10
6.168532785268652
 20
15.07345666469379
 30
0.0
 11
6.1684915011284
 21
14.97389482997587
 31
0.0
  0
LINE
  5
BDC
330
1F
100
AcDbEntity
  8
OBJECT1
100
AcDbLine
 10
6.161653606604986
 20
15.08815214813924
 30
0.0
 11
6.120024397837241
 21
15.04650289389303
 31
0.0
  0
ARC
  5
BDD
330
1F
100
AcDbEntity
  8
OBJECT2
100
AcDbCircle
 10
6.177957501060731
 20
14.95597250177067
 30
0.0
 40
0.02023886658372
100
AcDbArc
 50
89.97294199999954
 51
180.0837399999982
  0
LINE
  5
BDE
330
1F
100
AcDbEntity
  8
OBJECT1
100
AcDbLine
 10
5.982810974111416
 20
15.00981707828088
 30
0.0
 11
5.982810974111416
 21
15.00981707828088
 31
0.0
  0
LINE
  5
BDF
330
1F
100
AcDbEntity
  8
OBJECT2
100
AcDbLine
 10
5.982810974111416
 20
15.00981707828088
 30
0.0
 11
5.961450369076018
 21
14.95349095424779
 31
0.0
  0
LINE
  5
BE0
330
1F
100
AcDbEntity
  8
OBJECT2
100
AcDbLine
 10
5.982522462403593
 20
14.87653540786999
 30
0.0
 11
5.961450369076018
 21
14.95349095424779
 31
0.0
  0
LINE
  5
BE1
330
1F
100
AcDbEntity
  8
OBJECT1
100
AcDbLine
 10
6.096953722579414
 20
15.00984854333458
 30
0.0
 11
6.096954199852788
 21
15.04033389789509
 31
0.0
  0
LINE
  5
BE2
330
1F
100
AcDbEntity
  8
OBJECT1
100
AcDbLine
 10
6.096954199852788
 20
15.04033389789509
 30
0.0
 11
6.105110800495239
 21
15.04033389789509
 31
0.0
  0
ARC
  5
BE3
330
1F
100
AcDbEntity
  8
OBJECT1
100
AcDbCircle
 10
6.105106982308811
 20
15.06145515037218
 30
0.0
 40
0.0211210476284064
100
AcDbArc
 50
270.0104980000053
 51
314.9336399999989
  0
LINE
  5
BE4
330
1F
100
AcDbEntity
  8
OBJECT1
100
AcDbLine
 10
5.982810954795795
 20
15.00981712872538
 30
0.0
 11
6.096954199852675
 21
15.00982778194617
 31
0.0
  0
ARC
  5
BE5
330
1F
100
AcDbEntity
  8
OBJECT1
100
AcDbCircle
 10
6.1765481130153
 20
15.07336646004068
 30
0.0
 40
0.0209870668040986
100
AcDbArc
 50
89.89499700000331
 51
135.2099909999989
  0
ARC
  5
BE9
330
1F
100
AcDbEntity
  8
OBJECT2
100
AcDbCircle
 10
6.306207517740048
 20
14.95596677449111
 30
0.0
 40
0.0202543908102141
100
AcDbArc
 50
359.989058999997
 51
89.98519499999973
  0
LINE
  5
BEA
330
1F
100
AcDbEntity
  8
OBJECT2
100
AcDbLine
 10
6.326460371453649
 20
14.84122001256187
 30
0.0
 11
6.326460371453649
 21
14.84122001256187
 31
0.0
  0
ARC
  5
BEB
330
1F
100
AcDbEntity
  8
OBJECT1
100
AcDbCircle
 10
6.275172821614873
 20
15.1749388085214
 30
0.0
 40
0.0202506784951829
100
AcDbArc
 50
134.9936260000023
 51
225.0072939999969
  0
LINE
  5
BEC
330
1F
100
AcDbEntity
  8
OBJECT1
100
AcDbLine
 10
6.260855338620544
 20
15.16061750734064
 30
0.0
 11
6.269505917125215
 21
15.15196645156265
 31
0.0
  0
ARC
  5
BED
330
1F
100
AcDbEntity
  8
OBJECT1
100
AcDbCircle
 10
6.245593570408445
 20
15.12811042309485
 30
0.0
 40
0.0337773420193129
100
AcDbArc
 50
270.1022949999984
 51
44.93230399999946
  0
LINE
  5
BEE
330
1F
100
AcDbEntity
  8
OBJECT1
100
AcDbLine
 10
5.493525582184219
 20
15.07321330831883
 30
0.0
 11
5.85046714572887
 21
15.07323930169099
 31
0.0
  0
LINE
  5
BF7
330
1F
100
AcDbEntity
  8
OBJECT2
100
AcDbLine
 10
5.429643749690939
 20
14.61631693817527
 30
0.0
 11
5.429642393551475
 21
15.05213666287249
 31
0.0
  0
LINE
  5
C03
330
1F
100
AcDbEntity
  8
OBJECT1
100
AcDbLine
 10
5.269657065742791
 20
15.05214500361075
 30
0.0
 11
5.241971612782634
 21
15.05214644697509
 31
0.0
  0
LINE
  5
C4D
330
1F
100
AcDbEntity
  8
OBJECT2
100
AcDbLine
 10
5.961450369076018
 20
14.95349095424779
 30
0.0
 11
5.850466907092126
 21
14.95349071561116
 31
0.0
  0
LINE
  5
C4F
330
1F
100
AcDbEntity
  8
OBJECT1
100
AcDbLine
 10
5.851496385593335
 20
15.06576209958649
 30
0.0
 11
5.961389039457444
 21
15.06576209958649
 31
0.0
  0
LINE
  5
C51
330
1F
100
AcDbEntity
  8
OBJECT2
100
AcDbLine
 10
5.220918436063186
 20
14.95716625029831
 30
0.0
 11
5.24196952936569
 21
15.00981522221613
 31
0.0
  0
LINE
  5
C52
330
1F
100
AcDbEntity
  8
OBJECT2
100
AcDbLine
 10
5.24196315167849
 20
14.8802322742906
 30
0.0
 11
5.220918436063186
 21
14.95716625029831
 31
0.0
  0
LINE
  5
C53
330
1F
100
AcDbEntity
  8
OBJECT1
100
AcDbLine
 10
5.128659773020316
 20
15.07321854030257
 30
0.0
 11
5.105548451712124
 21
15.00976027530842
 31
0.0
  0
LINE
  5
C54
330
1F
100
AcDbEntity
  8
OBJECT1
100
AcDbLine
 10
5.241971612782649
 20
15.05214644697505
 30
0.0
 11
5.234288467250607
 21
15.07321854030257
 31
0.0
  0
LINE
  5
C55
330
1F
100
AcDbEntity
  8
OBJECT2
100
AcDbLine
 10
5.126620145586329
 20
14.95716786772644
 30
0.0
 11
5.105569052283826
 21
15.00981683964425
 31
0.0
  0
LINE
  5
C56
330
1F
100
AcDbEntity
  8
OBJECT2
100
AcDbLine
 10
5.1055695295572
 20
14.8802123213486
 30
0.0
 11
5.126620145586329
 21
14.95716786772644
 31
0.0
  0
LINE
  5
C57
330
1F
100
AcDbEntity
  8
OBJECT2
100
AcDbLine
 10
5.220918674699817
 20
14.95716625029831
 30
0.0
 11
5.126620145586329
 21
14.95716786772644
 31
0.0
  0
LINE
  5
C5B
330
1F
100
AcDbEntity
  8
OBJECT1
100
AcDbLine
 10
5.128659773020316
 20
15.07321854030257
 30
0.0
 11
5.234288467250607
 21
15.07321854030257
 31
0.0
  0
LINE
  5
C63
330
1F
100
AcDbEntity
  8
OBJECT1
100
AcDbLine
 10
6.260875861372241
 20
15.18924960968965
 30
0.0
 11
6.750457081961471
 21
15.67883083027882
 31
0.0
  0
LINE
  5
C64
330
1F
100
AcDbEntity
  8
OBJECT2
100
AcDbLine
 10
6.73160237782541
 20
14.68987094155795
 30
0.0
 11
6.269505917125215
 21
15.15196645156265
 31
0.0
  0
LINE
  5
C65
330
1F
100
AcDbEntity
  8
OBJECT1
100
AcDbLine
 10
8.246739412954966
 20
15.04034463654429
 30
0.0
 11
8.246740367501487
 21
15.00982778194617
 31
0.0
  0
ARC
  5
C66
330
1F
100
AcDbEntity
  8
OBJECT1
100
AcDbCircle
 10
8.238590687321888
 20
15.06135921843952
 30
0.0
 40
0.0210255398871492
100
AcDbArc
 50
224.8771969999993
 51
270.0378270000047
  0
LINE
  5
C67
330
1F
100
AcDbEntity
  8
OBJECT1
100
AcDbLine
 10
8.246739412954966
 20
15.04034463654429
 30
0.0
 11
8.238604766884108
 21
15.04033365925846
 31
0.0
  0
ARC
  5
C68
330
1F
100
AcDbEntity
  8
OBJECT1
100
AcDbCircle
 10
5.337102430555532
 20
14.08059277788678
 30
0.0
 40
0.0337483184654326
100
AcDbArc
 50
90.0
 51
180.0
  0
LINE
  5
C69
330
1F
100
AcDbEntity
  8
0
100
AcDbLine
 10
5.899204624355306
 20
14.1143410963522
 30
0.0
 11
5.337102430555532
 21
14.1143410963522
 31
0.0
  0
LINE
  5
C6A
330
1F
100
AcDbEntity
  8
0
100
AcDbLine
 10
6.030899558916175
 20
14.16243727163075
 30
0.0
 11
5.899204624355306
 21
14.1143410963522
 31
0.0
  0
LINE
  5
C6B
330
1F
100
AcDbEntity
  8
0
100
AcDbLine
 10
5.303354112090104
 20
14.08059277788678
 30
0.0
 11
5.196576701474995
 21
14.08059277788678
 31
0.0
  0
LINE
  5
C6C
330
1F
100
AcDbEntity
  8
0
100
AcDbLine
 10
5.196576701474882
 20
14.04820818584087
 30
0.0
 11
4.785597038948353
 21
14.04820818584087
 31
0.0
  0
LINE
  5
C6D
330
1F
100
AcDbEntity
  8
0
100
AcDbLine
 10
5.303354112090104
 20
13.96849924762369
 30
0.0
 11
5.196576701474995
 21
13.96849924762369
 31
0.0
  0
LINE
  5
C6E
330
1F
100
AcDbEntity
  8
OBJECT1
100
AcDbLine
 10
8.246740806012084
 20
14.67266341375639
 30
0.0
 11
8.360883115969485
 21
14.67266303779976
 31
0.0
  0
LINE
  5
C6F
330
1F
100
AcDbEntity
  8
OBJECT1
100
AcDbLine
 10
8.246740348185866
 20
15.00981685510484
 30
0.0
 11
8.36088359324286
 21
15.00982750832565
 31
0.0
  0
LINE
  5
C70
330
1F
100
AcDbEntity
  8
OBJECT1
  6
CONTINUOUS
100
AcDbLine
 10
10.70487165595294
 20
15.00976027530839
 30
0.0
 11
10.70487165595294
 21
17.11389416569255
 31
0.0
  0
ARC
  5
C71
330
1F
100
AcDbEntity
  8
OBJECT2
100
AcDbCircle
 10
13.03900454090909
 20
14.75691835912479
 30
0.0
 40
0.0862001521473141
100
AcDbArc
 50
102.1143365401264
 51
257.8866027425815
  0
ARC
  5
C72
330
1F
100
AcDbEntity
  8
OBJECT1
100
AcDbCircle
 10
13.00282405842198
 20
14.75691835912479
 30
0.0
 40
0.0862001521473141
100
AcDbArc
 50
282.1133972574057
 51
77.88566345987352
  0
ARC
  5
C73
330
1F
100
AcDbEntity
  8
OBJECT1
100
AcDbCircle
 10
13.00282405842198
 20
14.92547943887893
 30
0.0
 40
0.0862001521473141
100
AcDbArc
 50
282.1143365401264
 51
77.88660274259426
  0
LINE
  5
C74
330
1F
100
AcDbEntity
  8
OBJECT1
  6
CONTINUOUS
100
AcDbLine
 10
11.32933610272043
 20
17.11389416569255
 30
0.0
 11
11.32933610272043
 21
15.00976027530839
 31
0.0
  0
LINE
  5
C75
330
1F
100
AcDbEntity
  8
OBJECT1
  6
CONTINUOUS
100
AcDbLine
 10
11.32933610272043
 20
17.11389416569255
 30
0.0
 11
11.32933610272043
 21
17.45769900071812
 31
0.0
  0
LINE
  5
C76
330
1F
100
AcDbEntity
  8
OBJECT1
  6
CONTINUOUS
100
AcDbLine
 10
11.32933610272043
 20
16.91283642107595
 30
0.0
 11
13.51456687502307
 21
16.91283642107595
 31
0.0
  0
ARC
  5
C7E
330
1F
100
AcDbEntity
  8
OBJECT1
100
AcDbCircle
 10
22.49137537999166
 20
5.704673473540243
 30
0.0
 40
2.754206154577272
100
AcDbArc
 50
76.23141544599995
 51
103.7685845539873
  0
LINE
  5
C7F
330
1F
100
AcDbEntity
  8
OBJECT1
100
AcDbLine
 10
21.83587170988693
 20
8.379737300889136
 30
0.0
 11
23.14687905009648
 21
8.379737300889136
 31
0.0
  0
LINE
  5
C80
330
1F
100
AcDbEntity
  8
OBJECT1
100
AcDbLine
 10
23.14687905009648
 20
8.379737300889136
 30
0.0
 11
23.05305293166225
 21
8.067505077505405
 31
0.0
  0
LINE
  5
C81
330
1F
100
AcDbEntity
  8
OBJECT1
100
AcDbLine
 10
21.83587170988693
 20
8.379737300889136
 30
0.0
 11
21.92969782832119
 21
8.067505077505405
 31
0.0
  0
LINE
  5
C82
330
1F
100
AcDbEntity
  8
OBJECT1
100
AcDbLine
 10
22.27532960327292
 20
9.819856532645786
 30
0.0
 11
22.27532960327292
 21
8.780718587464832
 31
0.0
  0
LINE
  5
C83
330
1F
100
AcDbEntity
  8
OBJECT1
100
AcDbLine
 10
22.70742115671103
 20
9.819856532645786
 30
0.0
 11
22.70742115671115
 21
8.780718587464946
 31
0.0
  0
ARC
  5
C84
330
1F
100
AcDbEntity
  8
OBJECT1
100
AcDbCircle
 10
22.5993982683515
 20
8.866591482288441
 30
0.0
 40
0.1379967335661003
100
AcDbArc
 50
218.4829764584438
 51
321.5170235415561
  0
ARC
  5
C85
330
1F
100
AcDbEntity
  8
OBJECT1
100
AcDbCircle
 10
22.38335249163245
 20
8.866591482288441
 30
0.0
 40
0.1379967335661003
100
AcDbArc
 50
218.4829764584438
 51
321.5170235415561
  0
ARC
  5
C86
330
1F
100
AcDbEntity
  8
OBJECT2
100
AcDbCircle
 10
22.38335249163245
 20
8.694845692641365
 30
0.0
 40
0.1379967335661003
100
AcDbArc
 50
38.48297645844386
 51
141.5170235415561
  0
ARC
  5
C87
330
1F
100
AcDbEntity
  8
OBJECT1
  6
CONTINUOUS
100
AcDbCircle
 10
22.72145167252293
 20
10.59944235171411
 30
0.0
 40
0.7582376452566301
100
AcDbArc
 50
179.9999770000002
 51
223.6442260000036
  0
ARC
  5
C88
330
1F
100
AcDbEntity
  8
OBJECT1
  6
CONTINUOUS
100
AcDbCircle
 10
22.26129841249453
 20
10.59944235171411
 30
0.0
 40
0.7582383202229995
100
AcDbArc
 50
316.3558349999965
 51
0.0000309999979089
  0
LINE
  5
C89
330
1F
100
AcDbEntity
  8
OBJECT2
  6
CONTINUOUS
100
AcDbLine
 10
22.19607776216097
 20
10.01789301533369
 30
0.0
 11
22.786673335306
 21
10.01789301533369
 31
0.0
  0
LINE
  5
C8A
330
1F
100
AcDbEntity
  8
OBJECT2
  6
CONTINUOUS
100
AcDbLine
 10
22.27532960327292
 20
9.819856532645786
 30
0.0
 11
22.70742115671103
 21
9.819856532645786
 31
0.0
  0
ARC
  5
C8B
330
1F
100
AcDbEntity
  8
OBJECT1
  6
CONTINUOUS
100
AcDbCircle
 10
22.11170156626647
 20
10.0178903154682
 30
0.0
 40
0.084376195894536
100
AcDbArc
 50
0.0017399999995141
 51
43.64254799999649
  0
LINE
  5
C8C
330
1F
100
AcDbEntity
  8
OBJECT1
  6
CONTINUOUS
100
AcDbLine
 10
22.20620225770065
 20
9.819856532645786
 30
0.0
 11
22.27532960327292
 21
9.819856532645786
 31
0.0
  0
ARC
  5
C8D
330
1F
100
AcDbEntity
  8
OBJECT1
  6
CONTINUOUS
100
AcDbCircle
 10
22.20620158273427
 20
9.82998035321907
 30
0.0
 40
0.0101238205732605
100
AcDbArc
 50
179.9981770000012
 51
270.0054629999952
  0
LINE
  5
C8E
330
1F
100
AcDbEntity
  8
OBJECT1
  6
CONTINUOUS
100
AcDbLine
 10
22.19607776216097
 20
9.829980690702257
 30
0.0
 11
22.19607776216097
 21
10.01789301533369
 31
0.0
  0
ARC
  5
C8F
330
1F
100
AcDbEntity
  8
OBJECT1
  6
CONTINUOUS
100
AcDbCircle
 10
22.87104919371748
 20
10.0178903154682
 30
0.0
 40
0.0843758584113514
100
AcDbArc
 50
136.3572999999956
 51
179.9982529999971
  0
ARC
  5
C90
330
1F
100
AcDbEntity
  8
OBJECT1
  6
CONTINUOUS
100
AcDbCircle
 10
22.7765495147328
 20
9.82998035321907
 30
0.0
 40
0.0101238205732605
100
AcDbArc
 50
269.9945350000018
 51
0.0018309999969921
  0
LINE
  5
C91
330
1F
100
AcDbEntity
  8
OBJECT1
  6
CONTINUOUS
100
AcDbLine
 10
22.70742115671103
 20
9.819856532645786
 30
0.0
 11
22.7765485022833
 21
9.819856532645786
 31
0.0
  0
LINE
  5
C92
330
1F
100
AcDbEntity
  8
OBJECT1
  6
CONTINUOUS
100
AcDbLine
 10
22.786673335306
 20
9.829980690702257
 30
0.0
 11
22.786673335306
 21
10.01789301533369
 31
0.0
  0
LINE
  5
C93
330
1F
100
AcDbEntity
  8
OBJECT1
  6
CONTINUOUS
100
AcDbLine
 10
22.40700475256997
 20
11.23053590701769
 30
0.0
 11
22.40700475256997
 21
10.64331516571917
 31
0.0
  0
LINE
  5
C94
330
1F
100
AcDbEntity
  8
OBJECT1
  6
CONTINUOUS
100
AcDbLine
 10
22.57574634489711
 20
11.23053590701769
 30
0.0
 11
22.57574634489711
 21
10.64331516571917
 31
0.0
  0
LINE
  5
C95
330
1F
100
AcDbEntity
  8
OBJECT1
  6
CONTINUOUS
100
AcDbLine
 10
22.21299302924242
 20
11.30803323812216
 30
0.0
 11
21.96321402726633
 21
10.59944268919727
 31
0.0
  0
LINE
  5
C96
330
1F
100
AcDbEntity
  8
OBJECT1
  6
CONTINUOUS
100
AcDbLine
 10
22.04794289308884
 20
10.65790118895992
 30
0.0
 11
22.25533511202379
 21
11.24624786365939
 31
0.0
  0
LINE
  5
C97
330
1F
100
AcDbEntity
  8
OBJECT1
  6
CONTINUOUS
100
AcDbLine
 10
22.76975809127421
 20
11.30803322042785
 30
0.0
 11
23.01953673271762
 21
10.59944268919727
 31
0.0
  0
LINE
  5
C98
330
1F
100
AcDbEntity
  8
OBJECT1
  6
CONTINUOUS
100
AcDbLine
 10
22.93480820437824
 20
10.65790118895992
 30
0.0
 11
22.72741598544328
 21
11.24624786365939
 31
0.0
  0
ARC
  5
C99
330
1F
100
AcDbEntity
  8
OBJECT1
  6
CONTINUOUS
100
AcDbCircle
 10
22.61961949638535
 20
10.64331584068554
 30
0.0
 40
0.0438731514882471
100
AcDbArc
 50
180.0008389999984
 51
269.9991589999986
  0
LINE
  5
C9A
330
1F
100
AcDbEntity
  8
OBJECT2
100
AcDbLine
 10
22.57574634489711
 20
10.65813021787803
 30
0.0
 11
22.93472747167837
 21
10.65813021787803
 31
0.0
  0
LINE
  5
C9B
330
1F
100
AcDbEntity
  8
OBJECT1
  6
CONTINUOUS
100
AcDbLine
 10
22.3631322760481
 20
10.59944268919727
 30
0.0
 11
22.07501545667858
 21
10.59944268919727
 31
0.0
  0
LINE
  5
C9C
330
1F
100
AcDbEntity
  8
OBJECT2
100
AcDbLine
 10
22.04802362578871
 20
10.65813021787803
 30
0.0
 11
22.40700475256997
 21
10.65813021787803
 31
0.0
  0
ARC
  5
C9D
330
1F
100
AcDbEntity
  8
OBJECT1
  6
CONTINUOUS
100
AcDbCircle
 10
22.07501579416182
 20
10.63319100766273
 30
0.0
 40
0.0337483184654326
100
AcDbArc
 50
160.582336000001
 51
269.9994540000023
  0
LINE
  5
C9E
330
1F
100
AcDbEntity
  8
OBJECT1
  6
CONTINUOUS
100
AcDbLine
 10
22.04318708005067
 20
10.64441063613656
 30
0.0
 11
22.04794289308884
 21
10.65790118895992
 31
0.0
  0
ARC
  5
C9F
330
1F
100
AcDbEntity
  8
OBJECT1
  6
CONTINUOUS
100
AcDbCircle
 10
22.36313160108173
 20
10.64331584068554
 30
0.0
 40
0.0438731514882471
100
AcDbArc
 50
270.0008539999999
 51
359.999146
  0
ARC
  5
CA0
330
1F
100
AcDbEntity
  8
OBJECT1
  6
CONTINUOUS
100
AcDbCircle
 10
22.90773530330525
 20
10.63319100766273
 30
0.0
 40
0.0337483184654326
100
AcDbArc
 50
270.0005489999953
 51
19.41766399999897
  0
LINE
  5
CA1
330
1F
100
AcDbEntity
  8
OBJECT1
  6
CONTINUOUS
100
AcDbLine
 10
22.61961882141898
 20
10.59944268919727
 30
0.0
 11
22.90773564078838
 21
10.59944268919727
 31
0.0
  0
LINE
  5
CA2
330
1F
100
AcDbEntity
  8
OBJECT1
  6
CONTINUOUS
100
AcDbLine
 10
22.93956367993317
 20
10.64441063613656
 30
0.0
 11
22.93480820437824
 21
10.65790118895992
 31
0.0
  0
ARC
  5
CA3
330
1F
100
AcDbEntity
  8
OBJECT1
  6
CONTINUOUS
100
AcDbCircle
 10
22.61961949638535
 20
11.2305355695345
 30
0.0
 40
0.0438731514882471
100
AcDbArc
 50
90.00083899999845
 51
179.9995799999968
  0
LINE
  5
CA4
330
1F
100
AcDbEntity
  8
OBJECT2
100
AcDbLine
 10
22.71665698056224
 20
11.33619405482824
 30
0.0
 11
22.26609411690495
 21
11.33619405482824
 31
0.0
  0
ARC
  5
CA5
330
1F
100
AcDbEntity
  8
OBJECT1
  6
CONTINUOUS
100
AcDbCircle
 10
22.29512104005064
 20
11.23222332294096
 30
0.0
 40
0.0421853980817908
100
AcDbArc
 50
90.0
 51
160.5824444635232
  0
ARC
  5
CA6
330
1F
100
AcDbEntity
  8
OBJECT1
  6
CONTINUOUS
100
AcDbCircle
 10
22.36313193856486
 20
11.23053590701769
 30
0.0
 40
0.0438728140050624
100
AcDbArc
 50
0.000214000000694
 51
89.99957300000653
  0
LINE
  5
CA7
330
1F
100
AcDbEntity
  8
OBJECT1
  6
CONTINUOUS
100
AcDbLine
 10
22.3631322760481
 20
11.27440872102275
 30
0.0
 11
22.29512104005064
 21
11.27440872102275
 31
0.0
  0
ARC
  5
CA8
330
1F
100
AcDbEntity
  8
OBJECT1
  6
CONTINUOUS
100
AcDbCircle
 10
22.25277894293756
 20
11.29400865674642
 30
0.0
 40
0.0421853980817908
100
AcDbArc
 50
90.0
 51
160.5823859128628
  0
LINE
  5
CA9
330
1F
100
AcDbEntity
  8
OBJECT1
100
AcDbLine
 10
22.25277894293756
 20
11.33619405482824
 30
0.0
 11
22.26609411690495
 21
11.33619405482824
 31
0.0
  0
LINE
  5
CAA
330
1F
100
AcDbEntity
  8
OBJECT1
  6
CONTINUOUS
100
AcDbLine
 10
22.26609411690495
 20
11.4971476228946
 30
0.0
 11
22.26609411690495
 21
11.33619405482824
 31
0.0
  0
CIRCLE
  5
CAB
330
1F
100
AcDbEntity
  8
OBJECT2
100
AcDbCircle
 10
22.49137554873348
 20
11.42402812776697
 30
0.0
 40
0.0758915783362497
  0
ARC
  5
CAC
330
1F
100
AcDbEntity
  8
OBJECT1
  6
CONTINUOUS
100
AcDbCircle
 10
22.68763005741644
 20
11.23222332294096
 30
0.0
 40
0.0421853980817908
100
AcDbArc
 50
19.4175555364768
 51
90.0
  0
LINE
  5
CAD
330
1F
100
AcDbEntity
  8
OBJECT1
  6
CONTINUOUS
100
AcDbLine
 10
22.61961882141898
 20
11.27440872102275
 30
0.0
 11
22.68763005741644
 21
11.27440872102275
 31
0.0
  0
LINE
  5
CAE
330
1F
100
AcDbEntity
  8
OBJECT1
100
AcDbLine
 10
22.72997217134187
 20
11.33619405482824
 30
0.0
 11
22.71665698056224
 21
11.33619405482824
 31
0.0
  0
ARC
  5
CAF
330
1F
100
AcDbEntity
  8
OBJECT1
  6
CONTINUOUS
100
AcDbCircle
 10
22.72997217134187
 20
11.29400865674642
 30
0.0
 40
0.0421853980817908
100
AcDbArc
 50
19.41758860550073
 51
90.0
  0
LINE
  5
CB0
330
1F
100
AcDbEntity
  8
OBJECT1
  6
CONTINUOUS
100
AcDbLine
 10
22.71665698056224
 20
11.4971476228946
 30
0.0
 11
22.71665698056224
 21
11.33619405482824
 31
0.0
  0
LINE
  5
CB1
330
1F
100
AcDbEntity
  8
OBJECT1
100
AcDbLine
 10
22.7065324684585
 20
11.50727245591232
 30
0.0
 11
22.64087890264639
 21
11.50727245591232
 31
0.0
  0
ARC
  5
CB2
330
1F
100
AcDbEntity
  8
OBJECT1
  6
CONTINUOUS
100
AcDbCircle
 10
22.70653214753932
 20
11.49714728541141
 30
0.0
 40
0.0101251705059991
100
AcDbArc
 50
0.0027160000020872
 51
89.99818400000453
  0
LINE
  5
CB3
330
1F
100
AcDbEntity
  8
OBJECT2
100
AcDbLine
 10
22.64087890264639
 20
11.50727245591232
 30
0.0
 11
22.34051323876749
 21
11.50727245591232
 31
0.0
  0
LINE
  5
CB4
330
1F
100
AcDbEntity
  8
OBJECT1
100
AcDbLine
 10
22.34051323876749
 20
11.50727245591232
 30
0.0
 11
22.27621862900858
 21
11.50727245591232
 31
0.0
  0
ARC
  5
CB5
330
1F
100
AcDbEntity
  8
OBJECT1
  6
CONTINUOUS
100
AcDbCircle
 10
22.27621894992765
 20
11.49714728541141
 30
0.0
 40
0.0101251705059991
100
AcDbArc
 50
90.00181599999546
 51
179.9972839999979
  0
ARC
  5
CB6
330
1F
100
AcDbEntity
  8
OBJECT1
100
AcDbCircle
 10
22.63490158055583
 20
7.275707757169872
 30
0.0
 40
0.1475198027120345
100
AcDbArc
 50
193.3622478123848
 51
346.6377521876214
  0
ARC
  5
CB7
330
1F
100
AcDbEntity
  8
OBJECT2
100
AcDbCircle
 10
22.34784917942761
 20
7.207522071169609
 30
0.0
 40
0.1475198027120345
100
AcDbArc
 50
13.36224781238487
 51
166.6377521876214
  0
ARC
  5
CB8
330
1F
100
AcDbEntity
  8
OBJECT1
100
AcDbCircle
 10
22.34784917942761
 20
7.275707757169872
 30
0.0
 40
0.1475198027120345
100
AcDbArc
 50
193.3622478123785
 51
346.637752187615
  0
LINE
  5
CB9
330
1F
100
AcDbEntity
  8
OBJECT1
100
AcDbLine
 10
22.2043229788635
 20
7.910032047802417
 30
0.0
 11
22.2043229788635
 21
7.241614914169748
 31
0.0
  0
LINE
  5
CBA
330
1F
100
AcDbEntity
  8
OBJECT1
100
AcDbLine
 10
22.77842778111994
 20
7.910032047802417
 30
0.0
 11
22.77842778111994
 21
7.2327414204527
 31
0.0
  0
LINE
  5
CBB
330
1F
100
AcDbEntity
  8
OBJECT2
100
AcDbLine
 10
22.2043229788635
 20
7.910032047802417
 30
0.0
 11
22.77842778111994
 21
7.910032047802417
 31
0.0
  0
LINE
  5
CBC
330
1F
100
AcDbEntity
  8
OBJECT1
100
AcDbLine
 10
22.896124285425
 20
7.910032047802417
 30
0.0
 11
22.77842778111994
 21
7.910032047802417
 31
0.0
  0
LINE
  5
CBD
330
1F
100
AcDbEntity
  8
OBJECT1
100
AcDbLine
 10
22.896124285425
 20
8.067505077505405
 30
0.0
 11
22.896124285425
 21
7.910032047802417
 31
0.0
  0
LINE
  5
CBE
330
1F
100
AcDbEntity
  8
OBJECT1
100
AcDbLine
 10
22.08662647455844
 20
7.910032047802417
 30
0.0
 11
22.2043229788635
 21
7.910032047802417
 31
0.0
  0
LINE
  5
CBF
330
1F
100
AcDbEntity
  8
OBJECT1
100
AcDbLine
 10
22.08662647455844
 20
8.067505077505405
 30
0.0
 11
22.08662647455844
 21
7.910032047802417
 31
0.0
  0
LINE
  5
CC1
330
1F
100
AcDbEntity
  8
0
100
AcDbLine
 10
23.05305293166225
 20
8.067505077505405
 30
0.0
 11
21.92969782832119
 21
8.067505077505405
 31
0.0
  0
HATCH
  5
CD3
330
1F
100
AcDbEntity
  8
OBJECT2
100
AcDbHatch
 10
0.0
 20
0.0
 30
0.0
210
0.0
220
0.0
230
1.0
  2
AR-CONC
 70
     0
 71
     0
 91
        2
 92
        7
 72
     1
 73
     1
 93
        8
 10
21.83587170988693
 20
8.379737300889143
 42
-0.060149164723684
 10
22.49137537999166
 20
8.458879628117514
 42
0.0
 10
17.79219797419912
 20
8.4588796281175
 42
0.0
 10
17.19839095297695
 20
8.4588796281175
 42
0.0
 10
17.19839095297689
 20
7.910032047802417
 42
0.0
 10
22.08662647455844
 20
7.910032047802417
 42
0.0
 10
22.08662647455844
 20
8.067505077505408
 42
0.0
 10
21.92969782832119
 20
8.067505077505405
 42
0.0
 97
        0
 92
        7
 72
     1
 73
     1
 93
        9
 10
25.95816976108055
 20
8.098346164635785
 42
0.0
 10
26.23535799385453
 20
8.351295785843717
 42
0.0
 10
26.13894468793034
 20
8.458879628117529
 42
0.0
 10
22.49137537999165
 20
8.458879628117514
 42
-0.0601491647236933
 10
23.14687905009648
 20
8.379737300889125
 42
0.0
 10
23.05305293166225
 20
8.067505077505405
 42
0.0
 10
22.896124285425
 20
8.067505077505405
 42
0.0
 10
22.896124285425
 20
7.910032047802417
 42
0.0
 10
26.16304805792717
 20
7.910032047802417
 42
0.0
 97
        0
 75
     0
 76
     1
 52
45.0
 41
0.0749430078465253
 77
     0
 78
    13
 53
94.99999999999998
 43
-3.781557716638133
 44
2.641711712016572
 45
0.4133496580173043
 46
0.3468415453883271
 79
     2
 49
0.056207255884894
 49
-0.6182798147338335
 53
40.00000000000002
 43
-3.781557716638133
 44
2.641711712016572
 45
-0.4721350794402461
 46
0.325078898388977
 79
     2
 49
0.0449658047079152
 49
-0.4946238517870667
 53
145.4514
 43
-3.747111915229481
 44
2.670615175562268
 45
-0.0587848971222296
 46
0.6719204840887548
 79
     2
 49
0.0477688155930901
 49
-0.5254569880114529
 53
91.18419999999998
 43
-3.887543134739722
 44
2.747697130118162
 45
0.6532729534559574
 46
0.4778469340817179
 79
     2
 49
0.0843108838273409
 49
-0.9274197221007497
 53
141.6356
 43
-3.83310369717563
 44
2.787517673588265
 45
-0.0209083609803567
 46
1.011514537295776
 79
     2
 49
0.0716532256379254
 49
-0.7881853561129262
 53
36.18420000000003
 43
-3.887543134739722
 44
2.747697130118162
 45
-0.0209091508048677
 46
1.011514521191189
 79
     2
 49
0.0674487070618727
 49
-0.7419357776806001
 53
66.0
 43
-3.808054071163532
 44
2.774193484643559
 45
0.5296758747466316
 46
0.1029585601189915
 79
     2
 49
0.0562072558848939
 49
-0.6182798147338331
 53
11.00000000000003
 43
-3.808054071163532
 44
2.774193484643559
 45
-0.255337267632206
 46
0.5132160394745644
 79
     2
 49
0.0449658047079152
 49
-0.4946238517870667
 53
116.4514
 43
-3.763914409405025
 44
2.782773336503169
 45
0.2743390852215402
 46
0.6161743806647159
 79
     2
 49
0.0477688155930901
 49
-0.5254569880114529
 53
82.50000000000001
 43
-3.781557716638133
 44
2.641711712016572
 45
-0.1699656346595151
 46
0.1828533081580939
 79
     6
 49
0.0
 49
-0.4886284111593445
 49
0.0
 49
-0.502118152571719
 49
0.0
 49
-0.4964974269832297
 53
52.5
 43
-3.781557716638133
 44
2.641711712016572
 45
-0.0696017763620885
 46
0.3484171255180667
 79
     6
 49
0.0
 49
-0.2862822899737265
 49
0.0
 49
-0.4773869599823659
 49
0.0
 49
-0.1892310948124763
 53
12.5
 43
-3.899731457821403
 44
2.523537970833301
 45
0.2948394080036885
 46
0.2709345328937288
 79
     6
 49
0.0
 49
-0.1873575196163131
 49
0.0
 49
-0.5845554612028971
 49
0.0
 49
-0.7756601312115365
 53
2.499999999999997
 43
-3.952724166872201
 44
2.470545261782506
 45
0.2559978079113709
 46
0.3620944919767997
 79
     6
 49
0.0
 49
-0.2435647755012071
 49
0.0
 49
-0.3882047806450008
 49
0.0
 49
-0.5508311076719607
 47
0.0494321537232782
 98
        2
 10
20.21689241970157
 20
8.214901765704709
 10
23.97649876639502
 20
8.066605306055194
  0
TEXT
  5
D2F
330
1F
100
AcDbEntity
  8
0
100
AcDbText
 10
22.30831542778747
 20
16.96903308996862
 30
0.0
 40
0.375
  1
LOW VOLTAGE ELECTRICAL
  7
ROMANS
100
AcDbText
  0
TEXT
  5
D30
330
1F
100
AcDbEntity
  8
0
100
AcDbText
 10
22.23322161705235
 20
16.3768121918786
 30
0.0
 40
0.375
  1
CONTACT PANEL WITH
  7
ROMANS
100
AcDbText
  0
LINE
  5
D5A
330
1F
100
AcDbEntity
  8
0
100
AcDbLine
 10
18.9399134274316
 20
14.82561221919755
 30
0.0
 11
20.527785979501
 21
17.15575121247442
 31
0.0
  0
SOLID
  5
D5B
330
1F
100
AcDbEntity
  8
0
100
AcDbTrace
 10
19.08184093774585
 20
15.14487213574827
 30
0.0
 11
19.18513706771162
 21
15.0744810174584
 31
0.0
 12
18.9223156478591
 22
14.79978818670611
 32
0.0
 13
18.9223156478591
 23
14.79978818670611
 33
0.0
  0
LINE
  5
D5F
330
1F
100
AcDbEntity
  8
0
100
AcDbLine
 10
22.11811385947374
 20
17.15575121247442
 30
0.0
 11
20.527785979501
 21
17.15575121247442
 31
0.0
  0
LINE
  5
D68
330
1F
100
AcDbEntity
  8
0
100
AcDbLine
 10
4.563381327208112
 20
7.679387604917895
 30
0.0
 11
4.242875178063385
 21
7.679387604917895
 31
0.0
  0
SOLID
  5
D69
330
1F
100
AcDbEntity
  8
0
100
AcDbTrace
 10
6.282265156930748
 20
8.38585218955724
 30
0.0
 11
6.230885443180284
 21
8.499804482271898
 31
0.0
 12
6.598432178199459
 22
8.59696747716579
 32
0.0
 13
6.598432178199459
 23
8.59696747716579
 33
0.0
  0
LINE
  5
D6A
330
1F
100
AcDbEntity
  8
0
100
AcDbLine
 10
6.569944105020795
 20
8.584122548728188
 30
0.0
 11
4.563381327208112
 21
7.679387604917895
 31
0.0
  0
LINE
  5
D6B
330
1F
100
AcDbEntity
  8
0
100
AcDbLine
 10
21.98905936442811
 20
10.30474080236544
 30
0.0
 11
21.30611812877539
 21
9.996810840095562
 31
0.0
  0
SOLID
  5
D6D
330
1F
100
AcDbEntity
  8
0
100
AcDbTrace
 10
21.70138041633806
 20
10.10647044319449
 30
0.0
 11
21.65000070258766
 21
10.22042273590914
 31
0.0
 12
22.01754743760678
 22
10.31758573080304
 32
0.0
 13
22.01754743760678
 23
10.31758573080304
 33
0.0
  0
TEXT
  5
D6E
330
1F
100
AcDbEntity
  8
0
100
AcDbText
 10
2.505132774250611
 20
7.486701250622211
 30
0.0
 40
0.375
  1
DRAIN
  7
ROMANS
100
AcDbText
  0
TEXT
  5
D6F
330
1F
100
AcDbEntity
  8
0
100
AcDbText
 10
18.72852612784618
 20
9.808152103383193
 30
0.0
 40
0.375
  1
AIR GAP
  7
ROMANS
100
AcDbText
  0
LINE
  5
D70
330
1F
100
AcDbEntity
  8
0
100
AcDbLine
 10
21.30611812877539
 20
9.996810840095562
 30
0.0
 11
21.06004294665744
 21
9.996810840095562
 31
0.0
  0
TEXT
  5
D74
330
1F
100
AcDbEntity
  8
0
100
AcDbText
 10
19.57773999865379
 20
7.066389853566235
 30
0.0
 40
0.375
  1
DRAIN
  7
ROMANS
100
AcDbText
  0
LINE
  5
D75
330
1F
100
AcDbEntity
  8
0
100
AcDbLine
 10
22.17583490568483
 20
7.562978552548479
 30
0.0
 11
21.49289367003211
 21
7.255048590278601
 31
0.0
  0
SOLID
  5
D76
330
1F
100
AcDbEntity
  8
0
100
AcDbTrace
 10
21.88815595759479
 20
7.364708193377531
 30
0.0
 11
21.83677624384438
 21
7.478660486092188
 31
0.0
 12
22.2043229788635
 22
7.57582348098608
 32
0.0
 13
22.2043229788635
 23
7.57582348098608
 33
0.0
  0
LINE
  5
D77
330
1F
100
AcDbEntity
  8
0
100
AcDbLine
 10
21.49289367003211
 20
7.255048590278601
 30
0.0
 11
21.24681848791416
 21
7.255048590278605
 31
0.0
  0
TEXT
  5
D78
330
1F
100
AcDbEntity
  8
0
100
AcDbText
 10
4.816386936618179
 20
11.7533473526787
 30
0.0
 40
0.375
  1
AIR
  7
ROMANS
100
AcDbText
  0
LINE
  5
D79
330
1F
100
AcDbEntity
  8
0
100
AcDbLine
 10
6.668313860482385
 20
12.24993605166094
 30
0.0
 11
5.985372624829665
 21
11.94200608939107
 31
0.0
  0
SOLID
  5
D7A
330
1F
100
AcDbEntity
  8
0
100
AcDbTrace
 10
6.380634912392338
 20
12.05166569248999
 30
0.0
 11
6.329255198641931
 21
12.16561798520465
 31
0.0
 12
6.696801933661049
 22
12.26278098009854
 32
0.0
 13
6.696801933661049
 23
12.26278098009854
 33
0.0
  0
LINE
  5
D7B
330
1F
100
AcDbEntity
  8
0
100
AcDbLine
 10
5.985372624829665
 20
11.94200608939107
 30
0.0
 11
5.739297442711716
 21
11.94200608939107
 31
0.0
  0
TEXT
  5
D7C
330
1F
100
AcDbEntity
  8
0
100
AcDbText
 10
4.663069288060803
 20
11.27458159785334
 30
0.0
 40
0.375
  1
GAP
  7
ROMANS
100
AcDbText
  0
TEXT
  5
D7D
330
1F
100
AcDbEntity
  8
0
100
AcDbText
 10
22.26465107400622
 20
15.8429039397435
 30
0.0
 40
0.375
  1
ALARM, HORN, OR LIGHT, ETC.
  7
ROMANS
100
AcDbText
  0
LINE
  5
E81
330
1F
100
AcDbEntity
  8
OBJECT2
100
AcDbLine
 10
7.956252835798949
 20
15.42342898046869
 30
0.0
 11
7.956252835798949
 21
15.32111893728796
 31
0.0
  0
LINE
  5
E82
330
1F
100
AcDbEntity
  8
OBJECT1
100
AcDbLine
 10
8.024527165510548
 20
15.42342898046869
 30
0.0
 11
8.024527165510541
 21
15.28990234282168
 31
0.0
  0
LINE
  5
E83
330
1F
100
AcDbEntity
  8
OBJECT2
100
AcDbLine
 10
7.980883935442165
 20
15.42342898046869
 30
0.0
 11
7.980883935442165
 21
15.32111893728796
 31
0.0
  0
LINE
  5
E84
330
1F
100
AcDbEntity
  8
OBJECT1
100
AcDbLine
 10
7.800524516465294
 20
15.42342898046869
 30
0.0
 11
7.800524516465301
 21
15.2893672745086
 31
0.0
  0
LINE
  5
E85
330
1F
100
AcDbEntity
  8
OBJECT2
100
AcDbLine
 10
7.8687988461769
 20
15.42342898046869
 30
0.0
 11
7.8687988461769
 21
15.32111893728796
 31
0.0
  0
LINE
  5
E86
330
1F
100
AcDbEntity
  8
OBJECT2
100
AcDbLine
 10
7.844167746533685
 20
15.42342898046869
 30
0.0
 11
7.844167746533685
 21
15.32111893728796
 31
0.0
  0
LINE
  5
E87
330
1F
100
AcDbEntity
  8
OBJECT2
100
AcDbLine
 10
8.018776217905724
 20
15.24355187151803
 30
0.0
 11
7.964290681962197
 21
15.24355187151803
 31
0.0
  0
LINE
  5
E88
330
1F
100
AcDbEntity
  8
OBJECT2
100
AcDbLine
 10
8.016609616778126
 20
15.31062954908731
 30
0.0
 11
7.980883935442165
 21
15.32111893728796
 31
0.0
  0
LINE
  5
E89
330
1F
100
AcDbEntity
  8
OBJECT2
100
AcDbLine
 10
7.951740598059792
 20
15.28520084295162
 30
0.0
 11
8.02165169170815
 21
15.28520084295162
 31
0.0
  0
LINE
  5
E8A
330
1F
100
AcDbEntity
  8
OBJECT2
100
AcDbLine
 10
7.800524516465301
 20
15.31062954908731
 30
0.0
 11
8.024527165510548
 21
15.31062954908731
 31
0.0
  0
LINE
  5
E91
330
1F
100
AcDbEntity
  8
OBJECT2
100
AcDbLine
 10
7.912525840987925
 20
15.2784978890418
 30
0.0
 11
7.912525840987925
 21
15.25858907027745
 31
0.0
  0
LINE
  5
E92
330
1F
100
AcDbEntity
  8
OBJECT2
100
AcDbLine
 10
7.951740598059792
 20
15.2784978890418
 30
0.0
 11
7.951740598059792
 21
15.24683132618505
 31
0.0
  0
LINE
  5
E93
330
1F
100
AcDbEntity
  8
OBJECT2
100
AcDbLine
 10
7.956252835798949
 20
15.32111893728796
 30
0.0
 11
7.919379923364687
 21
15.31062954908731
 31
0.0
  0
LINE
  5
E94
330
1F
100
AcDbEntity
  8
OBJECT2
100
AcDbLine
 10
7.921438285776986
 20
15.28741033383087
 30
0.0
 11
7.942828153270738
 21
15.28741033383087
 31
0.0
  0
ARC
  5
E95
330
1F
100
AcDbEntity
  8
OBJECT2
100
AcDbCircle
 10
7.942828153270738
 20
15.2784978890418
 30
0.0
 40
0.0089124447890625
100
AcDbArc
 50
0.0
 51
90.0
  0
LINE
  5
E96
330
1F
100
AcDbEntity
  8
OBJECT2
100
AcDbLine
 10
7.980883935442165
 20
15.32111893728796
 30
0.0
 11
7.956252835798949
 21
15.32111893728796
 31
0.0
  0
ARC
  5
E97
330
1F
100
AcDbEntity
  8
OBJECT2
100
AcDbCircle
 10
7.921438285776986
 20
15.2784978890418
 30
0.0
 40
0.0089124447890625
100
AcDbArc
 50
90.0
 51
180.0
  0
ARC
  5
E98
330
1F
100
AcDbEntity
  8
OBJECT2
100
AcDbCircle
 10
7.82452270489626
 20
15.15169095034902
 30
0.0
 40
0.0089124447890625
100
AcDbArc
 50
90.0
 51
180.0
  0
LINE
  5
E99
330
1F
100
AcDbEntity
  8
OBJECT2
100
AcDbLine
 10
7.82452270489626
 20
15.16060339513809
 30
0.0
 11
7.846446649111861
 21
15.16060339513809
 31
0.0
  0
LINE
  5
E9A
330
1F
100
AcDbEntity
  8
OBJECT1
100
AcDbLine
 10
7.806275464070125
 20
15.28103441139474
 30
0.0
 11
7.806275464070125
 21
15.24355187151803
 31
0.0
  0
LINE
  5
E9B
330
1F
100
AcDbEntity
  8
OBJECT2
100
AcDbLine
 10
7.860761000013653
 20
15.24355187151803
 30
0.0
 11
7.808547318448859
 21
15.24355187151803
 31
0.0
  0
LINE
  5
E9C
330
1F
100
AcDbEntity
  8
OBJECT1
100
AcDbLine
 10
7.806275464070125
 20
15.28103441139474
 30
0.0
 11
7.806275464070125
 21
15.27349436246621
 31
0.0
  0
ARC
  5
E9D
330
1F
100
AcDbEntity
  8
OBJECT1
100
AcDbCircle
 10
7.804980738859832
 20
15.2893672745086
 30
0.0
 40
0.0044562223945313
100
AcDbArc
 50
180.0
 51
249.2232010928845
  0
LINE
  5
E9E
330
1F
100
AcDbEntity
  8
OBJECT2
100
AcDbLine
 10
7.844167746533685
 20
15.32111893728796
 30
0.0
 11
7.8687988461769
 21
15.32111893728796
 31
0.0
  0
LINE
  5
E9F
330
1F
100
AcDbEntity
  8
OBJECT2
100
AcDbLine
 10
7.808442065197709
 20
15.31062954908731
 30
0.0
 11
7.844167746533685
 21
15.32111893728796
 31
0.0
  0
CIRCLE
  5
EA0
330
1F
100
AcDbEntity
  8
OBJECT2
100
AcDbCircle
 10
7.912525840987925
 20
15.18731512073511
 30
0.0
 40
0.0371139365863791
  0
LINE
  5
EA1
330
1F
100
AcDbEntity
  8
OBJECT2
100
AcDbLine
 10
7.876163796426389
 20
15.17988235515001
 30
0.0
 11
7.948887885549453
 21
15.17988235515001
 31
0.0
  0
LINE
  5
EA2
330
1F
100
AcDbEntity
  8
OBJECT2
100
AcDbLine
 10
7.8687988461769
 20
15.32111893728796
 30
0.0
 11
7.905671758611163
 21
15.31062954908731
 31
0.0
  0
LINE
  5
EA3
330
1F
100
AcDbEntity
  8
OBJECT2
100
AcDbLine
 10
7.803399990267692
 20
15.28520084295162
 30
0.0
 11
7.912525840987925
 21
15.28520084295162
 31
0.0
  0
LINE
  5
EA4
330
1F
100
AcDbEntity
  8
OBJECT2
100
AcDbLine
 10
7.876163796426396
 20
15.19474788632023
 30
0.0
 11
7.948887885549453
 21
15.19474788632023
 31
0.0
  0
ARC
  5
EA8
330
1F
100
AcDbEntity
  8
OBJECT2
100
AcDbCircle
 10
7.82452270489626
 20
15.13238065330605
 30
0.0
 40
0.0089124447890625
100
AcDbArc
 50
180.0
 51
270.0
  0
LINE
  5
EA9
330
1F
100
AcDbEntity
  8
OBJECT2
100
AcDbLine
 10
7.82452270489626
 20
15.12346820851699
 30
0.0
 11
7.880847020246363
 21
15.12346820851699
 31
0.0
  0
LINE
  5
EAD
330
1F
100
AcDbEntity
  8
OBJECT1
100
AcDbLine
 10
7.808547318448859
 20
15.09433300222974
 30
0.0
 11
7.808547318448859
 21
15.24355187151803
 31
0.0
  0
CIRCLE
  5
EAE
330
1F
100
AcDbEntity
  8
OBJECT2
100
AcDbCircle
 10
7.912525840987925
 20
15.18731512073511
 30
0.0
 40
0.0712739495423403
  0
LINE
  5
EAF
330
1F
100
AcDbEntity
  8
OBJECT2
100
AcDbLine
 10
7.815610260107199
 20
15.15169095034902
 30
0.0
 11
7.815610260107199
 21
15.13238065330605
 31
0.0
  0
LINE
  5
EB0
330
1F
100
AcDbEntity
  8
OBJECT1
100
AcDbLine
 10
8.018776217905724
 20
15.28103441139474
 30
0.0
 11
8.018776217905724
 21
15.24355187151803
 31
0.0
  0
ARC
  5
EB1
330
1F
100
AcDbEntity
  8
OBJECT1
100
AcDbCircle
 10
8.02007094311601
 20
15.2893672745086
 30
0.0
 40
0.0044562223945313
100
AcDbArc
 50
290.776798907115
 51
0.0
  0
ARC
  5
EB2
330
1F
100
AcDbEntity
  8
OBJECT1
100
AcDbCircle
 10
8.023232440300255
 20
15.28103441139474
 30
0.0
 40
0.0044562223945313
100
AcDbArc
 50
110.7767989071096
 51
180.0000000000032
  0
LINE
  5
EB3
330
1F
100
AcDbEntity
  8
OBJECT1
100
AcDbLine
 10
8.016504363526983
 20
15.09433276820262
 30
0.0
 11
8.016504363526983
 21
15.10118709654434
 31
0.0
  0
LINE
  5
EB4
330
1F
100
AcDbEntity
  8
OBJECT1
100
AcDbLine
 10
8.016504363526983
 20
15.09433276820262
 30
0.0
 11
8.016504363526983
 21
15.24355187151803
 31
0.0
  0
LINE
  5
EB5
330
1F
100
AcDbEntity
  8
OBJECT2
100
AcDbLine
 10
8.016609616778126
 20
15.43391836866934
 30
0.0
 11
7.980883935442165
 21
15.42342898046869
 31
0.0
  0
LINE
  5
EB6
330
1F
100
AcDbEntity
  8
OBJECT1
100
AcDbLine
 10
8.016609616778126
 20
15.43391836866934
 30
0.0
 11
7.808442065197709
 21
15.43391836866934
 31
0.0
  0
LINE
  5
EB7
330
1F
100
AcDbEntity
  8
OBJECT2
100
AcDbLine
 10
7.956252835798949
 20
15.42342898046869
 30
0.0
 11
7.919379923364687
 21
15.43391836866934
 31
0.0
  0
LINE
  5
EB8
330
1F
100
AcDbEntity
  8
OBJECT2
100
AcDbLine
 10
7.980883935442165
 20
15.42342898046869
 30
0.0
 11
7.956252835798949
 21
15.42342898046869
 31
0.0
  0
LINE
  5
EB9
330
1F
100
AcDbEntity
  8
OBJECT2
100
AcDbLine
 10
7.844167746533685
 20
15.42342898046869
 30
0.0
 11
7.8687988461769
 21
15.42342898046869
 31
0.0
  0
LINE
  5
EBA
330
1F
100
AcDbEntity
  8
OBJECT1
100
AcDbLine
 10
7.800524516465294
 20
15.42342898046869
 30
0.0
 11
7.808442065197709
 21
15.43391836866934
 31
0.0
  0
LINE
  5
EBB
330
1F
100
AcDbEntity
  8
OBJECT2
100
AcDbLine
 10
7.808442065197709
 20
15.43391836866934
 30
0.0
 11
7.844167746533685
 21
15.42342898046869
 31
0.0
  0
LINE
  5
EBC
330
1F
100
AcDbEntity
  8
OBJECT2
100
AcDbLine
 10
7.8687988461769
 20
15.42342898046869
 30
0.0
 11
7.905671758611163
 21
15.43391836866934
 31
0.0
  0
LINE
  5
EBD
330
1F
100
AcDbEntity
  8
OBJECT1
100
AcDbLine
 10
8.024527165510548
 20
15.42342898046869
 30
0.0
 11
8.016609616778126
 21
15.43391836866934
 31
0.0
  0
LINE
  5
EBE
330
1F
100
AcDbEntity
  8
OBJECT2
100
AcDbLine
 10
6.475732902535753
 20
15.42342898046869
 30
0.0
 11
6.475732902535753
 21
15.40410665085314
 31
0.0
  0
LINE
  5
EC1
330
1F
100
AcDbEntity
  8
OBJECT1
100
AcDbLine
 10
6.320004583202106
 20
15.42342898046869
 30
0.0
 11
6.320004583202106
 21
15.2893672745086
 31
0.0
  0
LINE
  5
EC2
330
1F
100
AcDbEntity
  8
OBJECT2
100
AcDbLine
 10
6.388278912913705
 20
15.42342898046869
 30
0.0
 11
6.388278912913705
 21
15.32111893728796
 31
0.0
  0
LINE
  5
EC3
330
1F
100
AcDbEntity
  8
OBJECT2
100
AcDbLine
 10
6.363647813270489
 20
15.42342898046869
 30
0.0
 11
6.363647813270489
 21
15.32111893728796
 31
0.0
  0
LINE
  5
EC7
330
1F
100
AcDbEntity
  8
OBJECT2
100
AcDbLine
 10
6.320004583202106
 20
15.31062954908731
 30
0.0
 11
6.382255800769911
 21
15.31062954908731
 31
0.0
  0
LINE
  5
ED7
330
1F
100
AcDbEntity
  8
OBJECT1
100
AcDbLine
 10
6.325755530806929
 20
15.28103441139474
 30
0.0
 11
6.325755530806929
 21
15.25412927912433
 31
0.0
  0
LINE
  5
ED9
330
1F
100
AcDbEntity
  8
OBJECT1
100
AcDbLine
 10
6.325755530806929
 20
15.28103441139474
 30
0.0
 11
6.325755530806929
 21
15.27349436246621
 31
0.0
  0
ARC
  5
EDA
330
1F
100
AcDbEntity
  8
OBJECT1
100
AcDbCircle
 10
6.324460805596636
 20
15.2893672745086
 30
0.0
 40
0.0044562223945313
100
AcDbArc
 50
180.0
 51
249.2232010928845
  0
LINE
  5
EDB
330
1F
100
AcDbEntity
  8
OBJECT2
100
AcDbLine
 10
6.363647813270489
 20
15.32111893728796
 30
0.0
 11
6.388278912913705
 21
15.32111893728796
 31
0.0
  0
LINE
  5
EDC
330
1F
100
AcDbEntity
  8
OBJECT2
100
AcDbLine
 10
6.327922131934521
 20
15.31062954908731
 30
0.0
 11
6.363647813270489
 21
15.32111893728796
 31
0.0
  0
LINE
  5
EDF
330
1F
100
AcDbEntity
  8
OBJECT2
100
AcDbLine
 10
6.388278912913705
 20
15.32111893728796
 30
0.0
 11
6.391756037203371
 21
15.32012978552076
 31
0.0
  0
LINE
  5
EE0
330
1F
100
AcDbEntity
  8
OBJECT2
100
AcDbLine
 10
6.322880057004496
 20
15.28520084295162
 30
0.0
 11
6.356827094634226
 21
15.28520084295162
 31
0.0
  0
LINE
  5
EF3
330
1F
100
AcDbEntity
  8
OBJECT1
100
AcDbLine
 10
6.505544620351955
 20
15.43391836866934
 30
0.0
 11
6.327922131934521
 21
15.43391836866934
 31
0.0
  0
LINE
  5
EF4
330
1F
100
AcDbEntity
  8
OBJECT2
100
AcDbLine
 10
6.475732902535753
 20
15.42342898046869
 30
0.0
 11
6.438859990101498
 21
15.43391836866934
 31
0.0
  0
LINE
  5
EF5
330
1F
100
AcDbEntity
  8
OBJECT2
100
AcDbLine
 10
6.495055232151308
 20
15.42342898046869
 30
0.0
 11
6.475732902535753
 21
15.42342898046869
 31
0.0
  0
LINE
  5
EF6
330
1F
100
AcDbEntity
  8
OBJECT2
100
AcDbLine
 10
6.363647813270489
 20
15.42342898046869
 30
0.0
 11
6.388278912913705
 21
15.42342898046869
 31
0.0
  0
LINE
  5
EF7
330
1F
100
AcDbEntity
  8
OBJECT1
100
AcDbLine
 10
6.320004583202106
 20
15.42342898046869
 30
0.0
 11
6.327922131934521
 21
15.43391836866934
 31
0.0
  0
LINE
  5
EF8
330
1F
100
AcDbEntity
  8
OBJECT2
100
AcDbLine
 10
6.327922131934521
 20
15.43391836866934
 30
0.0
 11
6.363647813270489
 21
15.42342898046869
 31
0.0
  0
LINE
  5
EF9
330
1F
100
AcDbEntity
  8
OBJECT2
100
AcDbLine
 10
6.388278912913705
 20
15.42342898046869
 30
0.0
 11
6.425151825347967
 21
15.43391836866934
 31
0.0
  0
LINE
  5
F39
330
1F
100
AcDbEntity
  8
0
100
AcDbLine
 10
5.241971612782634
 20
15.05214644697509
 30
0.0
 11
5.241950851394207
 21
14.63031297768498
 31
0.0
  0
LINE
  5
F3A
330
1F
100
AcDbEntity
  8
0
100
AcDbLine
 10
5.269657065742791
 20
15.05214500361075
 30
0.0
 11
5.269657065742791
 21
15.14594781077352
 31
0.0
  0
LINE
  5
F3B
330
1F
100
AcDbEntity
  8
0
100
AcDbLine
 10
5.269657065742791
 20
15.14594781077352
 30
0.0
 11
5.493525582184219
 21
15.14594781077352
 31
0.0
  0
LINE
  5
F3C
330
1F
100
AcDbEntity
  8
0
100
AcDbLine
 10
5.493525582184219
 20
15.14594781077352
 30
0.0
 11
5.493525582184219
 21
15.07321330831883
 31
0.0
  0
ARC
  5
F3D
330
1F
100
AcDbEntity
  8
0
100
AcDbCircle
 10
5.438196983401134
 20
15.13356085885789
 30
0.0
 40
0.0818723439225008
100
AcDbArc
 50
264.0023927968068
 51
312.5156113846658
  0
ARC
  5
F3E
330
1F
100
AcDbEntity
  8
0
100
AcDbCircle
 10
5.349654562058148
 20
15.14483225175559
 30
0.0
 40
0.1224358010770909
100
AcDbArc
 50
229.2028304869284
 51
310.7911953514873
  0
LINE
  5
F3F
330
1F
100
AcDbEntity
  8
OBJECT2
100
AcDbLine
 10
5.313233229509265
 20
15.55951898064916
 30
0.0
 11
5.313233229509265
 21
15.45720893746842
 31
0.0
  0
LINE
  5
F40
330
1F
100
AcDbEntity
  8
OBJECT2
100
AcDbLine
 10
5.33786432915248
 20
15.55951898064916
 30
0.0
 11
5.33786432915248
 21
15.45720893746842
 31
0.0
  0
LINE
  5
F41
330
1F
100
AcDbEntity
  8
OBJECT1
100
AcDbLine
 10
5.269589999440881
 20
15.55951898064916
 30
0.0
 11
5.269589999440881
 21
15.42545727468907
 31
0.0
  0
LINE
  5
F42
330
1F
100
AcDbEntity
  8
OBJECT2
100
AcDbLine
 10
5.449949418417745
 20
15.55951898064916
 30
0.0
 11
5.449949418417745
 21
15.45720893746842
 31
0.0
  0
LINE
  5
F43
330
1F
100
AcDbEntity
  8
OBJECT1
100
AcDbLine
 10
5.493592648486128
 20
15.55951898064916
 30
0.0
 11
5.493592648486128
 21
15.42599234300214
 31
0.0
  0
LINE
  5
F44
330
1F
100
AcDbEntity
  8
OBJECT2
100
AcDbLine
 10
5.425318318774529
 20
15.55951898064916
 30
0.0
 11
5.425318318774529
 21
15.45720893746842
 31
0.0
  0
CIRCLE
  5
F45
330
1F
100
AcDbEntity
  8
OBJECT2
100
AcDbCircle
 10
5.381591323963505
 20
15.32340512091558
 30
0.0
 40
0.0712739495423403
  0
LINE
  5
F46
330
1F
100
AcDbEntity
  8
OBJECT2
100
AcDbLine
 10
5.314747988045539
 20
15.2135105772873
 30
0.0
 11
5.448434659881471
 21
15.2135105772873
 31
0.0
  0
LINE
  5
F47
330
1F
100
AcDbEntity
  8
OBJECT2
100
AcDbLine
 10
5.441007622557251
 20
15.20608353996308
 30
0.0
 11
5.322175025369759
 21
15.20608353996308
 31
0.0
  0
LINE
  5
F48
330
1F
100
AcDbEntity
  8
OBJECT2
100
AcDbLine
 10
5.329530925000454
 20
15.19104960766568
 30
0.0
 11
5.433651722926555
 21
15.19104960766568
 31
0.0
  0
LINE
  5
F49
330
1F
100
AcDbEntity
  8
OBJECT2
100
AcDbLine
 10
5.345229279401976
 20
15.33083788650069
 30
0.0
 11
5.417953368525033
 21
15.33083788650069
 31
0.0
  0
LINE
  5
F4A
330
1F
100
AcDbEntity
  8
OBJECT2
100
AcDbLine
 10
5.345229279401976
 20
15.31597235533048
 30
0.0
 11
5.417953368525033
 21
15.31597235533048
 31
0.0
  0
CIRCLE
  5
F4B
330
1F
100
AcDbEntity
  8
OBJECT2
100
AcDbCircle
 10
5.381591323963505
 20
15.32340512091558
 30
0.0
 40
0.0371139365863791
  0
ARC
  5
F4C
330
1F
100
AcDbEntity
  8
OBJECT2
100
AcDbCircle
 10
5.411893636246318
 20
15.41458788922227
 30
0.0
 40
0.0089124447890625
100
AcDbArc
 50
0.0
 51
90.0
  0
LINE
  5
F4D
330
1F
100
AcDbEntity
  8
OBJECT2
100
AcDbLine
 10
5.425318318774529
 20
15.45720893746842
 30
0.0
 11
5.388445406340274
 21
15.44671954926777
 31
0.0
  0
LINE
  5
F4E
330
1F
100
AcDbEntity
  8
OBJECT2
100
AcDbLine
 10
5.322175025369759
 20
15.14594781077352
 30
0.0
 11
5.441007622557251
 21
15.14594781077352
 31
0.0
  0
LINE
  5
F4F
330
1F
100
AcDbEntity
  8
OBJECT2
100
AcDbLine
 10
5.329530925000454
 20
15.1609817430709
 30
0.0
 11
5.433651722926555
 21
15.1609817430709
 31
0.0
  0
LINE
  5
F50
330
1F
100
AcDbEntity
  8
OBJECT2
100
AcDbLine
 10
5.441007622557251
 20
15.1760156753683
 30
0.0
 11
5.322175025369759
 21
15.1760156753683
 31
0.0
  0
LINE
  5
F51
330
1F
100
AcDbEntity
  8
OBJECT2
100
AcDbLine
 10
5.269589999440881
 20
15.44671954926777
 30
0.0
 11
5.493592648486128
 21
15.44671954926777
 31
0.0
  0
LINE
  5
F52
330
1F
100
AcDbEntity
  8
OBJECT2
100
AcDbLine
 10
5.284675743082786
 20
15.28778095052949
 30
0.0
 11
5.284675743082786
 21
15.26847065348652
 31
0.0
  0
LINE
  5
F53
330
1F
100
AcDbEntity
  8
OBJECT1
100
AcDbLine
 10
5.277612801424446
 20
15.2135105772873
 30
0.0
 11
5.277612801424446
 21
15.37964187169849
 31
0.0
  0
LINE
  5
F54
330
1F
100
AcDbEntity
  8
OBJECT2
100
AcDbLine
 10
5.293588187871847
 20
15.25955820869746
 30
0.0
 11
5.34991250322195
 21
15.25955820869746
 31
0.0
  0
ARC
  5
F55
330
1F
100
AcDbEntity
  8
OBJECT2
100
AcDbCircle
 10
5.293588187871847
 20
15.26847065348652
 30
0.0
 40
0.0089124447890625
100
AcDbArc
 50
180.0
 51
270.0
  0
LINE
  5
F56
330
1F
100
AcDbEntity
  8
OBJECT1
100
AcDbLine
 10
5.314747988045539
 20
15.2135105772873
 30
0.0
 11
5.277612801424439
 21
15.2135105772873
 31
0.0
  0
LINE
  5
F57
330
1F
100
AcDbEntity
  8
OBJECT1
100
AcDbLine
 10
5.314747988045539
 20
15.2135105772873
 30
0.0
 11
5.322175025369759
 21
15.20608353996308
 31
0.0
  0
LINE
  5
F58
330
1F
100
AcDbEntity
  8
OBJECT2
100
AcDbLine
 10
5.272465473243272
 20
15.42129084313209
 30
0.0
 11
5.381591323963505
 21
15.42129084313209
 31
0.0
  0
LINE
  5
F59
330
1F
100
AcDbEntity
  8
OBJECT2
100
AcDbLine
 10
5.33786432915248
 20
15.45720893746842
 30
0.0
 11
5.374737241586743
 21
15.44671954926777
 31
0.0
  0
LINE
  5
F5A
330
1F
100
AcDbEntity
  8
OBJECT2
100
AcDbLine
 10
5.277507548173296
 20
15.44671954926777
 30
0.0
 11
5.313233229509265
 21
15.45720893746842
 31
0.0
  0
LINE
  5
F5B
330
1F
100
AcDbEntity
  8
OBJECT2
100
AcDbLine
 10
5.313233229509265
 20
15.45720893746842
 30
0.0
 11
5.33786432915248
 21
15.45720893746842
 31
0.0
  0
ARC
  5
F5C
330
1F
100
AcDbEntity
  8
OBJECT1
100
AcDbCircle
 10
5.274046221835412
 20
15.42545727468907
 30
0.0
 40
0.0044562223945313
100
AcDbArc
 50
180.0
 51
249.2232010928845
  0
LINE
  5
F5D
330
1F
100
AcDbEntity
  8
OBJECT1
100
AcDbLine
 10
5.275340947045705
 20
15.41712441157521
 30
0.0
 11
5.275340947045705
 21
15.40958436264667
 31
0.0
  0
LINE
  5
F5E
330
1F
100
AcDbEntity
  8
OBJECT2
100
AcDbLine
 10
5.329826482989233
 20
15.37964187169849
 30
0.0
 11
5.277612801424446
 21
15.37964187169849
 31
0.0
  0
LINE
  5
F5F
330
1F
100
AcDbEntity
  8
OBJECT1
100
AcDbLine
 10
5.275340947045705
 20
15.41712441157521
 30
0.0
 11
5.275340947045705
 21
15.37964187169849
 31
0.0
  0
LINE
  5
F60
330
1F
100
AcDbEntity
  8
OBJECT2
100
AcDbLine
 10
5.293588187871847
 20
15.29669339531856
 30
0.0
 11
5.315512132087448
 21
15.29669339531856
 31
0.0
  0
ARC
  5
F61
330
1F
100
AcDbEntity
  8
OBJECT2
100
AcDbCircle
 10
5.293588187871847
 20
15.28778095052949
 30
0.0
 40
0.0089124447890625
100
AcDbArc
 50
90.0
 51
180.0
  0
ARC
  5
F62
330
1F
100
AcDbEntity
  8
OBJECT2
100
AcDbCircle
 10
5.390503768752566
 20
15.41458788922227
 30
0.0
 40
0.0089124447890625
100
AcDbArc
 50
90.0
 51
180.0
  0
LINE
  5
F63
330
1F
100
AcDbEntity
  8
OBJECT2
100
AcDbLine
 10
5.390503768752566
 20
15.42350033401134
 30
0.0
 11
5.411893636246318
 21
15.42350033401134
 31
0.0
  0
LINE
  5
F64
330
1F
100
AcDbEntity
  8
OBJECT2
100
AcDbLine
 10
5.381591323963505
 20
15.41458788922227
 30
0.0
 11
5.381591323963505
 21
15.39467907045792
 31
0.0
  0
LINE
  5
F65
330
1F
100
AcDbEntity
  8
OBJECT1
100
AcDbLine
 10
5.322175025369759
 20
15.14594781077352
 30
0.0
 11
5.322175025369759
 21
15.20608353996308
 31
0.0
  0
LINE
  5
F66
330
1F
100
AcDbEntity
  8
OBJECT1
100
AcDbLine
 10
5.485569846502571
 20
15.2135105772873
 30
0.0
 11
5.485569846502571
 21
15.37964187169849
 31
0.0
  0
LINE
  5
F67
330
1F
100
AcDbEntity
  8
OBJECT1
100
AcDbLine
 10
5.485569846502571
 20
15.2135105772873
 30
0.0
 11
5.485569846502571
 21
15.23727709672481
 31
0.0
  0
ARC
  5
F68
330
1F
100
AcDbEntity
  8
OBJECT1
100
AcDbCircle
 10
5.492297923275842
 20
15.41712441157521
 30
0.0
 40
0.0044562223945313
100
AcDbArc
 50
110.7767989071096
 51
180.0000000000032
  0
ARC
  5
F69
330
1F
100
AcDbEntity
  8
OBJECT1
100
AcDbCircle
 10
5.489136426091597
 20
15.42545727468907
 30
0.0
 40
0.0044562223945313
100
AcDbArc
 50
290.776798907115
 51
0.0
  0
LINE
  5
F6A
330
1F
100
AcDbEntity
  8
OBJECT1
100
AcDbLine
 10
5.487841700881304
 20
15.41712441157521
 30
0.0
 11
5.487841700881311
 21
15.37964187169849
 31
0.0
  0
LINE
  5
F6B
330
1F
100
AcDbEntity
  8
OBJECT1
100
AcDbLine
 10
5.448434659881471
 20
15.2135105772873
 30
0.0
 11
5.441007622557251
 21
15.20608353996308
 31
0.0
  0
LINE
  5
F6C
330
1F
100
AcDbEntity
  8
OBJECT2
100
AcDbLine
 10
5.449949418417745
 20
15.45720893746842
 30
0.0
 11
5.425318318774529
 21
15.45720893746842
 31
0.0
  0
LINE
  5
F6D
330
1F
100
AcDbEntity
  8
OBJECT2
100
AcDbLine
 10
5.420806081035379
 20
15.41458788922227
 30
0.0
 11
5.420806081035379
 21
15.38292132636551
 31
0.0
  0
LINE
  5
F6E
330
1F
100
AcDbEntity
  8
OBJECT1
100
AcDbLine
 10
5.441007622557251
 20
15.14594781077352
 30
0.0
 11
5.441007622557251
 21
15.20608353996308
 31
0.0
  0
LINE
  5
F6F
330
1F
100
AcDbEntity
  8
OBJECT1
100
AcDbLine
 10
5.448434659881471
 20
15.2135105772873
 30
0.0
 11
5.485569846502571
 21
15.2135105772873
 31
0.0
  0
LINE
  5
F70
330
1F
100
AcDbEntity
  8
OBJECT2
100
AcDbLine
 10
5.420806081035379
 20
15.42129084313209
 30
0.0
 11
5.490717174683737
 21
15.42129084313209
 31
0.0
  0
LINE
  5
F71
330
1F
100
AcDbEntity
  8
OBJECT2
100
AcDbLine
 10
5.485675099753713
 20
15.44671954926777
 30
0.0
 11
5.449949418417745
 21
15.45720893746842
 31
0.0
  0
LINE
  5
F72
330
1F
100
AcDbEntity
  8
OBJECT2
100
AcDbLine
 10
5.487841700881311
 20
15.37964187169849
 30
0.0
 11
5.433356164937777
 21
15.37964187169849
 31
0.0
  0
LINE
  5
F73
330
1F
100
AcDbEntity
  8
OBJECT2
100
AcDbLine
 10
5.425318318774529
 20
15.55951898064916
 30
0.0
 11
5.388445406340274
 21
15.57000836884981
 31
0.0
  0
LINE
  5
F74
330
1F
100
AcDbEntity
  8
OBJECT1
100
AcDbLine
 10
5.485675099753713
 20
15.57000836884981
 30
0.0
 11
5.277507548173296
 21
15.57000836884981
 31
0.0
  0
LINE
  5
F75
330
1F
100
AcDbEntity
  8
OBJECT2
100
AcDbLine
 10
5.33786432915248
 20
15.55951898064916
 30
0.0
 11
5.374737241586743
 21
15.57000836884981
 31
0.0
  0
LINE
  5
F76
330
1F
100
AcDbEntity
  8
OBJECT2
100
AcDbLine
 10
5.277507548173296
 20
15.57000836884981
 30
0.0
 11
5.313233229509265
 21
15.55951898064916
 31
0.0
  0
LINE
  5
F77
330
1F
100
AcDbEntity
  8
OBJECT1
100
AcDbLine
 10
5.269589999440881
 20
15.55951898064916
 30
0.0
 11
5.277507548173296
 21
15.57000836884981
 31
0.0
  0
LINE
  5
F78
330
1F
100
AcDbEntity
  8
OBJECT2
100
AcDbLine
 10
5.313233229509265
 20
15.55951898064916
 30
0.0
 11
5.33786432915248
 21
15.55951898064916
 31
0.0
  0
LINE
  5
F79
330
1F
100
AcDbEntity
  8
OBJECT1
100
AcDbLine
 10
5.493592648486128
 20
15.55951898064916
 30
0.0
 11
5.485675099753713
 21
15.57000836884981
 31
0.0
  0
LINE
  5
F7A
330
1F
100
AcDbEntity
  8
OBJECT2
100
AcDbLine
 10
5.449949418417745
 20
15.55951898064916
 30
0.0
 11
5.425318318774529
 21
15.55951898064916
 31
0.0
  0
LINE
  5
F7B
330
1F
100
AcDbEntity
  8
OBJECT2
100
AcDbLine
 10
5.485675099753713
 20
15.57000836884981
 30
0.0
 11
5.449949418417745
 21
15.55951898064916
 31
0.0
  0
LINE
  5
F7D
330
1F
100
AcDbEntity
  8
OBJECT1
100
AcDbLine
 10
21.08196763408042
 20
13.1849748647883
 30
0.0
 11
21.19186028794453
 21
13.1849748647883
 31
0.0
  0
LINE
  5
F7E
330
1F
100
AcDbEntity
  8
OBJECT2
100
AcDbLine
 10
21.1919216175631
 20
13.0727037194496
 30
0.0
 11
21.08093815557921
 21
13.07270348081297
 31
0.0
  0
LINE
  5
F7F
330
1F
100
AcDbEntity
  8
OBJECT2
100
AcDbLine
 10
21.19196337897662
 20
12.84816071286229
 30
0.0
 11
21.08093767830595
 21
12.84815116739633
 31
0.0
  0
LINE
  5
F80
330
1F
100
AcDbEntity
  8
OBJECT1
100
AcDbLine
 10
21.19185957203453
 20
12.73586999931842
 30
0.0
 11
21.0819681113538
 21
12.73586928340847
 31
0.0
  0
LINE
  5
F81
330
1F
100
AcDbEntity
  8
OBJECT2
100
AcDbLine
 10
21.08091715555425
 20
12.72843336544417
 30
0.0
 11
21.08093839421596
 21
13.19245206689279
 31
0.0
  0
LINE
  5
F82
330
1F
100
AcDbEntity
  8
OBJECT2
100
AcDbLine
 10
20.88960024543436
 20
12.72841284269239
 30
0.0
 11
20.88959952952436
 21
13.1536454524024
 31
0.0
  0
LINE
  5
F83
330
1F
100
AcDbEntity
  8
OBJECT1
100
AcDbLine
 10
20.88879627856587
 20
12.73550870343274
 30
0.0
 11
20.66011411931194
 21
12.73552970345778
 31
0.0
  0
LINE
  5
F84
330
1F
100
AcDbEntity
  8
OBJECT1
100
AcDbLine
 10
21.08091715555425
 20
12.72843336544417
 30
0.0
 11
20.88960024543436
 21
12.72841284269239
 31
0.0
  0
LINE
  5
F85
330
1F
100
AcDbEntity
  8
OBJECT1
100
AcDbLine
 10
20.72399683067132
 20
13.19242607352064
 30
0.0
 11
21.08093839421596
 21
13.19245206689279
 31
0.0
  0
LINE
  5
F86
330
1F
100
AcDbEntity
  8
OBJECT2
100
AcDbLine
 10
21.21301471091575
 20
12.92513702062851
 30
0.0
 11
21.19196337897662
 21
12.84816071286229
 31
0.0
  0
LINE
  5
F87
330
1F
100
AcDbEntity
  8
OBJECT2
100
AcDbLine
 10
21.21328269987188
 20
12.79187635024266
 30
0.0
 11
21.19196337897662
 21
12.84816071286229
 31
0.0
  0
LINE
  5
F88
330
1F
100
AcDbEntity
  8
OBJECT1
100
AcDbLine
 10
21.21328269987188
 20
12.79187635024266
 30
0.0
 11
21.19185957203453
 21
12.73590102208271
 31
0.0
  0
LINE
  5
F89
330
1F
100
AcDbEntity
  8
OBJECT2
100
AcDbLine
 10
21.21299371089068
 20
12.9957481730718
 30
0.0
 11
21.1919216175631
 21
13.0727037194496
 31
0.0
  0
LINE
  5
F8A
330
1F
100
AcDbEntity
  8
OBJECT2
100
AcDbLine
 10
21.21328222259851
 20
13.12902984348269
 30
0.0
 11
21.1919216175631
 21
13.0727037194496
 31
0.0
  0
LINE
  5
F8B
330
1F
100
AcDbEntity
  8
OBJECT1
100
AcDbLine
 10
21.19186028794453
 20
13.1849748647883
 30
0.0
 11
21.21328222259851
 21
13.12902984348269
 31
0.0
  0
LINE
  5
F8C
330
1F
100
AcDbEntity
  8
OBJECT2
100
AcDbLine
 10
20.66011499817804
 20
12.73552970337707
 30
0.0
 11
20.66011364203856
 21
13.1713494280743
 31
0.0
  0
LINE
  5
F8D
330
1F
100
AcDbEntity
  8
0
100
AcDbLine
 10
20.47244286126974
 20
13.1713592121769
 30
0.0
 11
20.4724220998813
 21
12.74952574288678
 31
0.0
  0
LINE
  5
F8E
330
1F
100
AcDbEntity
  8
OBJECT1
100
AcDbLine
 10
20.4724220998813
 20
12.74952574288678
 30
0.0
 11
20.66009359656013
 21
12.74949519739578
 31
0.0
  0
LINE
  5
F8F
330
1F
100
AcDbEntity
  8
OBJECT2
100
AcDbLine
 10
20.47243055911359
 20
12.92140188274558
 30
0.0
 11
20.45138968455027
 21
12.84449339787801
 31
0.0
  0
LINE
  5
F90
330
1F
100
AcDbEntity
  8
OBJECT2
100
AcDbLine
 10
20.45138968455027
 20
12.84449339787801
 30
0.0
 11
20.47246153924122
 21
12.79186423280199
 31
0.0
  0
LINE
  5
F91
330
1F
100
AcDbEntity
  8
OBJECT2
100
AcDbLine
 10
20.45138968455027
 20
12.84449315924135
 30
0.0
 11
20.35709139407342
 21
12.84449501530613
 31
0.0
  0
LINE
  5
F92
330
1F
100
AcDbEntity
  8
OBJECT1
100
AcDbLine
 10
20.46475971573769
 20
12.7284123654191
 30
0.0
 11
20.35911073739222
 21
12.72839208130398
 31
0.0
  0
LINE
  5
F93
330
1F
100
AcDbEntity
  8
OBJECT1
100
AcDbLine
 10
20.35913006696077
 20
12.72841331996568
 30
0.0
 11
20.46475971573769
 21
12.7284123654191
 31
0.0
  0
LINE
  5
F94
330
1F
100
AcDbEntity
  8
OBJECT1
100
AcDbLine
 10
20.4724220998813
 20
12.74952574288678
 30
0.0
 11
20.46475971573769
 21
12.7284123654191
 31
0.0
  0
LINE
  5
F95
330
1F
100
AcDbEntity
  8
OBJECT2
100
AcDbLine
 10
20.65578956726162
 20
13.67873174585096
 30
0.0
 11
20.65578956726162
 21
13.57642170267023
 31
0.0
  0
LINE
  5
F96
330
1F
100
AcDbEntity
  8
OBJECT1
100
AcDbLine
 10
20.72406389697323
 20
13.67873174585096
 30
0.0
 11
20.72406389697323
 21
13.54520510820395
 31
0.0
  0
LINE
  5
F97
330
1F
100
AcDbEntity
  8
OBJECT2
100
AcDbLine
 10
20.68042066690483
 20
13.67873174585096
 30
0.0
 11
20.68042066690483
 21
13.57642170267023
 31
0.0
  0
LINE
  5
F98
330
1F
100
AcDbEntity
  8
OBJECT1
100
AcDbLine
 10
20.50006124792797
 20
13.67873174585096
 30
0.0
 11
20.50006124792798
 21
13.54467003989088
 31
0.0
  0
LINE
  5
F99
330
1F
100
AcDbEntity
  8
OBJECT2
100
AcDbLine
 10
20.56833557763958
 20
13.67873174585096
 30
0.0
 11
20.56833557763958
 21
13.57642170267023
 31
0.0
  0
LINE
  5
F9A
330
1F
100
AcDbEntity
  8
OBJECT2
100
AcDbLine
 10
20.54370447799637
 20
13.67873174585096
 30
0.0
 11
20.54370447799637
 21
13.57642170267023
 31
0.0
  0
LINE
  5
F9B
330
1F
100
AcDbEntity
  8
OBJECT1
100
AcDbLine
 10
20.50012831422989
 20
13.17135776881256
 30
0.0
 11
20.47244286126974
 21
13.1713592121769
 31
0.0
  0
LINE
  5
F9C
330
1F
100
AcDbEntity
  8
OBJECT2
100
AcDbLine
 10
20.47243440016558
 20
12.99944503949241
 30
0.0
 11
20.45138968455027
 21
13.07637901550012
 31
0.0
  0
LINE
  5
F9D
330
1F
100
AcDbEntity
  8
OBJECT2
100
AcDbLine
 10
20.45138968455027
 20
13.07637901550012
 30
0.0
 11
20.47244077785278
 21
13.12902798741794
 31
0.0
  0
LINE
  5
F9E
330
1F
100
AcDbEntity
  8
OBJECT2
100
AcDbLine
 10
20.4513899231869
 20
13.07637901550012
 30
0.0
 11
20.35709139407342
 21
13.07638063292825
 31
0.0
  0
LINE
  5
F9F
330
1F
100
AcDbEntity
  8
OBJECT1
100
AcDbLine
 10
20.35913102150741
 20
13.19243130550438
 30
0.0
 11
20.46475971573769
 21
13.19243130550438
 31
0.0
  0
LINE
  5
FA0
330
1F
100
AcDbEntity
  8
OBJECT1
100
AcDbLine
 10
20.47244286126974
 20
13.17135921217686
 30
0.0
 11
20.46475971573769
 21
13.19243130550438
 31
0.0
  0
LINE
  5
FA1
330
1F
100
AcDbEntity
  8
OBJECT1
100
AcDbLine
 10
20.67147887104435
 20
13.26516057597532
 30
0.0
 11
20.67147887104435
 21
13.32529630516489
 31
0.0
  0
LINE
  5
FA2
330
1F
100
AcDbEntity
  8
OBJECT1
100
AcDbLine
 10
20.55264627385685
 20
13.26516057597532
 30
0.0
 11
20.55264627385685
 21
13.32529630516489
 31
0.0
  0
LINE
  5
FA3
330
1F
100
AcDbEntity
  8
OBJECT2
100
AcDbLine
 10
20.56000217348756
 20
13.28019450827271
 30
0.0
 11
20.66412297141364
 21
13.28019450827271
 31
0.0
  0
LINE
  5
FA4
330
1F
100
AcDbEntity
  8
OBJECT2
100
AcDbLine
 10
20.55264627385685
 20
13.26516057597532
 30
0.0
 11
20.67147887104435
 21
13.26516057597532
 31
0.0
  0
ARC
  5
FA5
330
1F
100
AcDbEntity
  8
0
100
AcDbCircle
 10
20.58012581054524
 20
13.2640450169574
 30
0.0
 40
0.1224358010770909
100
AcDbArc
 50
229.2028304869284
 51
310.7911953514873
  0
ARC
  5
FA6
330
1F
100
AcDbEntity
  8
0
100
AcDbCircle
 10
20.66866823188823
 20
13.2527736240597
 30
0.0
 40
0.0818723439225008
100
AcDbArc
 50
264.0023927968068
 51
312.5156113846658
  0
LINE
  5
FA7
330
1F
100
AcDbEntity
  8
0
100
AcDbLine
 10
20.72399683067132
 20
13.26516057597532
 30
0.0
 11
20.72399683067132
 21
13.19242607352064
 31
0.0
  0
LINE
  5
FA8
330
1F
100
AcDbEntity
  8
0
100
AcDbLine
 10
20.50012831422989
 20
13.17135776881256
 30
0.0
 11
20.50012831422989
 21
13.26516057597532
 31
0.0
  0
LINE
  5
FA9
330
1F
100
AcDbEntity
  8
0
100
AcDbLine
 10
20.50012831422989
 20
13.26516057597532
 30
0.0
 11
20.72399683067132
 21
13.26516057597532
 31
0.0
  0
LINE
  5
FAA
330
1F
100
AcDbEntity
  8
OBJECT2
100
AcDbLine
 10
20.71831294936841
 20
13.4988546369003
 30
0.0
 11
20.66382741342488
 21
13.4988546369003
 31
0.0
  0
LINE
  5
FAB
330
1F
100
AcDbEntity
  8
OBJECT2
100
AcDbLine
 10
20.71614634824081
 20
13.56593231446958
 30
0.0
 11
20.68042066690483
 21
13.57642170267023
 31
0.0
  0
LINE
  5
FAC
330
1F
100
AcDbEntity
  8
OBJECT2
100
AcDbLine
 10
20.65127732952248
 20
13.5405036083339
 30
0.0
 11
20.72118842317084
 21
13.5405036083339
 31
0.0
  0
LINE
  5
FAD
330
1F
100
AcDbEntity
  8
OBJECT1
100
AcDbLine
 10
20.67890590836856
 20
13.33272334248911
 30
0.0
 11
20.71604109498966
 21
13.33272334248911
 31
0.0
  0
LINE
  5
FAE
330
1F
100
AcDbEntity
  8
OBJECT2
100
AcDbLine
 10
20.65127732952248
 20
13.53380065442408
 30
0.0
 11
20.65127732952248
 21
13.50213409156732
 31
0.0
  0
LINE
  5
FAF
330
1F
100
AcDbEntity
  8
OBJECT2
100
AcDbLine
 10
20.68042066690483
 20
13.57642170267023
 30
0.0
 11
20.65578956726162
 21
13.57642170267023
 31
0.0
  0
LINE
  5
FB0
330
1F
100
AcDbEntity
  8
OBJECT1
100
AcDbLine
 10
20.67890590836856
 20
13.33272334248911
 30
0.0
 11
20.67147887104435
 21
13.32529630516489
 31
0.0
  0
LINE
  5
FB1
330
1F
100
AcDbEntity
  8
OBJECT1
100
AcDbLine
 10
20.71831294936841
 20
13.53633717677702
 30
0.0
 11
20.71831294936841
 21
13.4988546369003
 31
0.0
  0
ARC
  5
FB2
330
1F
100
AcDbEntity
  8
OBJECT1
100
AcDbCircle
 10
20.71960767457869
 20
13.54467003989088
 30
0.0
 40
0.0044562223945313
100
AcDbArc
 50
290.776798907115
 51
0.0
  0
ARC
  5
FB3
330
1F
100
AcDbEntity
  8
OBJECT1
100
AcDbCircle
 10
20.72276917176293
 20
13.53633717677702
 30
0.0
 40
0.0044562223945313
100
AcDbArc
 50
110.7767989071096
 51
180.0000000000032
  0
LINE
  5
FB4
330
1F
100
AcDbEntity
  8
OBJECT1
100
AcDbLine
 10
20.71604109498966
 20
13.33272334248911
 30
0.0
 11
20.71604109498966
 21
13.35648986192661
 31
0.0
  0
LINE
  5
FB5
330
1F
100
AcDbEntity
  8
OBJECT1
100
AcDbLine
 10
20.71604109498966
 20
13.33272334248911
 30
0.0
 11
20.71604109498966
 21
13.4988546369003
 31
0.0
  0
LINE
  5
FB6
330
1F
100
AcDbEntity
  8
OBJECT2
100
AcDbLine
 10
20.61206257245061
 20
13.53380065442408
 30
0.0
 11
20.61206257245061
 21
13.51389183565973
 31
0.0
  0
LINE
  5
FB7
330
1F
100
AcDbEntity
  8
OBJECT2
100
AcDbLine
 10
20.62097501723967
 20
13.54271309921315
 30
0.0
 11
20.64236488473341
 21
13.54271309921315
 31
0.0
  0
ARC
  5
FB8
330
1F
100
AcDbEntity
  8
OBJECT2
100
AcDbCircle
 10
20.62097501723967
 20
13.53380065442408
 30
0.0
 40
0.0089124447890625
100
AcDbArc
 50
90.0
 51
180.0
  0
ARC
  5
FB9
330
1F
100
AcDbEntity
  8
OBJECT2
100
AcDbCircle
 10
20.52405943635894
 20
13.4069937157313
 30
0.0
 40
0.0089124447890625
100
AcDbArc
 50
90.0
 51
180.0
  0
LINE
  5
FBA
330
1F
100
AcDbEntity
  8
OBJECT2
100
AcDbLine
 10
20.52405943635894
 20
13.41590616052036
 30
0.0
 11
20.54598338057453
 21
13.41590616052036
 31
0.0
  0
LINE
  5
FBB
330
1F
100
AcDbEntity
  8
OBJECT1
100
AcDbLine
 10
20.50581219553279
 20
13.53633717677702
 30
0.0
 11
20.50581219553279
 21
13.4988546369003
 31
0.0
  0
LINE
  5
FBC
330
1F
100
AcDbEntity
  8
OBJECT2
100
AcDbLine
 10
20.56029773147634
 20
13.4988546369003
 30
0.0
 11
20.50808404991154
 21
13.4988546369003
 31
0.0
  0
LINE
  5
FBD
330
1F
100
AcDbEntity
  8
OBJECT1
100
AcDbLine
 10
20.50581219553279
 20
13.53633717677702
 30
0.0
 11
20.50581219553279
 21
13.52879712784848
 31
0.0
  0
ARC
  5
FBE
330
1F
100
AcDbEntity
  8
OBJECT1
100
AcDbCircle
 10
20.50451747032251
 20
13.54467003989088
 30
0.0
 40
0.0044562223945313
100
AcDbArc
 50
180.0
 51
249.2232010928845
  0
LINE
  5
FBF
330
1F
100
AcDbEntity
  8
OBJECT2
100
AcDbLine
 10
20.54370447799637
 20
13.57642170267023
 30
0.0
 11
20.56833557763958
 21
13.57642170267023
 31
0.0
  0
LINE
  5
FC0
330
1F
100
AcDbEntity
  8
OBJECT2
100
AcDbLine
 10
20.50797879666039
 20
13.56593231446958
 30
0.0
 11
20.54370447799637
 21
13.57642170267023
 31
0.0
  0
LINE
  5
FC1
330
1F
100
AcDbEntity
  8
OBJECT2
100
AcDbLine
 10
20.56833557763958
 20
13.57642170267023
 30
0.0
 11
20.60520849007383
 21
13.56593231446958
 31
0.0
  0
LINE
  5
FC2
330
1F
100
AcDbEntity
  8
OBJECT2
100
AcDbLine
 10
20.50293672173038
 20
13.5405036083339
 30
0.0
 11
20.61206257245061
 21
13.5405036083339
 31
0.0
  0
LINE
  5
FC3
330
1F
100
AcDbEntity
  8
OBJECT1
100
AcDbLine
 10
20.54521923653263
 20
13.33272334248911
 30
0.0
 11
20.55264627385685
 21
13.32529630516489
 31
0.0
  0
LINE
  5
FC4
330
1F
100
AcDbEntity
  8
OBJECT1
100
AcDbLine
 10
20.54521923653263
 20
13.33272334248911
 30
0.0
 11
20.50808404991154
 21
13.33272334248911
 31
0.0
  0
ARC
  5
FC5
330
1F
100
AcDbEntity
  8
OBJECT2
100
AcDbCircle
 10
20.52405943635894
 20
13.38768341868833
 30
0.0
 40
0.0089124447890625
100
AcDbArc
 50
180.0
 51
270.0
  0
LINE
  5
FC6
330
1F
100
AcDbEntity
  8
OBJECT2
100
AcDbLine
 10
20.52405943635894
 20
13.37877097389927
 30
0.0
 11
20.58038375170905
 21
13.37877097389927
 31
0.0
  0
LINE
  5
FC7
330
1F
100
AcDbEntity
  8
OBJECT1
100
AcDbLine
 10
20.50808404991154
 20
13.33272334248911
 30
0.0
 11
20.50808404991154
 21
13.4988546369003
 31
0.0
  0
LINE
  5
FC8
330
1F
100
AcDbEntity
  8
OBJECT2
100
AcDbLine
 10
20.51514699156987
 20
13.4069937157313
 30
0.0
 11
20.51514699156987
 21
13.38768341868833
 31
0.0
  0
LINE
  5
FC9
330
1F
100
AcDbEntity
  8
OBJECT2
100
AcDbLine
 10
20.50006124792798
 20
13.56593231446958
 30
0.0
 11
20.72406389697323
 21
13.56593231446958
 31
0.0
  0
LINE
  5
FCA
330
1F
100
AcDbEntity
  8
OBJECT2
100
AcDbLine
 10
20.67147887104435
 20
13.29522844057011
 30
0.0
 11
20.55264627385685
 21
13.29522844057011
 31
0.0
  0
LINE
  5
FCB
330
1F
100
AcDbEntity
  8
OBJECT2
100
AcDbLine
 10
20.65578956726162
 20
13.57642170267023
 30
0.0
 11
20.61891665482737
 21
13.56593231446958
 31
0.0
  0
ARC
  5
FCC
330
1F
100
AcDbEntity
  8
OBJECT2
100
AcDbCircle
 10
20.64236488473341
 20
13.53380065442408
 30
0.0
 40
0.0089124447890625
100
AcDbArc
 50
0.0
 51
90.0
  0
CIRCLE
  5
FCD
330
1F
100
AcDbEntity
  8
OBJECT2
100
AcDbCircle
 10
20.61206257245061
 20
13.44261788611738
 30
0.0
 40
0.0371139365863791
  0
LINE
  5
FCE
330
1F
100
AcDbEntity
  8
OBJECT2
100
AcDbLine
 10
20.57570052788907
 20
13.43518512053228
 30
0.0
 11
20.64842461701214
 21
13.43518512053228
 31
0.0
  0
LINE
  5
FCF
330
1F
100
AcDbEntity
  8
OBJECT2
100
AcDbLine
 10
20.57570052788908
 20
13.4500506517025
 30
0.0
 11
20.64842461701214
 21
13.4500506517025
 31
0.0
  0
LINE
  5
FD0
330
1F
100
AcDbEntity
  8
OBJECT2
100
AcDbLine
 10
20.56000217348756
 20
13.31026237286749
 30
0.0
 11
20.66412297141364
 21
13.31026237286749
 31
0.0
  0
LINE
  5
FD1
330
1F
100
AcDbEntity
  8
OBJECT2
100
AcDbLine
 10
20.67147887104435
 20
13.32529630516489
 30
0.0
 11
20.55264627385685
 21
13.32529630516489
 31
0.0
  0
LINE
  5
FD2
330
1F
100
AcDbEntity
  8
OBJECT2
100
AcDbLine
 10
20.54521923653263
 20
13.33272334248911
 30
0.0
 11
20.67890590836856
 21
13.33272334248911
 31
0.0
  0
CIRCLE
  5
FD3
330
1F
100
AcDbEntity
  8
OBJECT2
100
AcDbCircle
 10
20.61206257245061
 20
13.44261788611738
 30
0.0
 40
0.0712739495423403
  0
LINE
  5
FD4
330
1F
100
AcDbEntity
  8
OBJECT2
100
AcDbLine
 10
20.71614634824081
 20
13.68922113405161
 30
0.0
 11
20.68042066690483
 21
13.67873174585096
 31
0.0
  0
LINE
  5
FD5
330
1F
100
AcDbEntity
  8
OBJECT2
100
AcDbLine
 10
20.68042066690483
 20
13.67873174585096
 30
0.0
 11
20.65578956726162
 21
13.67873174585096
 31
0.0
  0
LINE
  5
FD6
330
1F
100
AcDbEntity
  8
OBJECT1
100
AcDbLine
 10
20.72406389697323
 20
13.67873174585096
 30
0.0
 11
20.71614634824081
 21
13.68922113405161
 31
0.0
  0
LINE
  5
FD7
330
1F
100
AcDbEntity
  8
OBJECT2
100
AcDbLine
 10
20.54370447799637
 20
13.67873174585096
 30
0.0
 11
20.56833557763958
 21
13.67873174585096
 31
0.0
  0
LINE
  5
FD8
330
1F
100
AcDbEntity
  8
OBJECT1
100
AcDbLine
 10
20.50006124792797
 20
13.67873174585096
 30
0.0
 11
20.50797879666039
 21
13.68922113405161
 31
0.0
  0
LINE
  5
FD9
330
1F
100
AcDbEntity
  8
OBJECT2
100
AcDbLine
 10
20.50797879666039
 20
13.68922113405161
 30
0.0
 11
20.54370447799637
 21
13.67873174585096
 31
0.0
  0
LINE
  5
FDA
330
1F
100
AcDbEntity
  8
OBJECT2
100
AcDbLine
 10
20.56833557763958
 20
13.67873174585096
 30
0.0
 11
20.60520849007383
 21
13.68922113405161
 31
0.0
  0
LINE
  5
FDB
330
1F
100
AcDbEntity
  8
OBJECT1
100
AcDbLine
 10
20.71614634824081
 20
13.68922113405161
 30
0.0
 11
20.50797879666039
 21
13.68922113405161
 31
0.0
  0
LINE
  5
FDC
330
1F
100
AcDbEntity
  8
OBJECT2
100
AcDbLine
 10
20.65578956726162
 20
13.67873174585096
 30
0.0
 11
20.61891665482737
 21
13.68922113405161
 31
0.0
  0
LINE
  5
FDD
330
1F
100
AcDbEntity
  8
OBJECT2
100
AcDbLine
 10
20.33604077804429
 20
12.92143910712479
 30
0.0
 11
20.35709139407342
 21
12.84449501530613
 31
0.0
  0
LINE
  5
FDE
330
1F
100
AcDbEntity
  8
OBJECT2
100
AcDbLine
 10
20.35709139407342
 20
12.84449501530613
 30
0.0
 11
20.33601953938259
 21
12.79186585023012
 31
0.0
  0
LINE
  5
FDF
330
1F
100
AcDbEntity
  8
OBJECT1
100
AcDbLine
 10
20.35911073739222
 20
12.72839208130398
 30
0.0
 11
20.33602900679793
 21
12.79183982591837
 31
0.0
  0
LINE
  5
FE0
330
1F
100
AcDbEntity
  8
OBJECT2
100
AcDbLine
 10
20.33604077804429
 20
12.99942508655041
 30
0.0
 11
20.35709139407342
 21
13.07638063292825
 31
0.0
  0
LINE
  5
FE1
330
1F
100
AcDbEntity
  8
OBJECT2
100
AcDbLine
 10
20.35709139407342
 20
13.07638063292825
 30
0.0
 11
20.33604030077091
 21
13.12902960484606
 31
0.0
  0
LINE
  5
FE2
330
1F
100
AcDbEntity
  8
OBJECT1
100
AcDbLine
 10
20.35913102150741
 20
13.19243130550438
 30
0.0
 11
20.33601970019921
 21
13.12897304051023
 31
0.0
  0
LINE
  5
FE3
330
1F
100
AcDbEntity
  8
OBJECT2
100
AcDbLine
 10
20.3360381976606
 20
13.12903534813364
 30
0.0
 11
20.33603798100486
 21
12.79187087760749
 31
0.0
  0
LINE
  5
FE4
330
1F
100
AcDbEntity
  8
OBJECT2
100
AcDbLine
 10
21.21328269987188
 20
12.79187635024266
 30
0.0
 11
21.21328222259851
 21
13.12902984348269
 31
0.0
  0
LINE
  5
FE5
330
1F
100
AcDbEntity
  8
OBJECT2
100
AcDbLine
 10
21.76005159235335
 20
13.5426417456705
 30
0.0
 11
21.7407292627378
 21
13.5426417456705
 31
0.0
  0
LINE
  5
FE6
330
1F
100
AcDbEntity
  8
OBJECT2
100
AcDbLine
 10
21.7407292627378
 20
13.5426417456705
 30
0.0
 11
21.7407292627378
 21
13.52331941605495
 31
0.0
  0
LINE
  5
FE7
330
1F
100
AcDbEntity
  8
OBJECT1
100
AcDbLine
 10
21.770540980554
 20
13.55313113387115
 30
0.0
 11
21.59291849213656
 21
13.55313113387115
 31
0.0
  0
LINE
  5
FE8
330
1F
100
AcDbEntity
  8
OBJECT2
100
AcDbLine
 10
21.7407292627378
 20
13.5426417456705
 30
0.0
 11
21.70385635030354
 21
13.55313113387115
 31
0.0
  0
LINE
  5
FE9
330
1F
100
AcDbEntity
  8
OBJECT1
100
AcDbLine
 10
21.58500094340414
 20
13.5426417456705
 30
0.0
 11
21.58500094340414
 21
13.40858003971041
 31
0.0
  0
LINE
  5
FEA
330
1F
100
AcDbEntity
  8
OBJECT2
100
AcDbLine
 10
21.65327527311575
 20
13.5426417456705
 30
0.0
 11
21.65327527311575
 21
13.44033170248977
 31
0.0
  0
LINE
  5
FEB
330
1F
100
AcDbEntity
  8
OBJECT2
100
AcDbLine
 10
21.62864417347253
 20
13.5426417456705
 30
0.0
 11
21.62864417347253
 21
13.44033170248977
 31
0.0
  0
LINE
  5
FEC
330
1F
100
AcDbEntity
  8
OBJECT2
100
AcDbLine
 10
21.62864417347253
 20
13.5426417456705
 30
0.0
 11
21.65327527311575
 21
13.5426417456705
 31
0.0
  0
LINE
  5
FED
330
1F
100
AcDbEntity
  8
OBJECT1
100
AcDbLine
 10
21.58500094340414
 20
13.5426417456705
 30
0.0
 11
21.59291849213656
 21
13.55313113387115
 31
0.0
  0
LINE
  5
FEE
330
1F
100
AcDbEntity
  8
OBJECT2
100
AcDbLine
 10
21.59291849213656
 20
13.55313113387115
 30
0.0
 11
21.62864417347253
 21
13.5426417456705
 31
0.0
  0
LINE
  5
FEF
330
1F
100
AcDbEntity
  8
OBJECT2
100
AcDbLine
 10
21.65327527311575
 20
13.5426417456705
 30
0.0
 11
21.69014818555001
 21
13.55313113387115
 31
0.0
  0
LINE
  5
FF0
330
1F
100
AcDbEntity
  8
OBJECT2
100
AcDbLine
 10
21.58500094340414
 20
13.42984231428911
 30
0.0
 11
21.64725216097195
 21
13.42984231428911
 31
0.0
  0
LINE
  5
FF1
330
1F
100
AcDbEntity
  8
OBJECT2
100
AcDbLine
 10
21.59291849213656
 20
13.42984231428911
 30
0.0
 11
21.62864417347253
 21
13.44033170248977
 31
0.0
  0
LINE
  5
FF2
330
1F
100
AcDbEntity
  8
OBJECT2
100
AcDbLine
 10
21.62864417347253
 20
13.44033170248977
 30
0.0
 11
21.65327527311575
 21
13.44033170248977
 31
0.0
  0
LINE
  5
FF3
330
1F
100
AcDbEntity
  8
OBJECT1
100
AcDbLine
 10
21.59075189100897
 20
13.40024717659655
 30
0.0
 11
21.59075189100897
 21
13.37334204432614
 31
0.0
  0
LINE
  5
FF4
330
1F
100
AcDbEntity
  8
OBJECT2
100
AcDbLine
 10
21.58787641720653
 20
13.40441360815343
 30
0.0
 11
21.62182345483626
 21
13.40441360815343
 31
0.0
  0
LINE
  5
FF5
330
1F
100
AcDbEntity
  8
OBJECT1
100
AcDbLine
 10
21.59075189100897
 20
13.40024717659655
 30
0.0
 11
21.59075189100897
 21
13.39270712766802
 31
0.0
  0
ARC
  5
FF6
330
1F
100
AcDbEntity
  8
OBJECT1
100
AcDbCircle
 10
21.58945716579868
 20
13.40858003971041
 30
0.0
 40
0.0044562223945313
100
AcDbArc
 50
180.0
 51
249.2232010928845
  0
LINE
  5
FF7
330
1F
100
AcDbEntity
  8
OBJECT1
100
AcDbLine
 10
23.24708086526523
 20
13.55313113387115
 30
0.0
 11
23.03891331368481
 21
13.55313113387115
 31
0.0
  0
LINE
  5
FF8
330
1F
100
AcDbEntity
  8
OBJECT2
100
AcDbLine
 10
23.24708086526523
 20
13.55313113387115
 30
0.0
 11
23.21135518392927
 21
13.5426417456705
 31
0.0
  0
LINE
  5
FF9
330
1F
100
AcDbEntity
  8
OBJECT2
100
AcDbLine
 10
23.03099576495239
 20
13.42984231428911
 30
0.0
 11
23.25499841399764
 21
13.42984231428911
 31
0.0
  0
LINE
  5
FFA
330
1F
100
AcDbEntity
  8
OBJECT2
100
AcDbLine
 10
23.18221184654689
 20
13.40441360815343
 30
0.0
 11
23.25212294019525
 21
13.40441360815343
 31
0.0
  0
LINE
  5
FFB
330
1F
100
AcDbEntity
  8
OBJECT2
100
AcDbLine
 10
23.24708086526523
 20
13.42984231428911
 30
0.0
 11
23.21135518392927
 21
13.44033170248977
 31
0.0
  0
LINE
  5
FFC
330
1F
100
AcDbEntity
  8
OBJECT2
100
AcDbLine
 10
23.24924746639283
 20
13.36276463671983
 30
0.0
 11
23.19476193044928
 21
13.36276463671983
 31
0.0
  0
LINE
  5
FFD
330
1F
100
AcDbEntity
  8
OBJECT1
100
AcDbLine
 10
23.03901856693596
 20
13.22436969881578
 30
0.0
 11
23.03901856693596
 21
13.36276463671983
 31
0.0
  0
CIRCLE
  5
FFE
330
1F
100
AcDbEntity
  8
OBJECT2
100
AcDbCircle
 10
23.14299708947501
 20
13.30652788593692
 30
0.0
 40
0.0712739495423403
  0
CIRCLE
  5
FFF
330
1F
100
AcDbEntity
  8
OBJECT2
100
AcDbCircle
 10
23.14299708947501
 20
13.30652788593692
 30
0.0
 40
0.0371139365863791
  0
LINE
  5
1000
330
1F
100
AcDbEntity
  8
OBJECT2
100
AcDbLine
 10
23.04608150859429
 20
13.27090371555083
 30
0.0
 11
23.04608150859429
 21
13.25159341850786
 31
0.0
  0
LINE
  5
1001
330
1F
100
AcDbEntity
  8
OBJECT2
100
AcDbLine
 10
23.05499395338336
 20
13.2426809737188
 30
0.0
 11
23.11131826873347
 21
13.2426809737188
 31
0.0
  0
ARC
  5
1002
330
1F
100
AcDbEntity
  8
OBJECT2
100
AcDbCircle
 10
23.05499395338336
 20
13.25159341850786
 30
0.0
 40
0.0089124447890625
100
AcDbArc
 50
180.0
 51
270.0
  0
LINE
  5
1003
330
1F
100
AcDbEntity
  8
OBJECT2
100
AcDbLine
 10
23.05499395338336
 20
13.2798161603399
 30
0.0
 11
23.07691789759896
 21
13.2798161603399
 31
0.0
  0
ARC
  5
1004
330
1F
100
AcDbEntity
  8
OBJECT2
100
AcDbCircle
 10
23.05499395338336
 20
13.27090371555083
 30
0.0
 40
0.0089124447890625
100
AcDbArc
 50
90.0
 51
180.0
  0
LINE
  5
1005
330
1F
100
AcDbEntity
  8
OBJECT2
100
AcDbLine
 10
23.099270094664
 20
13.5426417456705
 30
0.0
 11
23.13614300709825
 21
13.55313113387115
 31
0.0
  0
LINE
  5
1006
330
1F
100
AcDbEntity
  8
OBJECT2
100
AcDbLine
 10
23.03891331368481
 20
13.55313113387115
 30
0.0
 11
23.07463899502079
 21
13.5426417456705
 31
0.0
  0
LINE
  5
1007
330
1F
100
AcDbEntity
  8
OBJECT1
100
AcDbLine
 10
23.03099576495239
 20
13.5426417456705
 30
0.0
 11
23.03891331368481
 21
13.55313113387115
 31
0.0
  0
LINE
  5
1008
330
1F
100
AcDbEntity
  8
OBJECT2
100
AcDbLine
 10
23.07463899502079
 20
13.5426417456705
 30
0.0
 11
23.099270094664
 21
13.5426417456705
 31
0.0
  0
LINE
  5
1009
330
1F
100
AcDbEntity
  8
OBJECT2
100
AcDbLine
 10
23.21135518392927
 20
13.5426417456705
 30
0.0
 11
23.18672408428604
 21
13.5426417456705
 31
0.0
  0
LINE
  5
100A
330
1F
100
AcDbEntity
  8
OBJECT2
100
AcDbLine
 10
23.18672408428604
 20
13.5426417456705
 30
0.0
 11
23.14985117185179
 21
13.55313113387115
 31
0.0
  0
LINE
  5
100B
330
1F
100
AcDbEntity
  8
OBJECT2
100
AcDbLine
 10
23.1066350449135
 20
13.31396065152203
 30
0.0
 11
23.17935913403656
 21
13.31396065152203
 31
0.0
  0
LINE
  5
100C
330
1F
100
AcDbEntity
  8
OBJECT2
100
AcDbLine
 10
23.03387123875478
 20
13.40441360815343
 30
0.0
 11
23.14299708947501
 21
13.40441360815343
 31
0.0
  0
LINE
  5
100D
330
1F
100
AcDbEntity
  8
OBJECT2
100
AcDbLine
 10
23.099270094664
 20
13.44033170248977
 30
0.0
 11
23.13614300709825
 21
13.42984231428911
 31
0.0
  0
LINE
  5
100E
330
1F
100
AcDbEntity
  8
OBJECT2
100
AcDbLine
 10
23.10663504491349
 20
13.29909512035182
 30
0.0
 11
23.17935913403656
 21
13.29909512035182
 31
0.0
  0
LINE
  5
100F
330
1F
100
AcDbEntity
  8
OBJECT2
100
AcDbLine
 10
23.03891331368481
 20
13.42984231428911
 30
0.0
 11
23.07463899502079
 21
13.44033170248977
 31
0.0
  0
LINE
  5
1010
330
1F
100
AcDbEntity
  8
OBJECT2
100
AcDbLine
 10
23.07463899502079
 20
13.44033170248977
 30
0.0
 11
23.099270094664
 21
13.44033170248977
 31
0.0
  0
ARC
  5
1011
330
1F
100
AcDbEntity
  8
OBJECT1
100
AcDbCircle
 10
23.03545198734693
 20
13.40858003971041
 30
0.0
 40
0.0044562223945313
100
AcDbArc
 50
180.0
 51
249.2232010928845
  0
LINE
  5
1012
330
1F
100
AcDbEntity
  8
OBJECT1
100
AcDbLine
 10
23.03674671255721
 20
13.40024717659655
 30
0.0
 11
23.03674671255721
 21
13.39270712766802
 31
0.0
  0
LINE
  5
1013
330
1F
100
AcDbEntity
  8
OBJECT2
100
AcDbLine
 10
23.09123224850074
 20
13.36276463671983
 30
0.0
 11
23.03901856693596
 21
13.36276463671983
 31
0.0
  0
LINE
  5
1014
330
1F
100
AcDbEntity
  8
OBJECT1
100
AcDbLine
 10
23.03674671255721
 20
13.40024717659655
 30
0.0
 11
23.03674671255721
 21
13.36276463671983
 31
0.0
  0
ARC
  5
1015
330
1F
100
AcDbEntity
  8
OBJECT2
100
AcDbCircle
 10
23.15190953426409
 20
13.39771065424361
 30
0.0
 40
0.0089124447890625
100
AcDbArc
 50
90.0
 51
180.0
  0
LINE
  5
1016
330
1F
100
AcDbEntity
  8
OBJECT2
100
AcDbLine
 10
23.21135518392927
 20
13.44033170248977
 30
0.0
 11
23.18672408428604
 21
13.44033170248977
 31
0.0
  0
ARC
  5
1017
330
1F
100
AcDbEntity
  8
OBJECT2
100
AcDbCircle
 10
23.17329940175782
 20
13.39771065424361
 30
0.0
 40
0.0089124447890625
100
AcDbArc
 50
0.0
 51
90.0
  0
LINE
  5
1018
330
1F
100
AcDbEntity
  8
OBJECT2
100
AcDbLine
 10
23.15190953426409
 20
13.40662309903268
 30
0.0
 11
23.17329940175782
 21
13.40662309903268
 31
0.0
  0
LINE
  5
1019
330
1F
100
AcDbEntity
  8
OBJECT2
100
AcDbLine
 10
23.18672408428604
 20
13.44033170248977
 30
0.0
 11
23.14985117185179
 21
13.42984231428911
 31
0.0
  0
LINE
  5
101A
330
1F
100
AcDbEntity
  8
OBJECT2
100
AcDbLine
 10
23.18221184654689
 20
13.39771065424361
 30
0.0
 11
23.18221184654689
 21
13.36604409138685
 31
0.0
  0
LINE
  5
101B
330
1F
100
AcDbEntity
  8
OBJECT2
100
AcDbLine
 10
23.14299708947501
 20
13.39771065424361
 30
0.0
 11
23.14299708947501
 21
13.37780183547926
 31
0.0
  0
LINE
  5
101C
330
1F
100
AcDbEntity
  8
OBJECT2
100
AcDbLine
 10
23.07463899502079
 20
13.5426417456705
 30
0.0
 11
23.07463899502079
 21
13.44033170248977
 31
0.0
  0
LINE
  5
101D
330
1F
100
AcDbEntity
  8
OBJECT2
100
AcDbLine
 10
23.099270094664
 20
13.5426417456705
 30
0.0
 11
23.099270094664
 21
13.44033170248977
 31
0.0
  0
LINE
  5
101E
330
1F
100
AcDbEntity
  8
OBJECT1
100
AcDbLine
 10
23.03099576495239
 20
13.5426417456705
 30
0.0
 11
23.03099576495239
 21
13.40858003971041
 31
0.0
  0
LINE
  5
101F
330
1F
100
AcDbEntity
  8
OBJECT2
100
AcDbLine
 10
23.21135518392927
 20
13.5426417456705
 30
0.0
 11
23.21135518392927
 21
13.44033170248977
 31
0.0
  0
LINE
  5
1020
330
1F
100
AcDbEntity
  8
OBJECT2
100
AcDbLine
 10
23.18672408428604
 20
13.5426417456705
 30
0.0
 11
23.18672408428604
 21
13.44033170248977
 31
0.0
  0
LINE
  5
1021
330
1F
100
AcDbEntity
  8
OBJECT1
100
AcDbLine
 10
23.24697561201408
 20
13.22436946478866
 30
0.0
 11
23.24697561201408
 21
13.36276463671983
 31
0.0
  0
LINE
  5
1022
330
1F
100
AcDbEntity
  8
OBJECT1
100
AcDbLine
 10
23.25499841399764
 20
13.5426417456705
 30
0.0
 11
23.24708086526523
 21
13.55313113387115
 31
0.0
  0
ARC
  5
1023
330
1F
100
AcDbEntity
  8
OBJECT1
100
AcDbCircle
 10
23.25370368878735
 20
13.40024717659655
 30
0.0
 40
0.0044562223945313
100
AcDbArc
 50
110.7767989071096
 51
180.0000000000032
  0
ARC
  5
1024
330
1F
100
AcDbEntity
  8
OBJECT1
100
AcDbCircle
 10
23.2505421916031
 20
13.40858003971041
 30
0.0
 40
0.0044562223945313
100
AcDbArc
 50
290.776798907115
 51
0.0
  0
LINE
  5
1025
330
1F
100
AcDbEntity
  8
OBJECT1
100
AcDbLine
 10
23.24924746639283
 20
13.40024717659655
 30
0.0
 11
23.24924746639283
 21
13.36276463671983
 31
0.0
  0
LINE
  5
1026
330
1F
100
AcDbEntity
  8
OBJECT1
100
AcDbLine
 10
23.25499841399764
 20
13.5426417456705
 30
0.0
 11
23.25499841399764
 21
13.40911510802349
 31
0.0
  0
ENDSEC
  0
SECTION
  2
OBJECTS
  0
DICTIONARY
  5
C
330
0
100
AcDbDictionary
  3
ACAD_GROUP
350
D
  3
ACAD_LAYOUT
350
1A
  3
ACAD_MLINESTYLE
350
17
  3
ACAD_PLOTSETTINGS
350
19
  3
ACAD_PLOTSTYLENAME
350
E
  3
ACDBHEADERROUNDTRIPXREC
350
137D
  3
ACDBVARIABLEDICTIONARY
350
178
  0
DICTIONARY
  5
139F
330
1F
100
AcDbDictionary
280
     1
  3
ACAD_LAYOUTSELFREF
360
13A0
  0
DICTIONARY
  5
139D
330
1B
100
AcDbDictionary
280
     1
  3
ACAD_LAYOUTSELFREF
360
139E
  0
DICTIONARY
  5
D
102
{ACAD_REACTORS
330
C
102
}
330
C
100
AcDbDictionary
  0
DICTIONARY
  5
1A
102
{ACAD_REACTORS
330
C
102
}
330
C
100
AcDbDictionary
  0
DICTIONARY
  5
17
102
{ACAD_REACTORS
330
C
102
}
330
C
100
AcDbDictionary
  3
STANDARD
350
18
  0
DICTIONARY
  5
19
102
{ACAD_REACTORS
330
C
102
}
330
C
100
AcDbDictionary
  0
ACDBDICTIONARYWDFLT
  5
E
102
{ACAD_REACTORS
330
C
102
}
330
C
100
AcDbDictionary
281
     1
  3
Normal
350
F
100
AcDbDictionaryWithDefault
340
F
  0
DICTIONARY
  5
137D
102
{ACAD_REACTORS
330
C
102
}
330
C
100
AcDbDictionary
  3
CEPSNTYPE
350
1387
  3
FINGERPRINTGUID
350
1388
  3
HYPERLINKBASE
350
1380
  3
INSUNITS
350
1386
  3
LAYOUTDICT
350
1382
  3
LWETCUNION
350
1385
  3
PLOTSETDICT
350
1383
  3
PLOTSTYLNAMDICT
350
1384
  3
PSVPSCALE
350
138A
  3
PUCSBASE
350
138D
  3
PUCSORGBACK
350
1393
  3
PUCSORGBOTTOM
350
138F
  3
PUCSORGFRONT
350
1392
  3
PUCSORGLEFT
350
1390
  3
PUCSORGRIGHT
350
1391
  3
PUCSORGTOP
350
138E
  3
PUCSORTHOREF
350
138B
  3
PUCSORTHOVIEW
350
138C
  3
STYLESHEET
350
1381
  3
TSTACKALIGN
350
137E
  3
TSTACKSIZE
350
137F
  3
UCSBASE
350
1396
  3
UCSORGBACK
350
139C
  3
UCSORGBOTTOM
350
1398
  3
UCSORGFRONT
350
139B
  3
UCSORGLEFT
350
1399
  3
UCSORGRIGHT
350
139A
  3
UCSORGTOP
350
1397
  3
UCSORTHOREF
350
1394
  3
UCSORTHOVIEW
350
1395
  3
VERSIONGUID
350
1389
  0
DICTIONARY
  5
178
102
{ACAD_REACTORS
330
C
102
}
330
C
100
AcDbDictionary
  3
DIMASSOC
350
C78
  3
SORTENTS
350
179
  0
XRECORD
  5
13A0
102
{ACAD_REACTORS
330
139F
102
}
330
139F
100
AcDbXrecord
340
1F
  0
XRECORD
  5
139E
102
{ACAD_REACTORS
330
139D
102
}
330
139D
100
AcDbXrecord
340
1B
  0
MLINESTYLE
  5
18
102
{ACAD_REACTORS
330
17
102
}
330
17
100
AcDbMlineStyle
  2
STANDARD
 70
     0
  3

 62
   256
 51
90.0
 52
90.0
 71
     2
 49
0.5
 62
   256
  6
BYLAYER
 49
-0.5
 62
   256
  6
BYLAYER
  0
ACDBPLACEHOLDER
  5
F
102
{ACAD_REACTORS
330
E
102
}
330
E
100
AcDbPlaceHolder
280
     0
  0
XRECORD
  5
1387
102
{ACAD_REACTORS
330
137D
102
}
330
137D
100
AcDbXrecord
 90
        0
  0
XRECORD
  5
1388
102
{ACAD_REACTORS
330
137D
102
}
330
137D
100
AcDbXrecord
  1
{FDEAD576-A652-11D2-9A35-0060089B3A3F}
  0
XRECORD
  5
1380
102
{ACAD_REACTORS
330
137D
102
}
330
137D
100
AcDbXrecord
  1

  0
XRECORD
  5
1386
102
{ACAD_REACTORS
330
137D
102
}
330
137D
100
AcDbXrecord
 90
        1
  0
XRECORD
  5
1382
102
{ACAD_REACTORS
330
137D
102
}
330
137D
100
AcDbXrecord
340
1A
  0
XRECORD
  5
1385
102
{ACAD_REACTORS
330
137D
102
}
330
137D
100
AcDbXrecord
 90
    11805
  0
XRECORD
  5
1383
102
{ACAD_REACTORS
330
137D
102
}
330
137D
100
AcDbXrecord
340
19
  0
XRECORD
  5
1384
102
{ACAD_REACTORS
330
137D
102
}
330
137D
100
AcDbXrecord
340
E
  0
XRECORD
  5
138A
102
{ACAD_REACTORS
330
137D
102
}
330
137D
100
AcDbXrecord
 40
0.0
  0
XRECORD
  5
138D
102
{ACAD_REACTORS
330
137D
102
}
330
137D
100
AcDbXrecord
340
0
  0
XRECORD
  5
1393
102
{ACAD_REACTORS
330
137D
102
}
330
137D
100
AcDbXrecord
 10
0.0
 20
0.0
 30
0.0
  0
XRECORD
  5
138F
102
{ACAD_REACTORS
330
137D
102
}
330
137D
100
AcDbXrecord
 10
0.0
 20
0.0
 30
0.0
  0
XRECORD
  5
1392
102
{ACAD_REACTORS
330
137D
102
}
330
137D
100
AcDbXrecord
 10
0.0
 20
0.0
 30
0.0
  0
XRECORD
  5
1390
102
{ACAD_REACTORS
330
137D
102
}
330
137D
100
AcDbXrecord
 10
0.0
 20
0.0
 30
0.0
  0
XRECORD
  5
1391
102
{ACAD_REACTORS
330
137D
102
}
330
137D
100
AcDbXrecord
 10
0.0
 20
0.0
 30
0.0
  0
XRECORD
  5
138E
102
{ACAD_REACTORS
330
137D
102
}
330
137D
100
AcDbXrecord
 10
0.0
 20
0.0
 30
0.0
  0
XRECORD
  5
138B
102
{ACAD_REACTORS
330
137D
102
}
330
137D
100
AcDbXrecord
340
0
  0
XRECORD
  5
138C
102
{ACAD_REACTORS
330
137D
102
}
330
137D
100
AcDbXrecord
 70
     0
  0
XRECORD
  5
1381
102
{ACAD_REACTORS
330
137D
102
}
330
137D
100
AcDbXrecord
  1
WILKINS.ctb
  0
XRECORD
  5
137E
102
{ACAD_REACTORS
330
137D
102
}
330
137D
100
AcDbXrecord
 90
        1
  0
XRECORD
  5
137F
102
{ACAD_REACTORS
330
137D
102
}
330
137D
100
AcDbXrecord
 90
       70
  0
XRECORD
  5
1396
102
{ACAD_REACTORS
330
137D
102
}
330
137D
100
AcDbXrecord
340
0
  0
XRECORD
  5
139C
102
{ACAD_REACTORS
330
137D
102
}
330
137D
100
AcDbXrecord
 10
0.0
 20
0.0
 30
0.0
  0
XRECORD
  5
1398
102
{ACAD_REACTORS
330
137D
102
}
330
137D
100
AcDbXrecord
 10
0.0
 20
0.0
 30
0.0
  0
XRECORD
  5
139B
102
{ACAD_REACTORS
330
137D
102
}
330
137D
100
AcDbXrecord
 10
0.0
 20
0.0
 30
0.0
  0
XRECORD
  5
1399
102
{ACAD_REACTORS
330
137D
102
}
330
137D
100
AcDbXrecord
 10
0.0
 20
0.0
 30
0.0
  0
XRECORD
  5
139A
102
{ACAD_REACTORS
330
137D
102
}
330
137D
100
AcDbXrecord
 10
0.0
 20
0.0
 30
0.0
  0
XRECORD
  5
1397
102
{ACAD_REACTORS
330
137D
102
}
330
137D
100
AcDbXrecord
 10
0.0
 20
0.0
 30
0.0
  0
XRECORD
  5
1394
102
{ACAD_REACTORS
330
137D
102
}
330
137D
100
AcDbXrecord
340
0
  0
XRECORD
  5
1395
102
{ACAD_REACTORS
330
137D
102
}
330
137D
100
AcDbXrecord
 70
     0
  0
XRECORD
  5
1389
102
{ACAD_REACTORS
330
137D
102
}
330
137D
100
AcDbXrecord
  1
{40596AF0-19A6-4434-9118-64AB2C510819}
  0
DICTIONARYVAR
  5
C78
102
{ACAD_REACTORS
330
178
102
}
330
178
100
DictionaryVariables
280
     0
  1
1
  0
DICTIONARYVAR
  5
179
102
{ACAD_REACTORS
330
178
102
}
330
178
100
DictionaryVariables
280
     0
  1
96
  0
ENDSEC
  0
EOF
