  0
SECTION
  2
HEADER
  9
$ACADVER
  1
AC1014
  9
$ACADMAINTVER
 70
     9
  9
$DWGCODEPAGE
  3
ANSI_1252
  9
$INSBASE
 10
0.0
 20
0.0
 30
0.0
  9
$EXTMIN
 10
6.242706379437251
 20
3.504858450946464
 30
-0.0000000000112498
  9
$EXTMAX
 10
22.93093878406908
 20
20.3150391103642
 30
0.0000000000002956
  9
$LIMMIN
 10
0.0
 20
0.0
  9
$LIMMAX
 10
31.5
 20
20.8
  9
$ORTHOMODE
 70
     0
  9
$REGENMODE
 70
     1
  9
$FILLMODE
 70
     1
  9
$QTEXTMODE
 70
     0
  9
$MIRRTEXT
 70
     0
  9
$DRAGMODE
 70
     2
  9
$LTSCALE
 40
1.0
  9
$OSMODE
 70
    37
  9
$ATTMODE
 70
     1
  9
$TEXTSIZE
 40
0.125
  9
$TRACEWID
 40
0.05
  9
$TEXTSTYLE
  7
ROMANS
  9
$CLAYER
  8
0
  9
$CELTYPE
  6
BYLAYER
  9
$CECOLOR
 62
   256
  9
$CELTSCALE
 40
1.0
  9
$DELOBJ
 70
     1
  9
$DISPSILH
 70
     0
  9
$DIMSCALE
 40
1.0
  9
$DIMASZ
 40
0.125
  9
$DIMEXO
 40
0.0625
  9
$DIMDLI
 40
0.38
  9
$DIMRND
 40
0.0
  9
$DIMDLE
 40
0.0
  9
$DIMEXE
 40
0.09
  9
$DIMTP
 40
0.0
  9
$DIMTM
 40
0.0
  9
$DIMTXT
 40
0.125
  9
$DIMCEN
 40
0.04
  9
$DIMTSZ
 40
0.0
  9
$DIMTOL
 70
     0
  9
$DIMLIM
 70
     0
  9
$DIMTIH
 70
     1
  9
$DIMTOH
 70
     1
  9
$DIMSE1
 70
     0
  9
$DIMSE2
 70
     0
  9
$DIMTAD
 70
     0
  9
$DIMZIN
 70
     0
  9
$DIMBLK
  1

  9
$DIMASO
 70
     1
  9
$DIMSHO
 70
     1
  9
$DIMPOST
  1

  9
$DIMAPOST
  1

  9
$DIMALT
 70
     0
  9
$DIMALTD
 70
     2
  9
$DIMALTF
 40
25.4
  9
$DIMLFAC
 40
1.0
  9
$DIMTOFL
 70
     0
  9
$DIMTVP
 40
0.0
  9
$DIMTIX
 70
     0
  9
$DIMSOXD
 70
     0
  9
$DIMSAH
 70
     0
  9
$DIMBLK1
  1

  9
$DIMBLK2
  1

  9
$DIMSTYLE
  2
STANDARD
  9
$DIMCLRD
 70
   256
  9
$DIMCLRE
 70
   256
  9
$DIMCLRT
 70
     3
  9
$DIMTFAC
 40
1.0
  9
$DIMGAP
 40
0.09
  9
$DIMJUST
 70
     0
  9
$DIMSD1
 70
     0
  9
$DIMSD2
 70
     0
  9
$DIMTOLJ
 70
     1
  9
$DIMTZIN
 70
     0
  9
$DIMALTZ
 70
     0
  9
$DIMALTTZ
 70
     0
  9
$DIMFIT
 70
     3
  9
$DIMUPT
 70
     1
  9
$DIMUNIT
 70
     2
  9
$DIMDEC
 70
     3
  9
$DIMTDEC
 70
     3
  9
$DIMALTU
 70
     2
  9
$DIMALTTD
 70
     2
  9
$DIMTXSTY
  7
STANDARD
  9
$DIMAUNIT
 70
     0
  9
$LUNITS
 70
     2
  9
$LUPREC
 70
     3
  9
$SKETCHINC
 40
0.05
  9
$FILLETRAD
 40
0.125
  9
$AUNITS
 70
     0
  9
$AUPREC
 70
     0
  9
$MENU
  1
.
  9
$ELEVATION
 40
0.0
  9
$PELEVATION
 40
0.0
  9
$THICKNESS
 40
0.0
  9
$LIMCHECK
 70
     0
  9
$BLIPMODE
 70
     0
  9
$CHAMFERA
 40
0.5
  9
$CHAMFERB
 40
0.5
  9
$CHAMFERC
 40
1.0
  9
$CHAMFERD
 40
0.0
  9
$SKPOLY
 70
     0
  9
$TDCREATE
 40
2452465.654483564
  9
$TDUPDATE
 40
2452509.683523380
  9
$TDINDWG
 40
0.0046713079
  9
$TDUSRTIMER
 40
0.0046713079
  9
$USRTIMER
 70
     1
  9
$ANGBASE
 50
0.0
  9
$ANGDIR
 70
     0
  9
$PDMODE
 70
     0
  9
$PDSIZE
 40
0.0
  9
$PLINEWID
 40
0.0
  9
$COORDS
 70
     0
  9
$SPLFRAME
 70
     0
  9
$SPLINETYPE
 70
     6
  9
$SPLINESEGS
 70
    64
  9
$ATTDIA
 70
     0
  9
$ATTREQ
 70
     1
  9
$HANDLING
 70
 22529
  9
$HANDSEED
  5
14D3
  9
$SURFTAB1
 70
    32
  9
$SURFTAB2
 70
    32
  9
$SURFTYPE
 70
     6
  9
$SURFU
 70
     6
  9
$SURFV
 70
     6
  9
$UCSNAME
  2

  9
$UCSORG
 10
0.0
 20
0.0
 30
0.0
  9
$UCSXDIR
 10
1.0
 20
0.0
 30
0.0
  9
$UCSYDIR
 10
0.0
 20
1.0
 30
0.0
  9
$PUCSNAME
  2

  9
$PUCSORG
 10
0.0
 20
0.0
 30
0.0
  9
$PUCSXDIR
 10
1.0
 20
0.0
 30
0.0
  9
$PUCSYDIR
 10
0.0
 20
1.0
 30
0.0
  9
$USERI1
 70
     0
  9
$USERI2
 70
     0
  9
$USERI3
 70
     0
  9
$USERI4
 70
     0
  9
$USERI5
 70
     0
  9
$USERR1
 40
0.0
  9
$USERR2
 40
0.0
  9
$USERR3
 40
0.0
  9
$USERR4
 40
0.0
  9
$USERR5
 40
0.0
  9
$WORLDVIEW
 70
     1
  9
$SHADEDGE
 70
     3
  9
$SHADEDIF
 70
    70
  9
$TILEMODE
 70
     1
  9
$MAXACTVP
 70
    64
  9
$PINSBASE
 10
0.0
 20
0.0
 30
0.0
  9
$PLIMCHECK
 70
     0
  9
$PEXTMIN
 10
1.000000000000000E+20
 20
1.000000000000000E+20
 30
1.000000000000000E+20
  9
$PEXTMAX
 10
-1.000000000000000E+20
 20
-1.000000000000000E+20
 30
-1.000000000000000E+20
  9
$PLIMMIN
 10
0.0
 20
0.0
  9
$PLIMMAX
 10
12.0
 20
9.0
  9
$UNITMODE
 70
     0
  9
$VISRETAIN
 70
     1
  9
$PLINEGEN
 70
     0
  9
$PSLTSCALE
 70
     1
  9
$TREEDEPTH
 70
  3020
  9
$PICKSTYLE
 70
     1
  9
$CMLSTYLE
  2
STANDARD
  9
$CMLJUST
 70
     0
  9
$CMLSCALE
 40
1.0
  9
$PROXYGRAPHICS
 70
     1
  9
$MEASUREMENT
 70
     0
  0
ENDSEC
  0
SECTION
  2
CLASSES
  0
CLASS
  1
ACDBDICTIONARYWDFLT
  2
AcDbDictionaryWithDefault
  3
AutoCAD 2000
 90
        0
280
     0
281
     0
  0
CLASS
  1
ACDBPLACEHOLDER
  2
AcDbPlaceHolder
  3
AutoCAD 2000
 90
        0
280
     0
281
     0
  0
CLASS
  1
LAYOUT
  2
AcDbLayout
  3
AutoCAD 2000
 90
        0
280
     0
281
     0
  0
CLASS
  1
DICTIONARYVAR
  2
AcDbDictionaryVar
  3
AutoCAD 2000
 90
        0
280
     0
281
     0
  0
CLASS
  1
LONG_TRANSACTION
  2
AcDbLongTransaction
  3
AutoCAD 2000
 90
        0
280
     0
281
     0
  0
CLASS
  1
LWPOLYLINE
  2
AcDbPolyline
  3
AutoCAD 2000
 90
        0
280
     0
281
     1
  0
CLASS
  1
HATCH
  2
AcDbHatch
  3
AutoCAD 2000
 90
        0
280
     0
281
     1
  0
CLASS
  1
XRECORD
  2
AcDbXrecord
  3
AutoCAD 2000
 90
        0
280
     0
281
     0
  0
ENDSEC
  0
SECTION
  2
TABLES
  0
TABLE
  2
VPORT
  5
8
330
0
100
AcDbSymbolTable
 70
     2
  0
VPORT
  5
14AC
330
8
100
AcDbSymbolTableRecord
100
AcDbViewportTableRecord
  2
*ACTIVE
 70
     0
 10
0.0
 20
0.0
 11
1.0
 21
1.0
 12
15.75
 22
10.39999999999999
 13
0.0
 23
0.0
 14
0.5
 24
0.5
 15
5.0
 25
5.0
 16
0.0
 26
0.0
 36
1.0
 17
0.0
 27
0.0
 37
0.0
 40
21.11199999999999
 41
1.781954887218045
 42
50.0
 43
0.0
 44
0.0
 50
0.0
 51
0.0
 71
     0
 72
 15000
 73
     1
 74
     2
 75
     0
 76
     0
 77
     0
 78
     0
  0
ENDTAB
  0
TABLE
  2
LTYPE
  5
5
330
0
100
AcDbSymbolTable
 70
     2
  0
LTYPE
  5
14
330
5
100
AcDbSymbolTableRecord
100
AcDbLinetypeTableRecord
  2
BYBLOCK
 70
     0
  3

 72
    65
 73
     0
 40
0.0
  0
LTYPE
  5
15
330
5
100
AcDbSymbolTableRecord
100
AcDbLinetypeTableRecord
  2
BYLAYER
 70
     0
  3

 72
    65
 73
     0
 40
0.0
  0
LTYPE
  5
16
330
5
100
AcDbSymbolTableRecord
100
AcDbLinetypeTableRecord
  2
CONTINUOUS
 70
     0
  3
Solid line
 72
    65
 73
     0
 40
0.0
  0
LTYPE
  5
1310
330
5
100
AcDbSymbolTableRecord
100
AcDbLinetypeTableRecord
  2
CENTER2
 70
     0
  3
___ _ ___ _ ___ _ ___ _ ___ _ ___ _ ___ _ ___ _
 72
    65
 73
     4
 40
1.125
 49
0.75
 74
     0
 49
-0.125
 74
     0
 49
0.125
 74
     0
 49
-0.125
 74
     0
  0
ENDTAB
  0
TABLE
  2
LAYER
  5
2
330
0
100
AcDbSymbolTable
 70
    10
  0
LAYER
  5
10
330
2
100
AcDbSymbolTableRecord
100
AcDbLayerTableRecord
  2
0
 70
     0
 62
     7
  6
CONTINUOUS
  0
LAYER
  5
62
330
2
100
AcDbSymbolTableRecord
100
AcDbLayerTableRecord
  2
OBJECT1
 70
     0
 62
     7
  6
CONTINUOUS
  0
LAYER
  5
63
330
2
100
AcDbSymbolTableRecord
100
AcDbLayerTableRecord
  2
OBJECT2
 70
     0
 62
     8
  6
CONTINUOUS
  0
LAYER
  5
65
330
2
100
AcDbSymbolTableRecord
100
AcDbLayerTableRecord
  2
TEXT
 70
     0
 62
     7
  6
CONTINUOUS
  0
LAYER
  5
1311
330
2
100
AcDbSymbolTableRecord
100
AcDbLayerTableRecord
  2
BORDER
 70
     0
 62
     1
  6
CONTINUOUS
  0
LAYER
  5
1312
330
2
100
AcDbSymbolTableRecord
100
AcDbLayerTableRecord
  2
DIMENSION
 70
     0
 62
     5
  6
CONTINUOUS
  0
LAYER
  5
1313
330
2
100
AcDbSymbolTableRecord
100
AcDbLayerTableRecord
  2
OBJECT3
 70
     0
 62
     3
  6
CONTINUOUS
  0
LAYER
  5
1314
330
2
100
AcDbSymbolTableRecord
100
AcDbLayerTableRecord
  2
HATCH
 70
     0
 62
     8
  6
CONTINUOUS
  0
LAYER
  5
1315
330
2
100
AcDbSymbolTableRecord
100
AcDbLayerTableRecord
  2
CENTER
 70
     0
 62
     5
  6
CENTER2
  0
LAYER
  5
1316
330
2
100
AcDbSymbolTableRecord
100
AcDbLayerTableRecord
  2
OBJECT4
 70
     0
 62
     5
  6
CONTINUOUS
  0
ENDTAB
  0
TABLE
  2
STYLE
  5
3
330
0
100
AcDbSymbolTable
 70
     4
  0
STYLE
  5
11
330
3
100
AcDbSymbolTableRecord
100
AcDbTextStyleTableRecord
  2
STANDARD
 70
     0
 40
0.0
 41
1.0
 50
0.0
 71
     0
 42
0.125
  3
romans.shx
  4

  0
STYLE
  5
B3
330
3
100
AcDbSymbolTableRecord
100
AcDbTextStyleTableRecord
  2
ROMANS
 70
     0
 40
0.0
 41
1.0
 50
0.0
 71
     0
 42
0.125
  3
romans.shx
  4

  0
STYLE
  5
1317
330
3
100
AcDbSymbolTableRecord
100
AcDbTextStyleTableRecord
  2
ROMAND
 70
     0
 40
0.125
 41
0.95
 50
0.0
 71
     0
 42
0.125
  3
romand
  4

  0
STYLE
  5
1318
330
3
100
AcDbSymbolTableRecord
100
AcDbTextStyleTableRecord
  2
ROMANC
 70
     0
 40
0.0
 41
0.95
 50
15.0
 71
     0
 42
0.2
  3
romanc
  4

  0
ENDTAB
  0
TABLE
  2
VIEW
  5
6
330
0
100
AcDbSymbolTable
 70
     0
  0
ENDTAB
  0
TABLE
  2
UCS
  5
7
330
0
100
AcDbSymbolTable
 70
     0
  0
ENDTAB
  0
TABLE
  2
APPID
  5
9
330
0
100
AcDbSymbolTable
 70
     1
  0
APPID
  5
12
330
9
100
AcDbSymbolTableRecord
100
AcDbRegAppTableRecord
  2
ACAD
 70
     0
  0
ENDTAB
  0
TABLE
  2
DIMSTYLE
  5
A
330
0
100
AcDbSymbolTable
 70
     4
  0
DIMSTYLE
105
99
330
A
100
AcDbSymbolTableRecord
100
AcDbDimStyleTableRecord
  2
STANDARD
 70
     0
  3

  4

  5

  6

  7

 40
1.0
 41
0.125
 42
0.0625
 43
0.38
 44
0.09
 45
0.0
 46
0.0
 47
0.0
 48
0.0
140
0.125
141
0.04
142
0.0
143
25.4
144
1.0
145
0.0
146
1.0
147
0.09
 71
     0
 72
     0
 73
     1
 74
     1
 75
     0
 76
     0
 77
     0
 78
     0
170
     0
171
     2
172
     0
173
     0
174
     0
175
     0
176
   256
177
   256
178
     3
270
     2
271
     3
272
     3
273
     2
274
     2
340
11
275
     0
280
     0
281
     0
282
     0
283
     1
284
     0
285
     0
286
     0
287
     3
288
     1
  0
DIMSTYLE
105
1319
330
A
100
AcDbSymbolTableRecord
100
AcDbDimStyleTableRecord
  2
WILKINS_2_TO_1_SCALE
 70
     0
  3

  4

  5

  6

  7

 40
1.0
 41
0.125
 42
0.0625
 43
0.38
 44
0.09
 45
0.0
 46
0.0
 47
0.0
 48
0.0
140
0.125
141
0.04
142
0.0
143
25.4
144
0.5
145
0.0
146
1.0
147
0.09
 71
     0
 72
     0
 73
     1
 74
     1
 75
     0
 76
     0
 77
     0
 78
     0
170
     0
171
     2
172
     0
173
     0
174
     0
175
     0
176
   256
177
   256
178
     3
270
     2
271
     3
272
     3
273
     2
274
     2
340
11
275
     0
280
     0
281
     0
282
     0
283
     1
284
     0
285
     0
286
     0
287
     3
288
     1
  0
DIMSTYLE
105
131A
330
A
100
AcDbSymbolTableRecord
100
AcDbDimStyleTableRecord
  2
WILKINS_CAST__2_PLCS_
 70
     0
  3

  4

  5

  6

  7

 40
1.0
 41
0.125
 42
0.0625
 43
0.38
 44
0.09
 45
0.0
 46
0.0
 47
0.0
 48
0.0
140
0.125
141
0.04
142
0.0
143
25.4
144
1.0
145
0.0
146
1.0
147
0.09
 71
     0
 72
     0
 73
     1
 74
     1
 75
     0
 76
     0
 77
     0
 78
     0
170
     0
171
     2
172
     0
173
     0
174
     0
175
     0
176
   256
177
   256
178
     3
270
     2
271
     2
272
     2
273
     2
274
     2
340
11
275
     0
280
     0
281
     0
282
     0
283
     1
284
     0
285
     0
286
     0
287
     3
288
     1
  0
DIMSTYLE
105
131B
330
A
100
AcDbSymbolTableRecord
100
AcDbDimStyleTableRecord
  2
WILKINS_MACH__3_PLCS_
 70
     0
  3

  4

  5

  6

  7

 40
1.0
 41
0.125
 42
0.0625
 43
0.38
 44
0.09
 45
0.0
 46
0.0
 47
0.0
 48
0.0
140
0.125
141
0.04
142
0.0
143
25.4
144
1.0
145
0.0
146
1.0
147
0.09
 71
     0
 72
     0
 73
     1
 74
     1
 75
     0
 76
     0
 77
     0
 78
     0
170
     0
171
     2
172
     0
173
     0
174
     0
175
     0
176
   256
177
   256
178
     3
270
     2
271
     3
272
     3
273
     2
274
     2
340
11
275
     0
280
     0
281
     0
282
     0
283
     1
284
     0
285
     0
286
     0
287
     3
288
     1
  0
ENDTAB
  0
TABLE
  2
BLOCK_RECORD
  5
1
330
0
100
AcDbSymbolTable
 70
     7
  0
BLOCK_RECORD
  5
1F
102
{ACAD_XDICTIONARY
360
14CF
102
}
330
1
100
AcDbSymbolTableRecord
100
AcDbBlockTableRecord
  2
*MODEL_SPACE
  0
BLOCK_RECORD
  5
1B
102
{ACAD_XDICTIONARY
360
14CD
102
}
330
1
100
AcDbSymbolTableRecord
100
AcDbBlockTableRecord
  2
*PAPER_SPACE
  0
BLOCK_RECORD
  5
6B
330
1
100
AcDbSymbolTableRecord
100
AcDbBlockTableRecord
  2
MARKINS
  0
BLOCK_RECORD
  5
277
330
1
100
AcDbSymbolTableRecord
100
AcDbBlockTableRecord
  2
*X2
  0
BLOCK_RECORD
  5
2E2
330
1
100
AcDbSymbolTableRecord
100
AcDbBlockTableRecord
  2
*X3
  0
BLOCK_RECORD
  5
2F2
330
1
100
AcDbSymbolTableRecord
100
AcDbBlockTableRecord
  2
*X4
  0
BLOCK_RECORD
  5
882
330
1
100
AcDbSymbolTableRecord
100
AcDbBlockTableRecord
  2
SPECSHEET_FLOWARROW
  0
BLOCK_RECORD
  5
131C
330
1
100
AcDbSymbolTableRecord
100
AcDbBlockTableRecord
  2
-D
  0
ENDTAB
  0
ENDSEC
  0
SECTION
  2
BLOCKS
  0
BLOCK
  5
20
330
1F
100
AcDbEntity
  8
0
100
AcDbBlockBegin
  2
*MODEL_SPACE
 70
     0
 10
0.0
 20
0.0
 30
0.0
  3
*MODEL_SPACE
  1

  0
ENDBLK
  5
21
330
1F
100
AcDbEntity
  8
0
100
AcDbBlockEnd
  0
BLOCK
  5
1C
330
1B
100
AcDbEntity
 67
     1
  8
0
100
AcDbBlockBegin
  2
*PAPER_SPACE
 70
     0
 10
0.0
 20
0.0
 30
0.0
  3
*PAPER_SPACE
  1

  0
ENDBLK
  5
1D
330
1B
100
AcDbEntity
 67
     1
  8
0
100
AcDbBlockEnd
  0
BLOCK
  5
6C
330
6B
100
AcDbEntity
  8
0
100
AcDbBlockBegin
  2
MARKINS
 70
     0
 10
0.0
 20
0.0
 30
0.0
  3
MARKINS
  1

  0
ENDBLK
  5
6D
330
6B
100
AcDbEntity
  8
0
100
AcDbBlockEnd
  0
BLOCK
  5
2E0
330
277
100
AcDbEntity
  8
0
100
AcDbBlockBegin
  2
*X2
 70
     1
 10
0.0
 20
0.0
 30
0.0
  3
*X2
  1

  0
LINE
  5
278
330
277
100
AcDbEntity
  8
0
 62
     0
100
AcDbLine
 10
-12.04024723808596
 20
-87.75297065545721
 30
0.0
 11
-11.55815653082106
 21
-87.17843732311798
 31
0.0
  0
LINE
  5
279
330
277
100
AcDbEntity
  8
0
 62
     0
100
AcDbLine
 10
-6.255158750907113
 20
-80.85857066738642
 30
0.0
 11
-5.773068043642208
 21
-80.28403733504719
 31
0.0
  0
LINE
  5
27A
330
277
100
AcDbEntity
  8
0
 62
     0
100
AcDbLine
 10
-4.867645412078432
 20
-88.38049200528317
 30
0.0
 11
-4.385554704813527
 21
-87.80595867294394
 31
0.0
  0
LINE
  5
27B
330
277
100
AcDbEntity
  8
0
 62
     0
100
AcDbLine
 10
0.9174430751004232
 20
-81.48609201721237
 30
0.0
 11
1.399533782365327
 21
-80.91155868487314
 31
0.0
  0
LINE
  5
27C
330
277
100
AcDbEntity
  8
0
 62
     0
100
AcDbLine
 10
2.304956413929104
 20
-89.00801335510912
 30
0.0
 11
2.787047121194009
 21
-88.43348002276989
 31
0.0
  0
LINE
  5
27D
330
277
100
AcDbEntity
  8
0
 62
     0
100
AcDbLine
 10
-13.42776057691466
 20
-80.23104931756048
 30
0.0
 11
-12.94566986964975
 21
-79.65651598522125
 31
0.0
  0
LINE
  5
27E
330
277
100
AcDbEntity
  8
0
 62
     0
100
AcDbLine
 10
-13.42776060761225
 20
-80.23104931586875
 30
0.0
 11
-12.8300437887572
 21
-80.28334276151735
 31
0.0
  0
LINE
  5
27F
330
277
100
AcDbEntity
  8
0
 62
     0
100
AcDbLine
 10
-6.255158781351683
 20
-80.85857066365189
 30
0.0
 11
-5.657441962496636
 21
-80.91086410930049
 31
0.0
  0
LINE
  5
280
330
277
100
AcDbEntity
  8
0
 62
     0
100
AcDbLine
 10
0.9174430449088838
 20
-81.48609201143504
 30
0.0
 11
1.515159863763931
 21
-81.53838545708364
 31
0.0
  0
LINE
  5
281
330
277
100
AcDbEntity
  8
0
 62
     0
100
AcDbLine
 10
-12.04024727148225
 20
-87.75297065286885
 30
0.0
 11
-11.4425304526272
 21
-87.80526409851745
 31
0.0
  0
LINE
  5
282
330
277
100
AcDbEntity
  8
0
 62
     0
100
AcDbLine
 10
-4.867645445221683
 20
-88.38049200065199
 30
0.0
 11
-4.269928626366636
 21
-88.43278544630059
 31
0.0
  0
LINE
  5
283
330
277
100
AcDbEntity
  8
0
 62
     0
100
AcDbLine
 10
2.304956381038884
 20
-89.00801334843514
 30
0.0
 11
2.902673199893931
 21
-89.06030679408374
 31
0.0
  0
LINE
  5
284
330
277
100
AcDbEntity
  8
0
 62
     0
100
AcDbLine
 10
2.902603785712877
 20
-89.06030826950727
 30
0.0
 11
2.786978167205293
 21
-88.43348142063403
 31
0.0
  0
LINE
  5
285
330
277
100
AcDbEntity
  8
0
 62
     0
100
AcDbLine
 10
1.515096323713546
 20
-81.53838586667845
 30
0.0
 11
1.399470705205961
 21
-80.91155901780522
 31
0.0
  0
LINE
  5
286
330
277
100
AcDbEntity
  8
0
 62
     0
100
AcDbLine
 10
-4.269997493426672
 20
-88.43278128728798
 30
0.0
 11
-4.385623111934256
 21
-87.80595443841475
 31
0.0
  0
LINE
  5
287
330
277
100
AcDbEntity
  8
0
 62
     0
100
AcDbLine
 10
-5.657504955426003
 20
-80.91085888445915
 30
0.0
 11
-5.773130573933587
 21
-80.28403203558593
 31
0.0
  0
LINE
  5
288
330
277
100
AcDbEntity
  8
0
 62
     0
100
AcDbLine
 10
-11.44259877256622
 20
-87.8052543050687
 30
0.0
 11
-11.5582243910738
 21
-87.17842745619547
 31
0.0
  0
LINE
  5
289
330
277
100
AcDbEntity
  8
0
 62
     0
100
AcDbLine
 10
-12.83010623456555
 20
-80.28333190223987
 30
0.0
 11
-12.94573185307313
 21
-79.65650505336665
 31
0.0
  0
LINE
  5
28A
330
277
100
AcDbEntity
  8
0
 62
     0
100
AcDbLine
 10
-10.73849269642157
 20
-85.8606289162703
 30
0.0
 11
-9.959607742109486
 21
-85.04886341568145
 31
0.0
  0
LINE
  5
28B
330
277
100
AcDbEntity
  8
0
 62
     0
100
AcDbLine
 10
-0.0660822101651171
 20
-87.51581905956049
 30
0.0
 11
0.7128027441469689
 21
-86.70405355897164
 31
0.0
  0
LINE
  5
28C
330
277
100
AcDbEntity
  8
0
 62
     0
100
AcDbLine
 10
0.8232139873888973
 20
-87.65374040934572
 30
0.0
 11
0.7127321427246704
 21
-86.70404231039855
 31
0.0
  0
LINE
  5
28D
330
277
100
AcDbEntity
  8
0
 62
     0
100
AcDbLine
 10
-9.849195009937552
 20
-85.99854359972997
 30
0.0
 11
-9.959676854601779
 21
-85.04884550078278
 31
0.0
  0
LINE
  5
28E
330
277
100
AcDbEntity
  8
0
 62
     0
100
AcDbLine
 10
-10.73849268965569
 20
-85.86062891557407
 30
0.0
 11
-9.849125149085768
 21
-85.99856142726222
 31
0.0
  0
LINE
  5
28F
330
277
100
AcDbEntity
  8
0
 62
     0
100
AcDbLine
 10
-0.0660822028166162
 20
-87.51581905583208
 30
0.0
 11
0.8232853377533068
 21
-87.65375156752025
 31
0.0
  0
LINE
  5
290
330
277
100
AcDbEntity
  8
0
 62
     0
100
AcDbLine
 10
-13.82654544782294
 20
-86.31888279147876
 30
0.0
 11
-13.12636012795004
 21
-86.05010682931979
 31
0.0
  0
LINE
  5
291
330
277
100
AcDbEntity
  8
0
 62
     0
100
AcDbLine
 10
-5.424321609348125
 20
-83.09357124557106
 30
0.0
 11
-4.724136289475224
 21
-82.82479528341209
 31
0.0
  0
LINE
  5
292
330
277
100
AcDbEntity
  8
0
 62
     0
100
AcDbLine
 10
2.977902229126689
 20
-79.86825969966336
 30
0.0
 11
3.67808754899959
 21
-79.59948373750439
 31
0.0
  0
LINE
  5
293
330
277
100
AcDbEntity
  8
0
 62
     0
100
AcDbLine
 10
-7.857474926638329
 20
-90.34507169813213
 30
0.0
 11
-7.157289606765428
 21
-90.07629573597316
 31
0.0
  0
LINE
  5
294
330
277
100
AcDbEntity
  8
0
 62
     0
100
AcDbLine
 10
0.5447489118364858
 20
-87.11976015222443
 30
0.0
 11
1.244934231709386
 21
-86.85098419006546
 31
0.0
  0
LINE
  5
295
330
277
100
AcDbEntity
  8
0
 62
     0
100
AcDbLine
 10
6.513819433021116
 20
-91.14594905887781
 30
0.0
 11
6.822030058522719
 21
-91.02763808453197
 31
0.0
  0
LINE
  5
296
330
277
100
AcDbEntity
  8
0
 62
     0
100
AcDbLine
 10
-11.39339213053274
 20
-79.06738233891767
 30
0.0
 11
-11.08995422277851
 21
-78.95090343926442
 31
0.0
  0
LINE
  5
297
330
277
100
AcDbEntity
  8
0
 62
     0
100
AcDbLine
 10
-11.39339214736554
 20
-79.06738231466405
 30
0.0
 11
-10.89596960383252
 21
-79.40289805674651
 31
0.0
  0
LINE
  5
298
330
277
100
AcDbEntity
  8
0
 62
     0
100
AcDbLine
 10
-5.424321624969243
 20
-83.09357121965344
 30
0.0
 11
-4.926899081436218
 21
-83.42908696173589
 31
0.0
  0
LINE
  5
299
330
277
100
AcDbEntity
  8
0
 62
     0
100
AcDbLine
 10
0.5447488974270591
 20
-87.11976012464281
 30
0.0
 11
1.042171440960084
 21
-87.45527586672528
 31
0.0
  0
LINE
  5
29A
330
277
100
AcDbEntity
  8
0
 62
     0
100
AcDbLine
 10
6.513819419823361
 20
-91.1459490296322
 30
0.0
 11
6.822030058522725
 21
-91.35383973041637
 31
0.0
  0
LINE
  5
29B
330
277
100
AcDbEntity
  8
0
 62
     0
100
AcDbLine
 10
2.977902216642874
 20
-79.86825967417427
 30
0.0
 11
3.4753247601759
 21
-80.20377541625672
 31
0.0
  0
LINE
  5
29C
330
277
100
AcDbEntity
  8
0
 62
     0
100
AcDbLine
 10
-13.82654546658136
 20
-86.31888276513258
 30
0.0
 11
-13.32912292304834
 21
-86.65439850721503
 31
0.0
  0
LINE
  5
29D
330
277
100
AcDbEntity
  8
0
 62
     0
100
AcDbLine
 10
-7.857474944185064
 20
-90.34507167012197
 30
0.0
 11
-7.360052400652039
 21
-90.68058741220442
 31
0.0
  0
LINE
  5
29E
330
277
100
AcDbEntity
  8
0
 62
     0
100
AcDbLine
 10
-7.360124442539095
 20
-90.68058064629704
 30
0.0
 11
-7.15736120057357
 21
-90.07628911910902
 31
0.0
  0
LINE
  5
29F
330
277
100
AcDbEntity
  8
0
 62
     0
100
AcDbLine
 10
-4.926965468968824
 20
-83.42908211146879
 30
0.0
 11
-4.724202227003299
 21
-82.82479058428076
 31
0.0
  0
LINE
  5
2A0
330
277
100
AcDbEntity
  8
0
 62
     0
100
AcDbLine
 10
1.042101843275802
 20
-87.45527567919753
 30
0.0
 11
1.244865085241328
 21
-86.8509841520095
 31
0.0
  0
LINE
  5
2A1
330
277
100
AcDbEntity
  8
0
 62
     0
100
AcDbLine
 10
3.475260816846073
 20
-80.20377714436927
 30
0.0
 11
3.678024058811599
 21
-79.59948561718125
 31
0.0
  0
LINE
  5
2A2
330
277
100
AcDbEntity
  8
0
 62
     0
100
AcDbLine
 10
-13.32919175478372
 20
-86.65438707856832
 30
0.0
 11
-13.1264285128182
 21
-86.0500955513803
 31
0.0
  0
LINE
  5
2A3
330
277
100
AcDbEntity
  8
0
 62
     0
100
AcDbLine
 10
-10.89603278121345
 20
-79.40288854374006
 30
0.0
 11
-10.74437425055347
 21
-78.95090343926442
 31
0.0
  0
LINE
  5
2A4
330
277
100
AcDbEntity
  8
0
 62
     0
100
AcDbLine
 10
-13.61139708870336
 20
-91.33520949936908
 30
0.0
 11
-13.61139708870336
 21
-91.33520949936908
 31
0.0
  0
LINE
  5
2A5
330
277
100
AcDbEntity
  8
0
 62
     0
100
AcDbLine
 10
-8.29592970875209
 20
-87.25650792501065
 30
0.0
 11
-8.29592970875209
 21
-87.25650792501065
 31
0.0
  0
LINE
  5
2A6
330
277
100
AcDbEntity
  8
0
 62
     0
100
AcDbLine
 10
-3.039963829322657
 20
-83.22346345782788
 30
0.0
 11
-3.039963829322657
 21
-83.22346345782788
 31
0.0
  0
LINE
  5
2A7
330
277
100
AcDbEntity
  8
0
 62
     0
100
AcDbLine
 10
2.132699949376195
 20
-79.25433894069101
 30
0.0
 11
2.132699949376195
 21
-79.25433894069101
 31
0.0
  0
LINE
  5
2A8
330
277
100
AcDbEntity
  8
0
 62
     0
100
AcDbLine
 10
-13.48979853553046
 20
-88.00627096105596
 30
0.0
 11
-13.48979853553046
 21
-88.00627096105596
 31
0.0
  0
LINE
  5
2A9
330
277
100
AcDbEntity
  8
0
 62
     0
100
AcDbLine
 10
-8.17433115557919
 20
-83.92756938669753
 30
0.0
 11
-8.17433115557919
 21
-83.92756938669753
 31
0.0
  0
LINE
  5
2AA
330
277
100
AcDbEntity
  8
0
 62
     0
100
AcDbLine
 10
-2.918365276149757
 20
-79.89452491951475
 30
0.0
 11
-2.918365276149757
 21
-79.89452491951475
 31
0.0
  0
LINE
  5
2AB
330
277
100
AcDbEntity
  8
0
 62
     0
100
AcDbLine
 10
-13.36819998235755
 20
-84.67733242274285
 30
0.0
 11
-13.36819998235755
 21
-84.67733242274285
 31
0.0
  0
LINE
  5
2AC
330
277
100
AcDbEntity
  8
0
 62
     0
100
AcDbLine
 10
-8.052732602406281
 20
-80.59863084838442
 30
0.0
 11
-8.052732602406281
 21
-80.59863084838442
 31
0.0
  0
LINE
  5
2AD
330
277
100
AcDbEntity
  8
0
 62
     0
100
AcDbLine
 10
-13.24660142918465
 20
-81.34839388442973
 30
0.0
 11
-13.24660142918465
 21
-81.34839388442973
 31
0.0
  0
LINE
  5
2AE
330
277
100
AcDbEntity
  8
0
 62
     0
100
AcDbLine
 10
-8.417528261925001
 20
-90.58544646332377
 30
0.0
 11
-8.417528261925001
 21
-90.58544646332377
 31
0.0
  0
LINE
  5
2AF
330
277
100
AcDbEntity
  8
0
 62
     0
100
AcDbLine
 10
-3.161562382495568
 20
-86.55240199614098
 30
0.0
 11
-3.161562382495568
 21
-86.55240199614098
 31
0.0
  0
LINE
  5
2B0
330
277
100
AcDbEntity
  8
0
 62
     0
100
AcDbLine
 10
2.011101396203284
 20
-82.58327747900413
 30
0.0
 11
2.011101396203284
 21
-82.58327747900413
 31
0.0
  0
LINE
  5
2B1
330
277
100
AcDbEntity
  8
0
 62
     0
100
AcDbLine
 10
-3.283160935668471
 20
-89.8813405344541
 30
0.0
 11
-3.283160935668471
 21
-89.8813405344541
 31
0.0
  0
LINE
  5
2B2
330
277
100
AcDbEntity
  8
0
 62
     0
100
AcDbLine
 10
1.889502843030381
 20
-85.91221601731723
 30
0.0
 11
1.889502843030381
 21
-85.91221601731723
 31
0.0
  0
LINE
  5
2B3
330
277
100
AcDbEntity
  8
0
 62
     0
100
AcDbLine
 10
1.767904289857471
 20
-89.24115455563036
 30
0.0
 11
1.767904289857471
 21
-89.24115455563036
 31
0.0
  0
LINE
  5
2B4
330
277
100
AcDbEntity
  8
0
 62
     0
100
AcDbLine
 10
-12.58450623719106
 20
-84.40571023198666
 30
0.0
 11
-12.58450623719106
 21
-84.40571023198666
 31
0.0
  0
LINE
  5
2B5
330
277
100
AcDbEntity
  8
0
 62
     0
100
AcDbLine
 10
-10.08110796222219
 20
-84.07613159663103
 30
0.0
 11
-10.08110796222219
 21
-84.07613159663103
 31
0.0
  0
LINE
  5
2B6
330
277
100
AcDbEntity
  8
0
 62
     0
100
AcDbLine
 10
-6.293788591774235
 20
-83.57752154235043
 30
0.0
 11
-6.293788591774235
 21
-83.57752154235043
 31
0.0
  0
LINE
  5
2B7
330
277
100
AcDbEntity
  8
0
 62
     0
100
AcDbLine
 10
0.0217151751769363
 20
-82.74606969790871
 30
0.0
 11
0.0217151751769363
 21
-82.74606969790871
 31
0.0
  0
LINE
  5
2B8
330
277
100
AcDbEntity
  8
0
 62
     0
100
AcDbLine
 10
2.525113450145807
 20
-82.41649106255307
 30
0.0
 11
2.525113450145807
 21
-82.41649106255307
 31
0.0
  0
LINE
  5
2B9
330
277
100
AcDbEntity
  8
0
 62
     0
100
AcDbLine
 10
6.312432820593762
 20
-81.91788100827249
 30
0.0
 11
6.312432820593762
 21
-81.91788100827249
 31
0.0
  0
LINE
  5
2BA
330
277
100
AcDbEntity
  8
0
 62
     0
100
AcDbLine
 10
-9.95381086276957
 20
-80.46159311316305
 30
0.0
 11
-9.95381086276957
 21
-80.46159311316305
 31
0.0
  0
LINE
  5
2BB
330
277
100
AcDbEntity
  8
0
 62
     0
100
AcDbLine
 10
-7.450412587800698
 20
-80.13201447780742
 30
0.0
 11
-7.450412587800698
 21
-80.13201447780742
 31
0.0
  0
LINE
  5
2BC
330
277
100
AcDbEntity
  8
0
 62
     0
100
AcDbLine
 10
-3.663093217352743
 20
-79.63340442352683
 30
0.0
 11
-3.663093217352743
 21
-79.63340442352683
 31
0.0
  0
LINE
  5
2BD
330
277
100
AcDbEntity
  8
0
 62
     0
100
AcDbLine
 10
-15.21520161161254
 20
-88.34982735081025
 30
0.0
 11
-15.21520161161254
 21
-88.34982735081025
 31
0.0
  0
LINE
  5
2BE
330
277
100
AcDbEntity
  8
0
 62
     0
100
AcDbLine
 10
-12.71180333664367
 20
-88.02024871545462
 30
0.0
 11
-12.71180333664367
 21
-88.02024871545462
 31
0.0
  0
LINE
  5
2BF
330
277
100
AcDbEntity
  8
0
 62
     0
100
AcDbLine
 10
-8.924483966195714
 20
-87.52163866117404
 30
0.0
 11
-8.924483966195714
 21
-87.52163866117404
 31
0.0
  0
LINE
  5
2C0
330
277
100
AcDbEntity
  8
0
 62
     0
100
AcDbLine
 10
-2.608980199244541
 20
-86.69018681673231
 30
0.0
 11
-2.608980199244541
 21
-86.69018681673231
 31
0.0
  0
LINE
  5
2C1
330
277
100
AcDbEntity
  8
0
 62
     0
100
AcDbLine
 10
-0.1055819242756705
 20
-86.36060818137668
 30
0.0
 11
-0.1055819242756705
 21
-86.36060818137668
 31
0.0
  0
LINE
  5
2C2
330
277
100
AcDbEntity
  8
0
 62
     0
100
AcDbLine
 10
3.681737446172284
 20
-85.86199812709608
 30
0.0
 11
3.681737446172284
 21
-85.86199812709608
 31
0.0
  0
LINE
  5
2C3
330
277
100
AcDbEntity
  8
0
 62
     0
100
AcDbLine
 10
-11.55517934061722
 20
-91.46575577999762
 30
0.0
 11
-11.55517934061722
 21
-91.46575577999762
 31
0.0
  0
LINE
  5
2C4
330
277
100
AcDbEntity
  8
0
 62
     0
100
AcDbLine
 10
-5.239675573666048
 20
-90.6343039355559
 30
0.0
 11
-5.239675573666048
 21
-90.6343039355559
 31
0.0
  0
LINE
  5
2C5
330
277
100
AcDbEntity
  8
0
 62
     0
100
AcDbLine
 10
-2.736277298697177
 20
-90.30472530020025
 30
0.0
 11
-2.736277298697177
 21
-90.30472530020025
 31
0.0
  0
LINE
  5
2C6
330
277
100
AcDbEntity
  8
0
 62
     0
100
AcDbLine
 10
1.051042071750778
 20
-89.80611524591967
 30
0.0
 11
1.051042071750778
 21
-89.80611524591967
 31
0.0
  0
LINE
  5
2C7
330
277
100
AcDbEntity
  8
0
 62
     0
100
AcDbLine
 10
-7.033790918261745
 20
-82.67207993061276
 30
0.0
 11
-7.033790918261745
 21
-82.67207993061276
 31
0.0
  0
LINE
  5
2C8
330
277
100
AcDbEntity
  8
0
 62
     0
100
AcDbLine
 10
-4.925312303729531
 20
-84.01532895147983
 30
0.0
 11
-4.925312303729531
 21
-84.01532895147983
 31
0.0
  0
LINE
  5
2C9
330
277
100
AcDbEntity
  8
0
 62
     0
100
AcDbLine
 10
1.653140973610976
 20
-88.20626589658505
 30
0.0
 11
1.653140973610976
 21
-88.20626589658505
 31
0.0
  0
LINE
  5
2CA
330
277
100
AcDbEntity
  8
0
 62
     0
100
AcDbLine
 10
-1.695566556537652
 20
-82.89762864795656
 30
0.0
 11
-1.695566556537652
 21
-82.89762864795656
 31
0.0
  0
LINE
  5
2CB
330
277
100
AcDbEntity
  8
0
 62
     0
100
AcDbLine
 10
0.4129120579945613
 20
-84.24087766882363
 30
0.0
 11
0.4129120579945613
 21
-84.24087766882363
 31
0.0
  0
LINE
  5
2CC
330
277
100
AcDbEntity
  8
0
 62
     0
100
AcDbLine
 10
3.64265780518643
 20
-83.12317736530037
 30
0.0
 11
3.64265780518643
 21
-83.12317736530037
 31
0.0
  0
LINE
  5
2CD
330
277
100
AcDbEntity
  8
0
 62
     0
100
AcDbLine
 10
5.751136419718644
 20
-84.46642638616742
 30
0.0
 11
5.751136419718644
 21
-84.46642638616742
 31
0.0
  0
LINE
  5
2CE
330
277
100
AcDbEntity
  8
0
 62
     0
100
AcDbLine
 10
-12.37201527998584
 20
-82.44653121326896
 30
0.0
 11
-12.37201527998584
 21
-82.44653121326896
 31
0.0
  0
LINE
  5
2CF
330
277
100
AcDbEntity
  8
0
 62
     0
100
AcDbLine
 10
-10.26353666545362
 20
-83.78978023413601
 30
0.0
 11
-10.26353666545362
 21
-83.78978023413601
 31
0.0
  0
LINE
  5
2D0
330
277
100
AcDbEntity
  8
0
 62
     0
100
AcDbLine
 10
-3.68508338811312
 20
-87.98071717924123
 30
0.0
 11
-3.68508338811312
 21
-87.98071717924123
 31
0.0
  0
LINE
  5
2D1
330
277
100
AcDbEntity
  8
0
 62
     0
100
AcDbLine
 10
-15.60176102717773
 20
-83.56423151679221
 30
0.0
 11
-15.60176102717773
 21
-83.56423151679221
 31
0.0
  0
LINE
  5
2D2
330
277
100
AcDbEntity
  8
0
 62
     0
100
AcDbLine
 10
-9.02330774983722
 20
-87.75516846189743
 30
0.0
 11
-9.02330774983722
 21
-87.75516846189743
 31
0.0
  0
LINE
  5
2D3
330
277
100
AcDbEntity
  8
0
 62
     0
100
AcDbLine
 10
-14.36153211156127
 20
-87.52961974455367
 30
0.0
 11
-14.36153211156127
 21
-87.52961974455367
 31
0.0
  0
LINE
  5
2D4
330
277
100
AcDbEntity
  8
0
 62
     0
100
AcDbLine
 10
-6.842632420694767
 20
-79.17419673500289
 30
0.0
 11
-6.842632420694767
 21
-79.17419673500289
 31
0.0
  0
LINE
  5
2D5
330
277
100
AcDbEntity
  8
0
 62
     0
100
AcDbLine
 10
-3.023535816018325
 20
-82.67375401045201
 30
0.0
 11
-3.023535816018325
 21
-82.67375401045201
 31
0.0
  0
LINE
  5
2D6
330
277
100
AcDbEntity
  8
0
 62
     0
100
AcDbLine
 10
2.395452609536086
 20
-87.63934203642712
 30
0.0
 11
2.395452609536086
 21
-87.63934203642712
 31
0.0
  0
LINE
  5
2D7
330
277
100
AcDbEntity
  8
0
 62
     0
100
AcDbLine
 10
4.79160395416899
 20
-89.83501021117801
 30
0.0
 11
4.79160395416899
 21
-89.83501021117801
 31
0.0
  0
LINE
  5
2D8
330
277
100
AcDbEntity
  8
0
 62
     0
100
AcDbLine
 10
2.808325877405536
 20
-81.67270418712885
 30
0.0
 11
2.808325877405536
 21
-81.67270418712885
 31
0.0
  0
LINE
  5
2D9
330
277
100
AcDbEntity
  8
0
 62
     0
100
AcDbLine
 10
-12.67449411411861
 20
-80.17524655832607
 30
0.0
 11
-12.67449411411861
 21
-80.17524655832607
 31
0.0
  0
LINE
  5
2DA
330
277
100
AcDbEntity
  8
0
 62
     0
100
AcDbLine
 10
-8.855397509442173
 20
-83.6748038337752
 30
0.0
 11
-8.855397509442173
 21
-83.6748038337752
 31
0.0
  0
LINE
  5
2DB
330
277
100
AcDbEntity
  8
0
 62
     0
100
AcDbLine
 10
-3.436409083887761
 20
-88.6403918597503
 30
0.0
 11
-3.436409083887761
 21
-88.6403918597503
 31
0.0
  0
LINE
  5
2DC
330
277
100
AcDbEntity
  8
0
 62
     0
100
AcDbLine
 10
-1.040257739254858
 20
-90.83606003450119
 30
0.0
 11
-1.040257739254858
 21
-90.83606003450119
 31
0.0
  0
LINE
  5
2DD
330
277
100
AcDbEntity
  8
0
 62
     0
100
AcDbLine
 10
-14.68725920286605
 20
-84.67585365709837
 30
0.0
 11
-14.68725920286605
 21
-84.67585365709837
 31
0.0
  0
LINE
  5
2DE
330
277
100
AcDbEntity
  8
0
 62
     0
100
AcDbLine
 10
-9.268270777311638
 20
-89.64144168307347
 30
0.0
 11
-9.268270777311638
 21
-89.64144168307347
 31
0.0
  0
LINE
  5
2DF
330
277
100
AcDbEntity
  8
0
 62
     0
100
AcDbLine
 10
-15.10013247073549
 20
-90.64249150639666
 30
0.0
 11
-15.10013247073549
 21
-90.64249150639666
 31
0.0
  0
ENDBLK
  5
2E1
330
277
100
AcDbEntity
  8
0
100
AcDbBlockEnd
  0
BLOCK
  5
2F0
330
2E2
100
AcDbEntity
  8
0
100
AcDbBlockBegin
  2
*X3
 70
     1
 10
0.0
 20
0.0
 30
0.0
  3
*X3
  1

  0
LINE
  5
2E3
330
2E2
100
AcDbEntity
  8
0
 62
     0
100
AcDbLine
 10
0.1477059848723741
 20
-76.49999999999998
 30
0.0
 11
2.269411195836779
 21
-76.49999999999998
 31
0.0
  0
LINE
  5
2E4
330
2E2
100
AcDbEntity
  8
0
 62
     0
100
AcDbLine
 10
0.1477059848723741
 20
-76.87499999999999
 30
0.0
 11
2.269411195836779
 21
-76.87499999999999
 31
0.0
  0
LINE
  5
2E5
330
2E2
100
AcDbEntity
  8
0
 62
     0
100
AcDbLine
 10
0.1477059848723741
 20
-77.24999999999998
 30
0.0
 11
2.269411195836779
 21
-77.24999999999998
 31
0.0
  0
LINE
  5
2E6
330
2E2
100
AcDbEntity
  8
0
 62
     0
100
AcDbLine
 10
0.1477059848723741
 20
-77.62499999999999
 30
0.0
 11
2.269411195836779
 21
-77.62499999999999
 31
0.0
  0
LINE
  5
2E7
330
2E2
100
AcDbEntity
  8
0
 62
     0
100
AcDbLine
 10
0.1477059848723741
 20
-77.99999999999998
 30
0.0
 11
2.269411195836779
 21
-77.99999999999998
 31
0.0
  0
LINE
  5
2E8
330
2E2
100
AcDbEntity
  8
0
 62
     0
100
AcDbLine
 10
0.1477059848723741
 20
-78.37499999999998
 30
0.0
 11
2.269411195836779
 21
-78.37499999999998
 31
0.0
  0
LINE
  5
2E9
330
2E2
100
AcDbEntity
  8
0
 62
     0
100
AcDbLine
 10
0.1477059848723741
 20
-78.74999999999999
 30
0.0
 11
2.269411195836779
 21
-78.74999999999999
 31
0.0
  0
LINE
  5
2EA
330
2E2
100
AcDbEntity
  8
0
 62
     0
100
AcDbLine
 10
0.1477059848723741
 20
-76.12499999999998
 30
0.0
 11
2.269411195836779
 21
-76.12499999999998
 31
0.0
  0
LINE
  5
2EB
330
2E2
100
AcDbEntity
  8
0
 62
     0
100
AcDbLine
 10
0.1477059848723741
 20
-75.74999999999999
 30
0.0
 11
2.269411195836779
 21
-75.74999999999999
 31
0.0
  0
LINE
  5
2EC
330
2E2
100
AcDbEntity
  8
0
 62
     0
100
AcDbLine
 10
0.1477059848723741
 20
-75.37499999999998
 30
0.0
 11
2.269411195836779
 21
-75.37499999999998
 31
0.0
  0
LINE
  5
2ED
330
2E2
100
AcDbEntity
  8
0
 62
     0
100
AcDbLine
 10
0.1477059848723741
 20
-74.99999999999999
 30
0.0
 11
2.269411195836779
 21
-74.99999999999999
 31
0.0
  0
LINE
  5
2EE
330
2E2
100
AcDbEntity
  8
0
 62
     0
100
AcDbLine
 10
0.1477059848723741
 20
-74.62499999999998
 30
0.0
 11
2.269411195836779
 21
-74.62499999999998
 31
0.0
  0
LINE
  5
2EF
330
2E2
100
AcDbEntity
  8
0
 62
     0
100
AcDbLine
 10
0.1477059848723741
 20
-74.24999999999998
 30
0.0
 11
2.269411195836779
 21
-74.24999999999998
 31
0.0
  0
ENDBLK
  5
2F1
330
2E2
100
AcDbEntity
  8
0
100
AcDbBlockEnd
  0
BLOCK
  5
3AF
330
2F2
100
AcDbEntity
  8
0
100
AcDbBlockBegin
  2
*X4
 70
     1
 10
0.0
 20
0.0
 30
0.0
  3
*X4
  1

  0
LINE
  5
2F3
330
2F2
100
AcDbEntity
  8
0
 62
     0
100
AcDbLine
 10
6.822030058522719
 20
-83.75
 30
0.0
 11
7.500000000000006
 21
-83.75
 31
0.0
  0
LINE
  5
2F4
330
2F2
100
AcDbEntity
  8
0
 62
     0
100
AcDbLine
 10
8.750000000000007
 20
-83.75
 30
0.0
 11
10.0
 21
-83.75
 31
0.0
  0
LINE
  5
2F5
330
2F2
100
AcDbEntity
  8
0
 62
     0
100
AcDbLine
 10
11.25
 20
-83.75
 30
0.0
 11
12.5
 21
-83.75
 31
0.0
  0
LINE
  5
2F6
330
2F2
100
AcDbEntity
  8
0
 62
     0
100
AcDbLine
 10
13.75
 20
-83.75
 30
0.0
 11
15.0
 21
-83.75
 31
0.0
  0
LINE
  5
2F7
330
2F2
100
AcDbEntity
  8
0
 62
     0
100
AcDbLine
 10
7.500000000000006
 20
-82.5
 30
0.0
 11
8.750000000000007
 21
-82.5
 31
0.0
  0
LINE
  5
2F8
330
2F2
100
AcDbEntity
  8
0
 62
     0
100
AcDbLine
 10
10.0
 20
-82.5
 30
0.0
 11
11.25
 21
-82.5
 31
0.0
  0
LINE
  5
2F9
330
2F2
100
AcDbEntity
  8
0
 62
     0
100
AcDbLine
 10
12.5
 20
-82.5
 30
0.0
 11
13.75
 21
-82.5
 31
0.0
  0
LINE
  5
2FA
330
2F2
100
AcDbEntity
  8
0
 62
     0
100
AcDbLine
 10
15.0
 20
-82.5
 30
0.0
 11
16.25
 21
-82.5
 31
0.0
  0
LINE
  5
2FB
330
2F2
100
AcDbEntity
  8
0
 62
     0
100
AcDbLine
 10
6.822030058522719
 20
-81.25
 30
0.0
 11
7.500000000000006
 21
-81.25
 31
0.0
  0
LINE
  5
2FC
330
2F2
100
AcDbEntity
  8
0
 62
     0
100
AcDbLine
 10
8.750000000000007
 20
-81.25
 30
0.0
 11
10.0
 21
-81.25
 31
0.0
  0
LINE
  5
2FD
330
2F2
100
AcDbEntity
  8
0
 62
     0
100
AcDbLine
 10
11.25
 20
-81.25
 30
0.0
 11
12.5
 21
-81.25
 31
0.0
  0
LINE
  5
2FE
330
2F2
100
AcDbEntity
  8
0
 62
     0
100
AcDbLine
 10
13.75
 20
-81.25
 30
0.0
 11
15.0
 21
-81.25
 31
0.0
  0
LINE
  5
2FF
330
2F2
100
AcDbEntity
  8
0
 62
     0
100
AcDbLine
 10
16.25
 20
-81.25
 30
0.0
 11
17.12989046132265
 21
-81.25
 31
0.0
  0
LINE
  5
300
330
2F2
100
AcDbEntity
  8
0
 62
     0
100
AcDbLine
 10
7.500000000000006
 20
-80.0
 30
0.0
 11
8.750000000000007
 21
-80.0
 31
0.0
  0
LINE
  5
301
330
2F2
100
AcDbEntity
  8
0
 62
     0
100
AcDbLine
 10
10.0
 20
-80.0
 30
0.0
 11
11.25
 21
-80.0
 31
0.0
  0
LINE
  5
302
330
2F2
100
AcDbEntity
  8
0
 62
     0
100
AcDbLine
 10
12.5
 20
-80.0
 30
0.0
 11
13.75
 21
-80.0
 31
0.0
  0
LINE
  5
303
330
2F2
100
AcDbEntity
  8
0
 62
     0
100
AcDbLine
 10
15.0
 20
-80.0
 30
0.0
 11
16.25
 21
-80.0
 31
0.0
  0
LINE
  5
304
330
2F2
100
AcDbEntity
  8
0
 62
     0
100
AcDbLine
 10
7.500000000000006
 20
-85.0
 30
0.0
 11
8.750000000000007
 21
-85.0
 31
0.0
  0
LINE
  5
305
330
2F2
100
AcDbEntity
  8
0
 62
     0
100
AcDbLine
 10
10.0
 20
-85.0
 30
0.0
 11
11.25
 21
-85.0
 31
0.0
  0
LINE
  5
306
330
2F2
100
AcDbEntity
  8
0
 62
     0
100
AcDbLine
 10
12.5
 20
-85.0
 30
0.0
 11
13.75
 21
-85.0
 31
0.0
  0
LINE
  5
307
330
2F2
100
AcDbEntity
  8
0
 62
     0
100
AcDbLine
 10
15.0
 20
-85.0
 30
0.0
 11
15.47918096849847
 21
-85.0
 31
0.0
  0
LINE
  5
308
330
2F2
100
AcDbEntity
  8
0
 62
     0
100
AcDbLine
 10
6.822030058522719
 20
-86.25
 30
0.0
 11
7.500000000000006
 21
-86.25
 31
0.0
  0
LINE
  5
309
330
2F2
100
AcDbEntity
  8
0
 62
     0
100
AcDbLine
 10
8.750000000000007
 20
-86.25
 30
0.0
 11
10.0
 21
-86.25
 31
0.0
  0
LINE
  5
30A
330
2F2
100
AcDbEntity
  8
0
 62
     0
100
AcDbLine
 10
11.25
 20
-86.25
 30
0.0
 11
12.5
 21
-86.25
 31
0.0
  0
LINE
  5
30B
330
2F2
100
AcDbEntity
  8
0
 62
     0
100
AcDbLine
 10
13.75
 20
-86.25
 30
0.0
 11
14.45492076101906
 21
-86.25
 31
0.0
  0
LINE
  5
30C
330
2F2
100
AcDbEntity
  8
0
 62
     0
100
AcDbLine
 10
7.500000000000006
 20
-87.5
 30
0.0
 11
8.750000000000007
 21
-87.5
 31
0.0
  0
LINE
  5
30D
330
2F2
100
AcDbEntity
  8
0
 62
     0
100
AcDbLine
 10
10.0
 20
-87.5
 30
0.0
 11
11.25
 21
-87.5
 31
0.0
  0
LINE
  5
30E
330
2F2
100
AcDbEntity
  8
0
 62
     0
100
AcDbLine
 10
12.5
 20
-87.5
 30
0.0
 11
13.02289927778675
 21
-87.5
 31
0.0
  0
LINE
  5
30F
330
2F2
100
AcDbEntity
  8
0
 62
     0
100
AcDbLine
 10
6.82203005852272
 20
-88.75
 30
0.0
 11
7.499999999999992
 21
-88.75
 31
0.0
  0
LINE
  5
310
330
2F2
100
AcDbEntity
  8
0
 62
     0
100
AcDbLine
 10
8.749999999999992
 20
-88.75
 30
0.0
 11
9.999999999999992
 21
-88.75
 31
0.0
  0
LINE
  5
311
330
2F2
100
AcDbEntity
  8
0
 62
     0
100
AcDbLine
 10
6.822030058522719
 20
-83.28125
 30
0.0
 11
7.500000000000006
 21
-83.28125
 31
0.0
  0
LINE
  5
312
330
2F2
100
AcDbEntity
  8
0
 62
     0
100
AcDbLine
 10
8.750000000000007
 20
-83.28125
 30
0.0
 11
10.0
 21
-83.28125
 31
0.0
  0
LINE
  5
313
330
2F2
100
AcDbEntity
  8
0
 62
     0
100
AcDbLine
 10
11.25
 20
-83.28125
 30
0.0
 11
12.5
 21
-83.28125
 31
0.0
  0
LINE
  5
314
330
2F2
100
AcDbEntity
  8
0
 62
     0
100
AcDbLine
 10
13.75
 20
-83.28125
 30
0.0
 11
15.0
 21
-83.28125
 31
0.0
  0
LINE
  5
315
330
2F2
100
AcDbEntity
  8
0
 62
     0
100
AcDbLine
 10
16.25
 20
-83.28125
 30
0.0
 11
16.45457539935152
 21
-83.28125
 31
0.0
  0
LINE
  5
316
330
2F2
100
AcDbEntity
  8
0
 62
     0
100
AcDbLine
 10
7.500000000000006
 20
-82.03125
 30
0.0
 11
8.750000000000007
 21
-82.03125
 31
0.0
  0
LINE
  5
317
330
2F2
100
AcDbEntity
  8
0
 62
     0
100
AcDbLine
 10
10.0
 20
-82.03125
 30
0.0
 11
11.25
 21
-82.03125
 31
0.0
  0
LINE
  5
318
330
2F2
100
AcDbEntity
  8
0
 62
     0
100
AcDbLine
 10
12.5
 20
-82.03125
 30
0.0
 11
13.75
 21
-82.03125
 31
0.0
  0
LINE
  5
319
330
2F2
100
AcDbEntity
  8
0
 62
     0
100
AcDbLine
 10
15.0
 20
-82.03125
 30
0.0
 11
16.25
 21
-82.03125
 31
0.0
  0
LINE
  5
31A
330
2F2
100
AcDbEntity
  8
0
 62
     0
100
AcDbLine
 10
6.822030058522719
 20
-80.78125
 30
0.0
 11
7.500000000000006
 21
-80.78125
 31
0.0
  0
LINE
  5
31B
330
2F2
100
AcDbEntity
  8
0
 62
     0
100
AcDbLine
 10
8.750000000000007
 20
-80.78125
 30
0.0
 11
10.0
 21
-80.78125
 31
0.0
  0
LINE
  5
31C
330
2F2
100
AcDbEntity
  8
0
 62
     0
100
AcDbLine
 10
11.25
 20
-80.78125
 30
0.0
 11
12.5
 21
-80.78125
 31
0.0
  0
LINE
  5
31D
330
2F2
100
AcDbEntity
  8
0
 62
     0
100
AcDbLine
 10
13.75
 20
-80.78125
 30
0.0
 11
15.0
 21
-80.78125
 31
0.0
  0
LINE
  5
31E
330
2F2
100
AcDbEntity
  8
0
 62
     0
100
AcDbLine
 10
16.25
 20
-80.78125
 30
0.0
 11
17.22335990363388
 21
-80.78125
 31
0.0
  0
LINE
  5
31F
330
2F2
100
AcDbEntity
  8
0
 62
     0
100
AcDbLine
 10
7.500000000000006
 20
-79.53125
 30
0.0
 11
8.750000000000007
 21
-79.53125
 31
0.0
  0
LINE
  5
320
330
2F2
100
AcDbEntity
  8
0
 62
     0
100
AcDbLine
 10
10.0
 20
-79.53125
 30
0.0
 11
11.25
 21
-79.53125
 31
0.0
  0
LINE
  5
321
330
2F2
100
AcDbEntity
  8
0
 62
     0
100
AcDbLine
 10
12.5
 20
-79.53125
 30
0.0
 11
13.75
 21
-79.53125
 31
0.0
  0
LINE
  5
322
330
2F2
100
AcDbEntity
  8
0
 62
     0
100
AcDbLine
 10
15.0
 20
-79.53125
 30
0.0
 11
16.25
 21
-79.53125
 31
0.0
  0
LINE
  5
323
330
2F2
100
AcDbEntity
  8
0
 62
     0
100
AcDbLine
 10
7.500000000000006
 20
-84.53125
 30
0.0
 11
8.750000000000007
 21
-84.53125
 31
0.0
  0
LINE
  5
324
330
2F2
100
AcDbEntity
  8
0
 62
     0
100
AcDbLine
 10
10.0
 20
-84.53125
 30
0.0
 11
11.25
 21
-84.53125
 31
0.0
  0
LINE
  5
325
330
2F2
100
AcDbEntity
  8
0
 62
     0
100
AcDbLine
 10
12.5
 20
-84.53125
 30
0.0
 11
13.75
 21
-84.53125
 31
0.0
  0
LINE
  5
326
330
2F2
100
AcDbEntity
  8
0
 62
     0
100
AcDbLine
 10
15.0
 20
-84.53125
 30
0.0
 11
15.78849889197568
 21
-84.53125
 31
0.0
  0
LINE
  5
327
330
2F2
100
AcDbEntity
  8
0
 62
     0
100
AcDbLine
 10
6.822030058522719
 20
-85.78125
 30
0.0
 11
7.500000000000006
 21
-85.78125
 31
0.0
  0
LINE
  5
328
330
2F2
100
AcDbEntity
  8
0
 62
     0
100
AcDbLine
 10
8.750000000000007
 20
-85.78125
 30
0.0
 11
10.0
 21
-85.78125
 31
0.0
  0
LINE
  5
329
330
2F2
100
AcDbEntity
  8
0
 62
     0
100
AcDbLine
 10
11.25
 20
-85.78125
 30
0.0
 11
12.5
 21
-85.78125
 31
0.0
  0
LINE
  5
32A
330
2F2
100
AcDbEntity
  8
0
 62
     0
100
AcDbLine
 10
13.75
 20
-85.78125
 30
0.0
 11
14.87710280428017
 21
-85.78125
 31
0.0
  0
LINE
  5
32B
330
2F2
100
AcDbEntity
  8
0
 62
     0
100
AcDbLine
 10
7.500000000000006
 20
-87.03125
 30
0.0
 11
8.750000000000007
 21
-87.03125
 31
0.0
  0
LINE
  5
32C
330
2F2
100
AcDbEntity
  8
0
 62
     0
100
AcDbLine
 10
10.0
 20
-87.03125
 30
0.0
 11
11.25
 21
-87.03125
 31
0.0
  0
LINE
  5
32D
330
2F2
100
AcDbEntity
  8
0
 62
     0
100
AcDbLine
 10
12.5
 20
-87.03125
 30
0.0
 11
13.62245876100947
 21
-87.03125
 31
0.0
  0
LINE
  5
32E
330
2F2
100
AcDbEntity
  8
0
 62
     0
100
AcDbLine
 10
6.82203005852272
 20
-88.28125
 30
0.0
 11
7.499999999999992
 21
-88.28125
 31
0.0
  0
LINE
  5
32F
330
2F2
100
AcDbEntity
  8
0
 62
     0
100
AcDbLine
 10
8.749999999999992
 20
-88.28125
 30
0.0
 11
9.999999999999992
 21
-88.28125
 31
0.0
  0
LINE
  5
330
330
2F2
100
AcDbEntity
  8
0
 62
     0
100
AcDbLine
 10
11.24999999999999
 20
-88.28125
 30
0.0
 11
11.77000581995957
 21
-88.28125
 31
0.0
  0
LINE
  5
331
330
2F2
100
AcDbEntity
  8
0
 62
     0
100
AcDbLine
 10
7.500000000000006
 20
-84.0625
 30
0.0
 11
8.750000000000007
 21
-84.0625
 31
0.0
  0
LINE
  5
332
330
2F2
100
AcDbEntity
  8
0
 62
     0
100
AcDbLine
 10
10.0
 20
-84.0625
 30
0.0
 11
11.25
 21
-84.0625
 31
0.0
  0
LINE
  5
333
330
2F2
100
AcDbEntity
  8
0
 62
     0
100
AcDbLine
 10
12.5
 20
-84.0625
 30
0.0
 11
13.75
 21
-84.0625
 31
0.0
  0
LINE
  5
334
330
2F2
100
AcDbEntity
  8
0
 62
     0
100
AcDbLine
 10
15.0
 20
-84.0625
 30
0.0
 11
16.0637513094301
 21
-84.0625
 31
0.0
  0
LINE
  5
335
330
2F2
100
AcDbEntity
  8
0
 62
     0
100
AcDbLine
 10
6.822030058522719
 20
-82.8125
 30
0.0
 11
7.500000000000006
 21
-82.8125
 31
0.0
  0
LINE
  5
336
330
2F2
100
AcDbEntity
  8
0
 62
     0
100
AcDbLine
 10
8.750000000000007
 20
-82.8125
 30
0.0
 11
10.0
 21
-82.8125
 31
0.0
  0
LINE
  5
337
330
2F2
100
AcDbEntity
  8
0
 62
     0
100
AcDbLine
 10
11.25
 20
-82.8125
 30
0.0
 11
12.5
 21
-82.8125
 31
0.0
  0
LINE
  5
338
330
2F2
100
AcDbEntity
  8
0
 62
     0
100
AcDbLine
 10
13.75
 20
-82.8125
 30
0.0
 11
15.0
 21
-82.8125
 31
0.0
  0
LINE
  5
339
330
2F2
100
AcDbEntity
  8
0
 62
     0
100
AcDbLine
 10
16.25
 20
-82.8125
 30
0.0
 11
16.65187761997106
 21
-82.8125
 31
0.0
  0
LINE
  5
33A
330
2F2
100
AcDbEntity
  8
0
 62
     0
100
AcDbLine
 10
7.500000000000006
 20
-81.5625
 30
0.0
 11
8.750000000000007
 21
-81.5625
 31
0.0
  0
LINE
  5
33B
330
2F2
100
AcDbEntity
  8
0
 62
     0
100
AcDbLine
 10
10.0
 20
-81.5625
 30
0.0
 11
11.25
 21
-81.5625
 31
0.0
  0
LINE
  5
33C
330
2F2
100
AcDbEntity
  8
0
 62
     0
100
AcDbLine
 10
12.5
 20
-81.5625
 30
0.0
 11
13.75
 21
-81.5625
 31
0.0
  0
LINE
  5
33D
330
2F2
100
AcDbEntity
  8
0
 62
     0
100
AcDbLine
 10
15.0
 20
-81.5625
 30
0.0
 11
16.25
 21
-81.5625
 31
0.0
  0
LINE
  5
33E
330
2F2
100
AcDbEntity
  8
0
 62
     0
100
AcDbLine
 10
6.822030058522719
 20
-80.3125
 30
0.0
 11
7.500000000000006
 21
-80.3125
 31
0.0
  0
LINE
  5
33F
330
2F2
100
AcDbEntity
  8
0
 62
     0
100
AcDbLine
 10
8.750000000000007
 20
-80.3125
 30
0.0
 11
10.0
 21
-80.3125
 31
0.0
  0
LINE
  5
340
330
2F2
100
AcDbEntity
  8
0
 62
     0
100
AcDbLine
 10
11.25
 20
-80.3125
 30
0.0
 11
12.5
 21
-80.3125
 31
0.0
  0
LINE
  5
341
330
2F2
100
AcDbEntity
  8
0
 62
     0
100
AcDbLine
 10
13.75
 20
-80.3125
 30
0.0
 11
15.0
 21
-80.3125
 31
0.0
  0
LINE
  5
342
330
2F2
100
AcDbEntity
  8
0
 62
     0
100
AcDbLine
 10
16.25
 20
-80.3125
 30
0.0
 11
17.29503754849377
 21
-80.3125
 31
0.0
  0
LINE
  5
343
330
2F2
100
AcDbEntity
  8
0
 62
     0
100
AcDbLine
 10
7.500000000000006
 20
-79.0625
 30
0.0
 11
8.750000000000007
 21
-79.0625
 31
0.0
  0
LINE
  5
344
330
2F2
100
AcDbEntity
  8
0
 62
     0
100
AcDbLine
 10
10.0
 20
-79.0625
 30
0.0
 11
11.25
 21
-79.0625
 31
0.0
  0
LINE
  5
345
330
2F2
100
AcDbEntity
  8
0
 62
     0
100
AcDbLine
 10
12.5
 20
-79.0625
 30
0.0
 11
13.75
 21
-79.0625
 31
0.0
  0
LINE
  5
346
330
2F2
100
AcDbEntity
  8
0
 62
     0
100
AcDbLine
 10
15.0
 20
-79.0625
 30
0.0
 11
16.25
 21
-79.0625
 31
0.0
  0
LINE
  5
347
330
2F2
100
AcDbEntity
  8
0
 62
     0
100
AcDbLine
 10
6.822030058522719
 20
-85.3125
 30
0.0
 11
7.500000000000006
 21
-85.3125
 31
0.0
  0
LINE
  5
348
330
2F2
100
AcDbEntity
  8
0
 62
     0
100
AcDbLine
 10
8.750000000000007
 20
-85.3125
 30
0.0
 11
10.0
 21
-85.3125
 31
0.0
  0
LINE
  5
349
330
2F2
100
AcDbEntity
  8
0
 62
     0
100
AcDbLine
 10
11.25
 20
-85.3125
 30
0.0
 11
12.5
 21
-85.3125
 31
0.0
  0
LINE
  5
34A
330
2F2
100
AcDbEntity
  8
0
 62
     0
100
AcDbLine
 10
13.75
 20
-85.3125
 30
0.0
 11
15.0
 21
-85.3125
 31
0.0
  0
LINE
  5
34B
330
2F2
100
AcDbEntity
  8
0
 62
     0
100
AcDbLine
 10
7.500000000000006
 20
-86.5625
 30
0.0
 11
8.750000000000007
 21
-86.5625
 31
0.0
  0
LINE
  5
34C
330
2F2
100
AcDbEntity
  8
0
 62
     0
100
AcDbLine
 10
10.0
 20
-86.5625
 30
0.0
 11
11.25
 21
-86.5625
 31
0.0
  0
LINE
  5
34D
330
2F2
100
AcDbEntity
  8
0
 62
     0
100
AcDbLine
 10
12.5
 20
-86.5625
 30
0.0
 11
13.75
 21
-86.5625
 31
0.0
  0
LINE
  5
34E
330
2F2
100
AcDbEntity
  8
0
 62
     0
100
AcDbLine
 10
6.822030058522719
 20
-87.8125
 30
0.0
 11
7.500000000000006
 21
-87.8125
 31
0.0
  0
LINE
  5
34F
330
2F2
100
AcDbEntity
  8
0
 62
     0
100
AcDbLine
 10
8.750000000000007
 20
-87.8125
 30
0.0
 11
10.0
 21
-87.8125
 31
0.0
  0
LINE
  5
350
330
2F2
100
AcDbEntity
  8
0
 62
     0
100
AcDbLine
 10
11.25
 20
-87.8125
 30
0.0
 11
12.5
 21
-87.8125
 31
0.0
  0
LINE
  5
351
330
2F2
100
AcDbEntity
  8
0
 62
     0
100
AcDbLine
 10
7.499999999999992
 20
-89.0625
 30
0.0
 11
8.749999999999992
 21
-89.0625
 31
0.0
  0
LINE
  5
352
330
2F2
100
AcDbEntity
  8
0
 62
     0
100
AcDbLine
 10
11.40625
 20
-87.65625
 30
0.0
 11
11.40625
 21
-86.40625
 31
0.0
  0
LINE
  5
353
330
2F2
100
AcDbEntity
  8
0
 62
     0
100
AcDbLine
 10
11.40625
 20
-85.15625
 30
0.0
 11
11.40625
 21
-83.90625
 31
0.0
  0
LINE
  5
354
330
2F2
100
AcDbEntity
  8
0
 62
     0
100
AcDbLine
 10
11.40625
 20
-82.65625
 30
0.0
 11
11.40625
 21
-81.40625
 31
0.0
  0
LINE
  5
355
330
2F2
100
AcDbEntity
  8
0
 62
     0
100
AcDbLine
 10
11.40625
 20
-80.15625
 30
0.0
 11
11.40625
 21
-78.95090343926444
 31
0.0
  0
LINE
  5
356
330
2F2
100
AcDbEntity
  8
0
 62
     0
100
AcDbLine
 10
10.15625
 20
-88.90625
 30
0.0
 11
10.15625
 21
-87.65625
 31
0.0
  0
LINE
  5
357
330
2F2
100
AcDbEntity
  8
0
 62
     0
100
AcDbLine
 10
10.15625
 20
-86.40625
 30
0.0
 11
10.15625
 21
-85.15625
 31
0.0
  0
LINE
  5
358
330
2F2
100
AcDbEntity
  8
0
 62
     0
100
AcDbLine
 10
10.15625
 20
-83.90625
 30
0.0
 11
10.15625
 21
-82.65625
 31
0.0
  0
LINE
  5
359
330
2F2
100
AcDbEntity
  8
0
 62
     0
100
AcDbLine
 10
10.15625
 20
-81.40625
 30
0.0
 11
10.15625
 21
-80.15625
 31
0.0
  0
LINE
  5
35A
330
2F2
100
AcDbEntity
  8
0
 62
     0
100
AcDbLine
 10
8.90625
 20
-89.3043501269499
 30
0.0
 11
8.90625
 21
-88.90625
 31
0.0
  0
LINE
  5
35B
330
2F2
100
AcDbEntity
  8
0
 62
     0
100
AcDbLine
 10
8.90625
 20
-87.65625
 30
0.0
 11
8.90625
 21
-86.40625
 31
0.0
  0
LINE
  5
35C
330
2F2
100
AcDbEntity
  8
0
 62
     0
100
AcDbLine
 10
8.90625
 20
-85.15625
 30
0.0
 11
8.90625
 21
-83.90625
 31
0.0
  0
LINE
  5
35D
330
2F2
100
AcDbEntity
  8
0
 62
     0
100
AcDbLine
 10
8.90625
 20
-82.65625
 30
0.0
 11
8.90625
 21
-81.40625
 31
0.0
  0
LINE
  5
35E
330
2F2
100
AcDbEntity
  8
0
 62
     0
100
AcDbLine
 10
8.90625
 20
-80.15625
 30
0.0
 11
8.90625
 21
-78.95090343926444
 31
0.0
  0
LINE
  5
35F
330
2F2
100
AcDbEntity
  8
0
 62
     0
100
AcDbLine
 10
7.65625
 20
-88.90625
 30
0.0
 11
7.65625
 21
-87.65625
 31
0.0
  0
LINE
  5
360
330
2F2
100
AcDbEntity
  8
0
 62
     0
100
AcDbLine
 10
7.65625
 20
-86.40625
 30
0.0
 11
7.65625
 21
-85.15625
 31
0.0
  0
LINE
  5
361
330
2F2
100
AcDbEntity
  8
0
 62
     0
100
AcDbLine
 10
7.65625
 20
-83.90625
 30
0.0
 11
7.65625
 21
-82.65625
 31
0.0
  0
LINE
  5
362
330
2F2
100
AcDbEntity
  8
0
 62
     0
100
AcDbLine
 10
7.65625
 20
-81.40625
 30
0.0
 11
7.65625
 21
-80.15625
 31
0.0
  0
LINE
  5
363
330
2F2
100
AcDbEntity
  8
0
 62
     0
100
AcDbLine
 10
12.65625
 20
-87.75429532839817
 30
0.0
 11
12.65625
 21
-87.65625
 31
0.0
  0
LINE
  5
364
330
2F2
100
AcDbEntity
  8
0
 62
     0
100
AcDbLine
 10
12.65625
 20
-86.40625
 30
0.0
 11
12.65625
 21
-85.15625
 31
0.0
  0
LINE
  5
365
330
2F2
100
AcDbEntity
  8
0
 62
     0
100
AcDbLine
 10
12.65625
 20
-83.90625
 30
0.0
 11
12.65625
 21
-82.65625
 31
0.0
  0
LINE
  5
366
330
2F2
100
AcDbEntity
  8
0
 62
     0
100
AcDbLine
 10
12.65625
 20
-81.40625
 30
0.0
 11
12.65625
 21
-80.15625
 31
0.0
  0
LINE
  5
367
330
2F2
100
AcDbEntity
  8
0
 62
     0
100
AcDbLine
 10
13.90625
 20
-86.7836334167354
 30
0.0
 11
13.90625
 21
-86.40625
 31
0.0
  0
LINE
  5
368
330
2F2
100
AcDbEntity
  8
0
 62
     0
100
AcDbLine
 10
13.90625
 20
-85.15625
 30
0.0
 11
13.90625
 21
-83.90625
 31
0.0
  0
LINE
  5
369
330
2F2
100
AcDbEntity
  8
0
 62
     0
100
AcDbLine
 10
13.90625
 20
-82.65625
 30
0.0
 11
13.90625
 21
-81.40625
 31
0.0
  0
LINE
  5
36A
330
2F2
100
AcDbEntity
  8
0
 62
     0
100
AcDbLine
 10
13.90625
 20
-80.15625
 30
0.0
 11
13.90625
 21
-78.95090343926444
 31
0.0
  0
LINE
  5
36B
330
2F2
100
AcDbEntity
  8
0
 62
     0
100
AcDbLine
 10
15.15625
 20
-85.43770612211822
 30
0.0
 11
15.15625
 21
-85.15625
 31
0.0
  0
LINE
  5
36C
330
2F2
100
AcDbEntity
  8
0
 62
     0
100
AcDbLine
 10
15.15625
 20
-83.90625
 30
0.0
 11
15.15625
 21
-82.65625
 31
0.0
  0
LINE
  5
36D
330
2F2
100
AcDbEntity
  8
0
 62
     0
100
AcDbLine
 10
15.15625
 20
-81.40625
 30
0.0
 11
15.15625
 21
-80.15625
 31
0.0
  0
LINE
  5
36E
330
2F2
100
AcDbEntity
  8
0
 62
     0
100
AcDbLine
 10
16.40625
 20
-82.65625
 30
0.0
 11
16.40625
 21
-81.40625
 31
0.0
  0
LINE
  5
36F
330
2F2
100
AcDbEntity
  8
0
 62
     0
100
AcDbLine
 10
16.40625
 20
-80.15625
 30
0.0
 11
16.40625
 21
-78.95090343926444
 31
0.0
  0
LINE
  5
370
330
2F2
100
AcDbEntity
  8
0
 62
     0
100
AcDbLine
 10
11.875
 20
-87.65625
 30
0.0
 11
11.875
 21
-86.40625
 31
0.0
  0
LINE
  5
371
330
2F2
100
AcDbEntity
  8
0
 62
     0
100
AcDbLine
 10
11.875
 20
-85.15625
 30
0.0
 11
11.875
 21
-83.90625
 31
0.0
  0
LINE
  5
372
330
2F2
100
AcDbEntity
  8
0
 62
     0
100
AcDbLine
 10
11.875
 20
-82.65625
 30
0.0
 11
11.875
 21
-81.40625
 31
0.0
  0
LINE
  5
373
330
2F2
100
AcDbEntity
  8
0
 62
     0
100
AcDbLine
 10
11.875
 20
-80.15625
 30
0.0
 11
11.875
 21
-78.95090343926444
 31
0.0
  0
LINE
  5
374
330
2F2
100
AcDbEntity
  8
0
 62
     0
100
AcDbLine
 10
10.625
 20
-88.80358077608091
 30
0.0
 11
10.625
 21
-87.65625
 31
0.0
  0
LINE
  5
375
330
2F2
100
AcDbEntity
  8
0
 62
     0
100
AcDbLine
 10
10.625
 20
-86.40625
 30
0.0
 11
10.625
 21
-85.15625
 31
0.0
  0
LINE
  5
376
330
2F2
100
AcDbEntity
  8
0
 62
     0
100
AcDbLine
 10
10.625
 20
-83.90625
 30
0.0
 11
10.625
 21
-82.65625
 31
0.0
  0
LINE
  5
377
330
2F2
100
AcDbEntity
  8
0
 62
     0
100
AcDbLine
 10
10.625
 20
-81.40625
 30
0.0
 11
10.625
 21
-80.15625
 31
0.0
  0
LINE
  5
378
330
2F2
100
AcDbEntity
  8
0
 62
     0
100
AcDbLine
 10
9.375
 20
-89.19883862432049
 30
0.0
 11
9.375
 21
-88.90625
 31
0.0
  0
LINE
  5
379
330
2F2
100
AcDbEntity
  8
0
 62
     0
100
AcDbLine
 10
9.375
 20
-87.65625
 30
0.0
 11
9.375
 21
-86.40625
 31
0.0
  0
LINE
  5
37A
330
2F2
100
AcDbEntity
  8
0
 62
     0
100
AcDbLine
 10
9.375
 20
-85.15625
 30
0.0
 11
9.375
 21
-83.90625
 31
0.0
  0
LINE
  5
37B
330
2F2
100
AcDbEntity
  8
0
 62
     0
100
AcDbLine
 10
9.375
 20
-82.65625
 30
0.0
 11
9.375
 21
-81.40625
 31
0.0
  0
LINE
  5
37C
330
2F2
100
AcDbEntity
  8
0
 62
     0
100
AcDbLine
 10
9.375
 20
-80.15625
 30
0.0
 11
9.375
 21
-78.95090343926444
 31
0.0
  0
LINE
  5
37D
330
2F2
100
AcDbEntity
  8
0
 62
     0
100
AcDbLine
 10
8.125
 20
-88.90625
 30
0.0
 11
8.125
 21
-87.65625
 31
0.0
  0
LINE
  5
37E
330
2F2
100
AcDbEntity
  8
0
 62
     0
100
AcDbLine
 10
8.125
 20
-86.40625
 30
0.0
 11
8.125
 21
-85.15625
 31
0.0
  0
LINE
  5
37F
330
2F2
100
AcDbEntity
  8
0
 62
     0
100
AcDbLine
 10
8.125
 20
-83.90625
 30
0.0
 11
8.125
 21
-82.65625
 31
0.0
  0
LINE
  5
380
330
2F2
100
AcDbEntity
  8
0
 62
     0
100
AcDbLine
 10
8.125
 20
-81.40625
 30
0.0
 11
8.125
 21
-80.15625
 31
0.0
  0
LINE
  5
381
330
2F2
100
AcDbEntity
  8
0
 62
     0
100
AcDbLine
 10
6.875
 20
-89.51191784435341
 30
0.0
 11
6.875
 21
-88.90625
 31
0.0
  0
LINE
  5
382
330
2F2
100
AcDbEntity
  8
0
 62
     0
100
AcDbLine
 10
6.875
 20
-87.65625
 30
0.0
 11
6.875
 21
-86.40625
 31
0.0
  0
LINE
  5
383
330
2F2
100
AcDbEntity
  8
0
 62
     0
100
AcDbLine
 10
6.875
 20
-85.15625
 30
0.0
 11
6.875
 21
-83.90625
 31
0.0
  0
LINE
  5
384
330
2F2
100
AcDbEntity
  8
0
 62
     0
100
AcDbLine
 10
6.875
 20
-82.65625
 30
0.0
 11
6.875
 21
-81.40625
 31
0.0
  0
LINE
  5
385
330
2F2
100
AcDbEntity
  8
0
 62
     0
100
AcDbLine
 10
6.875
 20
-80.15625
 30
0.0
 11
6.875
 21
-78.95090343926444
 31
0.0
  0
LINE
  5
386
330
2F2
100
AcDbEntity
  8
0
 62
     0
100
AcDbLine
 10
13.125
 20
-86.40625
 30
0.0
 11
13.125
 21
-85.15625
 31
0.0
  0
LINE
  5
387
330
2F2
100
AcDbEntity
  8
0
 62
     0
100
AcDbLine
 10
13.125
 20
-83.90625
 30
0.0
 11
13.125
 21
-82.65625
 31
0.0
  0
LINE
  5
388
330
2F2
100
AcDbEntity
  8
0
 62
     0
100
AcDbLine
 10
13.125
 20
-81.40625
 30
0.0
 11
13.125
 21
-80.15625
 31
0.0
  0
LINE
  5
389
330
2F2
100
AcDbEntity
  8
0
 62
     0
100
AcDbLine
 10
14.375
 20
-85.15625
 30
0.0
 11
14.375
 21
-83.90625
 31
0.0
  0
LINE
  5
38A
330
2F2
100
AcDbEntity
  8
0
 62
     0
100
AcDbLine
 10
14.375
 20
-82.65625
 30
0.0
 11
14.375
 21
-81.40625
 31
0.0
  0
LINE
  5
38B
330
2F2
100
AcDbEntity
  8
0
 62
     0
100
AcDbLine
 10
14.375
 20
-80.15625
 30
0.0
 11
14.375
 21
-78.95090343926444
 31
0.0
  0
LINE
  5
38C
330
2F2
100
AcDbEntity
  8
0
 62
     0
100
AcDbLine
 10
15.625
 20
-83.90625
 30
0.0
 11
15.625
 21
-82.65625
 31
0.0
  0
LINE
  5
38D
330
2F2
100
AcDbEntity
  8
0
 62
     0
100
AcDbLine
 10
15.625
 20
-81.40625
 30
0.0
 11
15.625
 21
-80.15625
 31
0.0
  0
LINE
  5
38E
330
2F2
100
AcDbEntity
  8
0
 62
     0
100
AcDbLine
 10
16.875
 20
-82.18751068064404
 30
0.0
 11
16.875
 21
-81.40625
 31
0.0
  0
LINE
  5
38F
330
2F2
100
AcDbEntity
  8
0
 62
     0
100
AcDbLine
 10
16.875
 20
-80.15625
 30
0.0
 11
16.875
 21
-78.95090343926444
 31
0.0
  0
LINE
  5
390
330
2F2
100
AcDbEntity
  8
0
 62
     0
100
AcDbLine
 10
11.09375
 20
-88.60959071139319
 30
0.0
 11
11.09375
 21
-87.65625
 31
0.0
  0
LINE
  5
391
330
2F2
100
AcDbEntity
  8
0
 62
     0
100
AcDbLine
 10
11.09375
 20
-86.40625
 30
0.0
 11
11.09375
 21
-85.15625
 31
0.0
  0
LINE
  5
392
330
2F2
100
AcDbEntity
  8
0
 62
     0
100
AcDbLine
 10
11.09375
 20
-83.90625
 30
0.0
 11
11.09375
 21
-82.65625
 31
0.0
  0
LINE
  5
393
330
2F2
100
AcDbEntity
  8
0
 62
     0
100
AcDbLine
 10
11.09375
 20
-81.40625
 30
0.0
 11
11.09375
 21
-80.15625
 31
0.0
  0
LINE
  5
394
330
2F2
100
AcDbEntity
  8
0
 62
     0
100
AcDbLine
 10
9.84375
 20
-89.07053978028358
 30
0.0
 11
9.84375
 21
-88.90625
 31
0.0
  0
LINE
  5
395
330
2F2
100
AcDbEntity
  8
0
 62
     0
100
AcDbLine
 10
9.84375
 20
-87.65625
 30
0.0
 11
9.84375
 21
-86.40625
 31
0.0
  0
LINE
  5
396
330
2F2
100
AcDbEntity
  8
0
 62
     0
100
AcDbLine
 10
9.84375
 20
-85.15625
 30
0.0
 11
9.84375
 21
-83.90625
 31
0.0
  0
LINE
  5
397
330
2F2
100
AcDbEntity
  8
0
 62
     0
100
AcDbLine
 10
9.84375
 20
-82.65625
 30
0.0
 11
9.84375
 21
-81.40625
 31
0.0
  0
LINE
  5
398
330
2F2
100
AcDbEntity
  8
0
 62
     0
100
AcDbLine
 10
9.84375
 20
-80.15625
 30
0.0
 11
9.84375
 21
-78.95090343926444
 31
0.0
  0
LINE
  5
399
330
2F2
100
AcDbEntity
  8
0
 62
     0
100
AcDbLine
 10
8.59375
 20
-88.90625
 30
0.0
 11
8.59375
 21
-87.65625
 31
0.0
  0
LINE
  5
39A
330
2F2
100
AcDbEntity
  8
0
 62
     0
100
AcDbLine
 10
8.59375
 20
-86.40625
 30
0.0
 11
8.59375
 21
-85.15625
 31
0.0
  0
LINE
  5
39B
330
2F2
100
AcDbEntity
  8
0
 62
     0
100
AcDbLine
 10
8.59375
 20
-83.90625
 30
0.0
 11
8.59375
 21
-82.65625
 31
0.0
  0
LINE
  5
39C
330
2F2
100
AcDbEntity
  8
0
 62
     0
100
AcDbLine
 10
8.59375
 20
-81.40625
 30
0.0
 11
8.59375
 21
-80.15625
 31
0.0
  0
LINE
  5
39D
330
2F2
100
AcDbEntity
  8
0
 62
     0
100
AcDbLine
 10
7.34375
 20
-89.49915634587705
 30
0.0
 11
7.34375
 21
-88.90625
 31
0.0
  0
LINE
  5
39E
330
2F2
100
AcDbEntity
  8
0
 62
     0
100
AcDbLine
 10
7.34375
 20
-87.65625
 30
0.0
 11
7.34375
 21
-86.40625
 31
0.0
  0
LINE
  5
39F
330
2F2
100
AcDbEntity
  8
0
 62
     0
100
AcDbLine
 10
7.34375
 20
-85.15625
 30
0.0
 11
7.34375
 21
-83.90625
 31
0.0
  0
LINE
  5
3A0
330
2F2
100
AcDbEntity
  8
0
 62
     0
100
AcDbLine
 10
7.34375
 20
-82.65625
 30
0.0
 11
7.34375
 21
-81.40625
 31
0.0
  0
LINE
  5
3A1
330
2F2
100
AcDbEntity
  8
0
 62
     0
100
AcDbLine
 10
7.34375
 20
-80.15625
 30
0.0
 11
7.34375
 21
-78.95090343926444
 31
0.0
  0
LINE
  5
3A2
330
2F2
100
AcDbEntity
  8
0
 62
     0
100
AcDbLine
 10
12.34375
 20
-87.65625
 30
0.0
 11
12.34375
 21
-86.40625
 31
0.0
  0
LINE
  5
3A3
330
2F2
100
AcDbEntity
  8
0
 62
     0
100
AcDbLine
 10
12.34375
 20
-85.15625
 30
0.0
 11
12.34375
 21
-83.90625
 31
0.0
  0
LINE
  5
3A4
330
2F2
100
AcDbEntity
  8
0
 62
     0
100
AcDbLine
 10
12.34375
 20
-82.65625
 30
0.0
 11
12.34375
 21
-81.40625
 31
0.0
  0
LINE
  5
3A5
330
2F2
100
AcDbEntity
  8
0
 62
     0
100
AcDbLine
 10
12.34375
 20
-80.15625
 30
0.0
 11
12.34375
 21
-78.95090343926444
 31
0.0
  0
LINE
  5
3A6
330
2F2
100
AcDbEntity
  8
0
 62
     0
100
AcDbLine
 10
13.59375
 20
-86.40625
 30
0.0
 11
13.59375
 21
-85.15625
 31
0.0
  0
LINE
  5
3A7
330
2F2
100
AcDbEntity
  8
0
 62
     0
100
AcDbLine
 10
13.59375
 20
-83.90625
 30
0.0
 11
13.59375
 21
-82.65625
 31
0.0
  0
LINE
  5
3A8
330
2F2
100
AcDbEntity
  8
0
 62
     0
100
AcDbLine
 10
13.59375
 20
-81.40625
 30
0.0
 11
13.59375
 21
-80.15625
 31
0.0
  0
LINE
  5
3A9
330
2F2
100
AcDbEntity
  8
0
 62
     0
100
AcDbLine
 10
14.84375
 20
-85.15625
 30
0.0
 11
14.84375
 21
-83.90625
 31
0.0
  0
LINE
  5
3AA
330
2F2
100
AcDbEntity
  8
0
 62
     0
100
AcDbLine
 10
14.84375
 20
-82.65625
 30
0.0
 11
14.84375
 21
-81.40625
 31
0.0
  0
LINE
  5
3AB
330
2F2
100
AcDbEntity
  8
0
 62
     0
100
AcDbLine
 10
14.84375
 20
-80.15625
 30
0.0
 11
14.84375
 21
-78.95090343926444
 31
0.0
  0
LINE
  5
3AC
330
2F2
100
AcDbEntity
  8
0
 62
     0
100
AcDbLine
 10
16.09375
 20
-83.90625
 30
0.0
 11
16.09375
 21
-82.65625
 31
0.0
  0
LINE
  5
3AD
330
2F2
100
AcDbEntity
  8
0
 62
     0
100
AcDbLine
 10
16.09375
 20
-81.40625
 30
0.0
 11
16.09375
 21
-80.15625
 31
0.0
  0
LINE
  5
3AE
330
2F2
100
AcDbEntity
  8
0
 62
     0
100
AcDbLine
 10
17.34375
 20
-79.86262738450003
 30
0.0
 11
17.34375
 21
-78.95090343926444
 31
0.0
  0
ENDBLK
  5
3B0
330
2F2
100
AcDbEntity
  8
0
100
AcDbBlockEnd
  0
BLOCK
  5
88C
330
882
100
AcDbEntity
  8
0
100
AcDbBlockBegin
  2
SPECSHEET_FLOWARROW
 70
     0
 10
0.0
 20
0.0
 30
0.0
  3
SPECSHEET_FLOWARROW
  1

  0
LINE
  5
883
330
882
100
AcDbEntity
  8
OBJECT1
100
AcDbLine
 10
-0.3883432548078076
 20
-4.226471473879882
 30
0.0
 11
-0.3883432548079213
 21
-1.384666629104103
 31
0.0
  0
LINE
  5
884
330
882
100
AcDbEntity
  8
OBJECT1
100
AcDbLine
 10
0.3883432548076939
 20
-4.226471473879882
 30
0.0
 11
0.3883432548077508
 21
-1.384666629103975
 31
0.0
  0
LINE
  5
885
330
882
100
AcDbEntity
  8
OBJECT1
100
AcDbLine
 10
-0.3883432548079213
 20
-4.226471473879882
 30
0.0
 11
0.3883432548076939
 21
-4.226471473879882
 31
0.0
  0
LINE
  5
886
330
882
100
AcDbEntity
  8
OBJECT1
100
AcDbLine
 10
0.0
 20
0.0
 30
0.0
 11
-1.359203679482106
 21
-1.359203679482106
 31
0.0
  0
LINE
  5
887
330
882
100
AcDbEntity
  8
OBJECT1
100
AcDbLine
 10
-0.3883432548079213
 20
-1.384666629104174
 30
0.0
 11
-1.359203679482106
 21
-2.355527053778388
 31
0.0
  0
LINE
  5
888
330
882
100
AcDbEntity
  8
OBJECT1
100
AcDbLine
 10
-1.359203679482106
 20
-2.355527053778374
 30
0.0
 11
-1.359203679482106
 21
-1.35920367948205
 31
0.0
  0
LINE
  5
889
330
882
100
AcDbEntity
  8
OBJECT1
100
AcDbLine
 10
1.359203679482106
 20
-2.355527053778359
 30
0.0
 11
1.359203679482106
 21
-1.359203679482078
 31
0.0
  0
LINE
  5
88A
330
882
100
AcDbEntity
  8
OBJECT1
100
AcDbLine
 10
0.0
 20
0.0
 30
0.0
 11
1.35920367948205
 21
-1.359203679482106
 31
0.0
  0
LINE
  5
88B
330
882
100
AcDbEntity
  8
OBJECT1
100
AcDbLine
 10
0.3883432548077508
 20
-1.384666629103989
 30
0.0
 11
1.35920367948205
 21
-2.355527053778317
 31
0.0
  0
ENDBLK
  5
88D
330
882
100
AcDbEntity
  8
0
100
AcDbBlockEnd
  0
BLOCK
  5
14A8
330
131C
100
AcDbEntity
  8
0
100
AcDbBlockBegin
  2
-D
 70
     2
 10
0.0
 20
0.0
 30
0.0
  3
-D
  1

  0
LINE
  5
131D
330
131C
100
AcDbEntity
  8
BORDER
100
AcDbLine
 10
0.0
 20
20.8
 30
0.0
 11
31.5
 21
20.8
 31
0.0
  0
LINE
  5
131E
330
131C
100
AcDbEntity
  8
BORDER
100
AcDbLine
 10
31.5
 20
0.0
 30
0.0
 11
0.0
 21
0.0
 31
0.0
  0
LINE
  5
131F
330
131C
100
AcDbEntity
  8
BORDER
100
AcDbLine
 10
0.0
 20
0.0
 30
0.0
 11
0.0
 21
20.8
 31
0.0
  0
LINE
  5
1320
330
131C
100
AcDbEntity
  8
BORDER
100
AcDbLine
 10
0.4100000000000038
 20
20.36399999999999
 30
0.0
 11
2.892930838364952
 21
20.36399999999999
 31
0.0
  0
LINE
  5
1321
330
131C
100
AcDbEntity
  8
BORDER
100
AcDbLine
 10
0.4100000000000038
 20
20.36399999999999
 30
0.0
 11
0.4100000000000038
 21
17.88106916163505
 31
0.0
  0
LINE
  5
1322
330
131C
100
AcDbEntity
  8
BORDER
100
AcDbLine
 10
0.0
 20
17.88106916163505
 30
0.0
 11
0.4100000000000038
 21
17.88106916163505
 31
0.0
  0
TEXT
  5
1323
330
131C
100
AcDbEntity
  8
TEXT
 62
     5
100
AcDbText
 10
0.1342779012635891
 20
17.91403318886963
 30
0.0
 40
0.075
  1
DWG. No.
 50
90.0
 41
0.95
  7
ROMANS
100
AcDbText
  0
ATTDEF
  5
1324
330
131C
100
AcDbEntity
  8
TEXT
 62
     3
100
AcDbText
 10
0.2687510099971035
 20
19.30535607664388
 30
0.0
 40
0.1
  1

 50
90.0
 41
0.95
  7
ROMANS
 72
     1
 11
0.2687510099971035
 21
19.30535607664388
 31
0.0
100
AcDbAttributeDefinition
  3
DRAWING NUMBER
  2
NUMBER
 70
     4
  0
TEXT
  5
1325
330
131C
100
AcDbEntity
  8
TEXT
 62
     5
100
AcDbText
 10
0.0492115284270689
 20
20.64435283946843
 30
0.0
 40
0.075
  1
PART No.
 41
0.95
  7
ROMANS
100
AcDbText
  0
ATTDEF
  5
1326
330
131C
100
AcDbEntity
  8
TEXT
 62
     3
100
AcDbText
 10
1.661530422783231
 20
20.46705343666794
 30
0.0
 40
0.1
  1

 41
0.95
  7
ROMANS
 72
     1
 11
1.661530422783231
 21
20.46705343666794
 31
0.0
100
AcDbAttributeDefinition
  3
PART-NUMBER
  2
NUMBER
 70
     4
  0
LINE
  5
1327
330
131C
100
AcDbEntity
  8
BORDER
100
AcDbLine
 10
2.892930838364952
 20
20.8
 30
0.0
 11
2.892930838364952
 21
20.36399999999999
 31
0.0
  0
LINE
  5
1328
330
131C
100
AcDbEntity
  8
BORDER
100
AcDbLine
 10
31.5
 20
20.8
 30
0.0
 11
31.5
 21
0.0
 31
0.0
  0
LINE
  5
1329
330
131C
100
AcDbEntity
  8
TEXT
100
AcDbLine
 10
25.58029499640799
 20
0.7547105309344106
 30
0.0
 11
25.59697176040408
 21
0.750325563681813
 31
0.0
  0
LINE
  5
132A
330
131C
100
AcDbEntity
  8
TEXT
100
AcDbLine
 10
25.59038882644976
 20
0.8573187453087104
 30
0.0
 11
25.60574900278863
 21
0.8542492696467565
 31
0.0
  0
LINE
  5
132B
330
131C
100
AcDbEntity
  8
TEXT
100
AcDbLine
 10
25.59521631019444
 20
0.7968062075985381
 30
0.0
 11
25.58951110134494
 21
0.8029451612805528
 31
0.0
  0
LINE
  5
132C
330
131C
100
AcDbEntity
  8
TEXT
100
AcDbLine
 10
25.59609403529926
 20
0.9673814025975611
 30
0.0
 11
25.58424475504785
 21
0.960365456879891
 31
0.0
  0
HATCH
  5
132D
330
131C
100
AcDbEntity
  8
TEXT
100
AcDbHatch
 10
0.0
 20
0.0
 30
0.0
210
0.0
220
0.0
230
1.0
  2
SOLID
 70
     1
 71
     0
 91
        7
 92
        7
 72
     0
 73
     1
 93
       13
 10
24.36900471551036
 20
0.9003357419946384
 10
24.39437564504576
 20
0.7528459699482947
 10
24.4423453975801
 20
0.7528459699482947
 10
24.55853469538884
 20
0.9774045222827092
 10
24.5105649428545
 20
0.9774045222827092
 10
24.43425195958181
 20
0.8299147502363638
 10
24.4088810300464
 20
0.9774045222827091
 10
24.35574748033438
 20
0.9774045222827091
 10
24.2794344970617
 20
0.8299147502363636
 10
24.25406356752629
 20
0.9774045222827092
 10
24.20583708126617
 20
0.9774045222827091
 10
24.24446524597754
 20
0.7528459699482949
 10
24.29269173223766
 20
0.7528459699482949
 97
        0
 92
        7
 72
     0
 73
     1
 93
        4
 10
24.6423887307817
 20
0.9774045222827092
 10
24.58498797767232
 20
0.9774045222827092
 10
24.54569679725409
 20
0.7528459699482949
 10
24.60309755036347
 20
0.7528459699482949
 97
        0
 92
        7
 72
     0
 73
     1
 93
        6
 10
24.75465862193422
 20
0.9774045222827091
 10
24.69688294011951
 20
0.9774045222827096
 10
24.65759175970128
 20
0.7528459699482949
 10
24.8480694344623
 20
0.7528459699482949
 10
24.85485750372354
 20
0.7916414194670802
 10
24.72215551077723
 20
0.7916414194670801
 97
        0
 92
        7
 72
     0
 73
     1
 93
       12
 10
24.88700098048992
 20
0.7528459699482949
 10
24.94403398210717
 20
0.7528459699482949
 10
24.9554246695875
 20
0.8179464903054928
 10
24.9896497873667
 20
0.8439934386191218
 10
25.0600221306653
 20
0.7528459699482949
 10
25.13108976557004
 20
0.7528459699482949
 10
25.03441445815616
 20
0.8780614898629975
 10
25.16494901998536
 20
0.9774045222827092
 10
25.09413454003231
 20
0.9774045222827092
 10
24.96591139920384
 20
0.8778806739136467
 10
24.98332516252541
 20
0.9774045222827091
 10
24.92629216090815
 20
0.9774045222827091
 97
        0
 92
        7
 72
     0
 73
     1
 93
        4
 10
25.1576248488892
 20
0.7528459699482949
 10
25.21661827013922
 20
0.7528459699482947
 10
25.25590945055745
 20
0.9774045222827092
 10
25.19691602930743
 20
0.9774045222827092
 97
        0
 92
        7
 72
     0
 73
     1
 93
       10
 10
25.34939069265361
 20
0.9037900358482692
 10
25.43182376767139
 20
0.7528459699482949
 10
25.48961218795039
 20
0.7528459699482949
 10
25.52890336836862
 20
0.9774045222827092
 10
25.47174050202228
 20
0.9774045222827096
 10
25.44503309321294
 20
0.8247652532409052
 10
25.36167423945103
 20
0.9774045222827091
 10
25.30398800226996
 20
0.9774045222827091
 10
25.26469682185173
 20
0.7528459699482949
 10
25.32297989482523
 20
0.7528459699482947
 97
        0
 92
        7
 72
     0
 73
     1
 93
      104
 10
25.5864390678099
 20
0.8099611069982234
 10
25.58556134270508
 20
0.8161000606802327
 10
25.58556134270508
 20
0.8218005171653715
 10
25.53070356697213
 20
0.8218005171653715
 10
25.53026470441972
 20
0.8165385578771179
 10
25.53070356697212
 20
0.8086456177656893
 10
25.53289787973417
 20
0.7989986912248539
 10
25.53596991326921
 20
0.7897902618808718
 10
25.53991967624091
 20
0.7818973217694382
 10
25.54650260586339
 20
0.7744428788548841
 10
25.556596440237
 20
0.7656729467077979
 10
25.56669027027878
 20
0.7599724902226626
 10
25.580294996408
 20
0.7547105309344103
 10
25.59697176040408
 20
0.7503255636818133
 10
25.61320966184776
 20
0.7490100744492771
 10
25.6329584593789
 20
0.7485715772523954
 10
25.6540238488991
 20
0.7498870664849317
 10
25.67113947111577
 20
0.7525180473081119
 10
25.68825509766428
 20
0.7564645173638283
 10
25.70493186166036
 20
0.7630419658846172
 10
25.71897545467383
 20
0.7700579139603944
 10
25.73038587237283
 20
0.7788278461074804
 10
25.74091856496702
 20
0.79022875907775
 10
25.74662377381651
 20
0.7985601940279549
 10
25.75057353245638
 20
0.8082071205688114
 10
25.753206703439
 20
0.8178540471096566
 10
25.75452329109623
 20
0.8292549600799205
 10
25.75452329109623
 20
0.8326052675013611
 10
25.75402476487034
 20
0.8375863973882392
 10
25.7527081772131
 20
0.8446023431059025
 10
25.74744183091601
 20
0.8538107724498759
 10
25.73690913832183
 20
0.8634576989907245
 10
25.72681530828006
 20
0.8700351498696219
 10
25.71496602802865
 20
0.8748586119609916
 10
25.69960585168979
 20
0.8779280876229464
 10
25.62763244940832
 20
0.8897674977900949
 10
25.61929406524436
 20
0.892836973452049
 10
25.61139454796464
 20
0.8989759271340645
 10
25.60700592677237
 20
0.905991872851732
 10
25.60612820166755
 20
0.9138848129631668
 10
25.60744478499294
 20
0.9222162502714816
 10
25.61139454796465
 20
0.9287936987922693
 10
25.61797748191897
 20
0.9349326524742849
 10
25.62587699919868
 20
0.938879122530001
 10
25.6381651420025
 20
0.9432640897825976
 10
25.65133100557931
 20
0.9454565710507884
 10
25.66274142327832
 20
0.9458950682476702
 10
25.66828686885694
 20
0.9458950682476702
 10
25.68276932009097
 20
0.9441410818182523
 10
25.6950574628948
 20
0.9401946117625371
 10
25.70295698450635
 20
0.9353711496711655
 10
25.70866219335585
 20
0.9292321959891513
 10
25.71173422689089
 20
0.9222162502714782
 10
25.71261195199571
 20
0.9160772965894659
 10
25.71261195199571
 20
0.9103768401043316
 10
25.76110622505055
 20
0.9103768401043316
 10
25.76242281270779
 20
0.9178312830188827
 10
25.76242281270779
 20
0.9274782095597315
 10
25.76110622505056
 20
0.9349326524742849
 10
25.75803419151552
 20
0.9437025846213769
 10
25.75452329109624
 20
0.9494030411064976
 10
25.74881808224673
 20
0.956857484021056
 10
25.74179628574
 20
0.9625579405061927
 10
25.73126359314582
 20
0.9686968941882042
 10
25.72116976310404
 20
0.9730818590826975
 10
25.70932048285264
 20
0.9765898319415306
 10
25.69439916906619
 20
0.9792208127647096
 10
25.67903899272732
 20
0.9809747991941273
 10
25.6597290577486
 20
0.9809747991941273
 10
25.64480773963031
 20
0.9800978048003646
 10
25.62637552975641
 20
0.9774668263352927
 10
25.61013762831273
 20
0.9726433618858145
 10
25.59609403529926
 20
0.9673814025975612
 10
25.58424475504786
 20
0.9603654568798914
 10
25.57415092500608
 20
0.9524725167684614
 10
25.5680068536042
 20
0.9454565710508163
 10
25.56142392398168
 20
0.9380021281362374
 10
25.55527985257977
 20
0.9261627179690881
 10
25.55176895216049
 20
0.9147618049988269
 10
25.55045236883509
 20
0.9033608920285544
 10
25.55133008960808
 20
0.8945909598814669
 10
25.55264667726531
 20
0.8875750141637935
 10
25.5579130235624
 20
0.8783665848198248
 10
25.56844571615658
 20
0.8687196582789772
 10
25.57853954619835
 20
0.8621422074000831
 10
25.59038882644976
 20
0.8573187453087102
 10
25.60574900278862
 20
0.8542492696467578
 10
25.67772240507009
 20
0.8424098594796078
 10
25.68606078923405
 20
0.8393403838176544
 10
25.69396030651377
 20
0.8332014301356393
 10
25.69834892770604
 20
0.8261854844179701
 10
25.69922665281086
 20
0.818292544306538
 10
25.69791006948547
 20
0.8099611069982239
 10
25.69396030651377
 20
0.803383658477437
 10
25.68737737255945
 20
0.7972447047954191
 10
25.67947785527973
 20
0.7932982347397028
 10
25.66718971247591
 20
0.7889132674871058
 10
25.6540238488991
 20
0.7867207862189147
 10
25.64261343120009
 20
0.7862822890220329
 10
25.62988642584386
 20
0.7862822890220329
 10
25.61540397460982
 20
0.7880362754514503
 10
25.603115831806
 20
0.7919827455071682
 10
25.59521631019444
 20
0.7968062075985383
 10
25.58951110134494
 20
0.802945161280553
 97
        0
 75
     0
 76
     1
 47
0.0014431383548765
 98
        7
 10
24.37719114323777
 20
0.9279683037095566
 10
24.60052251068701
 20
0.8498674372215273
 10
24.71218819739067
 20
0.8387101691903581
 10
24.92658630990362
 20
0.8587932503491082
 10
25.19458394607624
 20
0.8387101691903581
 10
25.32188282593938
 20
0.843173075754149
 10
25.56754733072936
 20
0.7963125552126541
  0
LINE
  5
132E
330
131C
100
AcDbEntity
  8
TEXT
100
AcDbLine
 10
25.57168161282146
 20
0.5392074571141712
 30
0.0
 11
25.60348067809323
 21
0.5916206169503104
 31
0.0
  0
LINE
  5
132F
330
131C
100
AcDbEntity
  8
TEXT
100
AcDbLine
 10
25.57380627322916
 20
0.5224491001888833
 30
0.0
 11
25.61577263403092
 21
0.5916206169503104
 31
0.0
  0
TEXT
  5
1330
330
131C
100
AcDbEntity
  8
TEXT
 62
     5
100
AcDbText
 10
25.26511711286782
 20
0.1678978799079438
 30
0.0
 40
0.08
  1
DRAWN
  7
ROMANS
 72
     1
 11
25.46702187477258
 21
0.1678978799079438
 31
0.0
100
AcDbText
  0
HATCH
  5
1331
330
131C
100
AcDbEntity
  8
TEXT
100
AcDbHatch
 10
0.0
 20
0.0
 30
0.0
210
0.0
220
0.0
230
1.0
  2
SOLID
 70
     1
 71
     0
 91
        4
 92
        5
 93
        4
 72
     4
 94
        3
 73
     0
 74
     0
 95
       19
 96
       15
 40
2.149765517175995
 40
2.149765517175995
 40
2.149765517175995
 40
2.149765517175995
 40
3.210988775917606
 40
3.210988775917606
 40
4.359954593284372
 40
4.359954593284372
 40
5.508920410651139
 40
5.508920410651139
 40
6.283185307179586
 40
6.283185307179586
 40
6.283185307179586
 40
6.975858086538659
 40
6.975858086538659
 40
7.762448213933878
 40
7.762448213933878
 40
7.762448213933878
 40
7.762448213933878
 10
25.11957023631929
 20
0.5574560409251732
 10
25.11783214907593
 20
0.5755110540141945
 10
25.10818152890929
 20
0.5926230322181351
 10
25.07319168070827
 20
0.5984518639528062
 10
25.05685617617256
 20
0.5843740885578319
 10
25.03780311515647
 20
0.5491661089389539
 10
25.03408059098983
 20
0.5268672888717099
 10
25.04211541861452
 20
0.4967278969262614
 10
25.05006628378657
 20
0.4856836258186686
 10
25.062016756445
 20
0.4822170235730641
 10
25.0727078870233
 20
0.4791157322409097
 10
25.08412721858855
 20
0.4828818257975981
 10
25.10270145079867
 20
0.4976086769055463
 10
25.11032565628632
 20
0.5095781235665396
 10
25.11492236619956
 20
0.5227791785529663
 72
     1
 10
25.11492236619632
 20
0.5227791785437838
 11
25.10166396912094
 21
0.5227791785437838
 72
     3
 10
25.07832850571685
 20
0.5384487743981417
 11
-0.0128655156657996
 21
-0.0443514952993967
 40
0.5900396816730368
 50
-72.29535083330876
 51
220.4353130737529
 73
     0
 72
     1
 10
25.10716739530328
 20
0.5574560409251799
 11
25.11957023631929
 21
0.5574560409251799
 97
        0
 92
        7
 72
     0
 73
     1
 93
       13
 10
25.24302499727113
 20
0.5916206169503104
 10
25.2271616259939
 20
0.5916206169503104
 10
25.20797274510991
 20
0.4820927051781939
 10
25.2197313270048
 20
0.4820927051781939
 10
25.23478998498762
 20
0.5680457825317661
 10
25.24216353103232
 20
0.4820927051781939
 10
25.25284073097401
 20
0.4820927051781939
 10
25.28873618071225
 20
0.5664822388446462
 10
25.27395144974112
 20
0.4820927051781939
 10
25.28571003163601
 20
0.4820927051781939
 10
25.30489891251999
 20
0.5916206169503104
 10
25.28942487010153
 20
0.5916206169503104
 10
25.25081238663533
 20
0.5008433876029121
 97
        0
 92
        7
 72
     0
 73
     1
 93
       10
 10
25.48102362303754
 20
0.5916206169503104
 10
25.46991021686634
 20
0.5916206169503104
 10
25.45072133598236
 20
0.4820927051781939
 10
25.46196321123816
 20
0.4820927051781939
 10
25.47709513022376
 20
0.5684639478587191
 10
25.50389388494869
 20
0.4820927051781939
 10
25.51513983497642
 20
0.4820927051781939
 10
25.5343287158604
 20
0.5916206169503104
 10
25.52308276583266
 20
0.5916206169503104
 10
25.50794222599982
 20
0.5052001674712386
 97
        0
 92
        7
 72
     0
 73
     1
 93
        9
 10
25.55764386415857
 20
0.5916206169503104
 10
25.54520142232889
 20
0.5916206169503104
 10
25.56316226873683
 20
0.5245596703427743
 10
25.5557222151207
 20
0.4820927051781939
 10
25.56673598361771
 20
0.4820927051781939
 10
25.57380627322916
 20
0.5224491001888835
 10
25.61577263403092
 20
0.5916206169503104
 10
25.60348067809323
 20
0.5916206169503104
 10
25.57168161282146
 20
0.5392074571141716
 97
        0
 75
     0
 76
     1
 47
0.0005030016253831
 98
        4
 10
25.11222884210188
 20
0.5683551735235144
 10
25.23181350089888
 20
0.5739551079440757
 10
25.47845680207167
 20
0.5789328147680664
 10
25.5588027130231
 20
0.5795550195749195
  0
LINE
  5
1332
330
131C
100
AcDbEntity
  8
BORDER
100
AcDbLine
 10
23.94899684161726
 20
0.2740000000000027
 30
0.0
 11
27.81899684161727
 21
0.2740000000000027
 31
0.0
  0
LINE
  5
1333
330
131C
100
AcDbEntity
  8
BORDER
100
AcDbLine
 10
19.00641374606959
 20
1.131598244315881
 30
0.0
 11
31.5
 21
1.131598244315881
 31
0.0
  0
TEXT
  5
1334
330
131C
100
AcDbEntity
  8
TEXT
 62
     5
100
AcDbText
 10
20.20135964312774
 20
0.2778648998703552
 30
0.0
 40
0.05
  1
OR ANY OTHER PURPOSE
 41
0.95
  7
ROMANS
100
AcDbText
  0
TEXT
  5
1335
330
131C
100
AcDbEntity
  8
TEXT
 62
     5
100
AcDbText
 10
20.20135964312774
 20
0.1719125189179724
 30
0.0
 40
0.05
  1
WITHOUT WRITTEN PERMI-
 41
0.95
  7
ROMANS
100
AcDbText
  0
TEXT
  5
1336
330
131C
100
AcDbEntity
  8
TEXT
 62
     5
100
AcDbText
 10
20.20135964312774
 20
0.9135791855846413
 30
0.0
 40
0.05
  1
PROPRIETARY INFORMATION.
 41
0.95
  7
ROMANS
100
AcDbText
  0
TEXT
  5
1337
330
131C
100
AcDbEntity
  8
TEXT
 62
     5
100
AcDbText
 10
20.20135964312774
 20
0.3838172808227362
 30
0.0
 40
0.05
  1
USED FOR MANUFACTURING
 41
0.95
  7
ROMANS
100
AcDbText
  0
TEXT
  5
1338
330
131C
100
AcDbEntity
  8
TEXT
 62
     5
100
AcDbText
 10
20.20135964312774
 20
0.4897696617751155
 30
0.0
 40
0.05
  1
DISCLOSED TO OTHERS OR
 41
0.95
  7
ROMANS
100
AcDbText
  0
TEXT
  5
1339
330
131C
100
AcDbEntity
  8
TEXT
 62
     5
100
AcDbText
 10
20.20135964312774
 20
0.7016744236798776
 30
0.0
 40
0.05
  1
CED OR TRANSFERRED TO
 41
0.95
  7
ROMANS
100
AcDbText
  0
TEXT
  5
133A
330
131C
100
AcDbEntity
  8
TEXT
 62
     5
100
AcDbText
 10
20.20135964312774
 20
0.8076268046322603
 30
0.0
 40
0.05
  1
IT MAY NOT BE REPRODU-
 41
0.95
  7
ROMANS
100
AcDbText
  0
TEXT
  5
133B
330
131C
100
AcDbEntity
  8
TEXT
 62
     5
100
AcDbText
 10
20.20135964312774
 20
0.5957220427274983
 30
0.0
 40
0.05
  1
OTHER DOCUMENTS OR
 41
0.95
  7
ROMANS
100
AcDbText
  0
TEXT
  5
133C
330
131C
100
AcDbEntity
  8
TEXT
 62
     5
100
AcDbText
 10
20.20135964312774
 20
1.019531566537022
 30
0.0
 40
0.05
  1
THIS DOCUMENT CONTAINS
 41
0.95
  7
ROMANS
100
AcDbText
  0
ATTDEF
  5
133D
330
131C
100
AcDbEntity
  8
TEXT
 62
     6
100
AcDbText
 10
19.58264864733845
 20
0.3985227020255966
 30
0.0
 40
0.6328125
  1

 41
0.95
  7
ROMANS
 72
     1
 11
19.58264864733845
 21
0.3985227020255966
 31
0.0
100
AcDbAttributeDefinition
  3
REV BOX
  2
REV
 70
     0
  0
LINE
  5
133E
330
131C
100
AcDbEntity
  8
BORDER
100
AcDbLine
 10
20.1231623336921
 20
1.131598244315881
 30
0.0
 11
20.1231623336921
 21
0.0130147802924441
 31
0.0
  0
LINE
  5
133F
330
131C
100
AcDbEntity
  8
BORDER
100
AcDbLine
 10
19.00641374606959
 20
1.131598244315881
 30
0.0
 11
19.00641374606959
 21
0.0130147802924441
 31
0.0
  0
TEXT
  5
1340
330
131C
100
AcDbEntity
  8
TEXT
 62
     3
100
AcDbText
 10
19.15518898074956
 20
0.1022729847626103
 30
0.0
 40
0.125
  1
REVISION
 41
0.95
  7
ROMANS
100
AcDbText
  0
TEXT
  5
1341
330
131C
100
AcDbEntity
  8
TEXT
 62
     5
100
AcDbText
 10
20.20135964312774
 20
0.0659601379655932
 30
0.0
 40
0.05
  1
SSION.
 41
0.95
  7
ROMANS
100
AcDbText
  0
TEXT
  5
1342
330
131C
100
AcDbEntity
  8
TEXT
 62
     3
100
AcDbText
 10
22.18359906620696
 20
0.64483320857657
 30
0.0
 40
0.08
  1
2 PL. %%P.01
  7
ROMANS
 72
     1
 11
22.5264562090641
 21
0.64483320857657
 31
0.0
100
AcDbText
  0
LINE
  5
1343
330
131C
100
AcDbEntity
  8
BORDER
100
AcDbLine
 10
23.94899684161726
 20
1.131598244315885
 30
0.0
 11
23.94899684161726
 21
0.0130147802924476
 31
0.0
  0
LINE
  5
1344
330
131C
100
AcDbEntity
  8
BORDER
100
AcDbLine
 10
21.23991092131462
 20
1.132097773872398
 30
0.0
 11
21.23991092131462
 21
0.0135143098489614
 31
0.0
  0
TEXT
  5
1345
330
131C
100
AcDbEntity
  8
TEXT
 62
     5
100
AcDbText
 10
21.99303871957773
 20
0.3405361758470524
 30
0.0
 40
0.08
  1
ALL DIMS. IN INCHES
  7
ROMANS
 72
     1
 11
22.63684824338725
 21
0.3405361758470524
 31
0.0
100
AcDbText
  0
TEXT
  5
1346
330
131C
100
AcDbEntity
  8
TEXT
 62
     3
100
AcDbText
 10
23.06744598154074
 20
0.1031587141734178
 30
0.0
 40
0.08
  1
SIZE D
  7
ROMANS
 72
     1
 11
23.27506502915979
 21
0.1031587141734178
 31
0.0
100
AcDbText
  0
LINE
  5
1347
330
131C
100
AcDbEntity
  8
BORDER
100
AcDbLine
 10
21.24991092131462
 20
0.2740000000000027
 30
0.0
 11
23.93899684161727
 21
0.2740000000000027
 31
0.0
  0
TEXT
  5
1348
330
131C
100
AcDbEntity
  8
TEXT
 62
     5
100
AcDbText
 10
21.32893348690784
 20
0.5445569494316099
 30
0.0
 40
0.08
  1
%%uFRACTIONS
  7
ROMANS
 72
     1
 11
21.63340967738403
 21
0.5445569494316099
 31
0.0
100
AcDbText
  0
TEXT
  5
1349
330
131C
100
AcDbEntity
  8
TEXT
 62
     5
100
AcDbText
 10
21.34567510103966
 20
0.1678978799079438
 30
0.0
 40
0.08
  1
SHT.
  7
ROMANS
 72
     1
 11
21.47329414865871
 21
0.1678978799079438
 31
0.0
100
AcDbText
  0
ATTDEF
  5
134A
330
131C
100
AcDbEntity
  8
TEXT
 62
     3
100
AcDbText
 10
21.62588223797564
 20
0.104000000000001
 30
0.0
 40
0.08
  1
1
  7
ROMANS
100
AcDbAttributeDefinition
  3
Sheet No.
  2
SHT
 70
     0
  0
TEXT
  5
134B
330
131C
100
AcDbEntity
  8
TEXT
 62
     3
100
AcDbText
 10
21.47388586786022
 20
0.3945569494316094
 30
0.0
 40
0.08
  1
%%P1/64
  7
ROMANS
 72
     1
 11
21.68340967738403
 21
0.3945569494316094
 31
0.0
100
AcDbText
  0
TEXT
  5
134C
330
131C
100
AcDbEntity
  8
TEXT
 62
     3
100
AcDbText
 10
22.18407525668314
 20
0.5146138519253619
 30
0.0
 40
0.08
  1
3 PL. %%P.005
  7
ROMANS
 72
     1
 11
22.5764562090641
 21
0.5146138519253619
 31
0.0
100
AcDbText
  0
TEXT
  5
134D
330
131C
100
AcDbEntity
  8
TEXT
 62
     5
100
AcDbText
 10
21.9179228622415
 20
0.1678978799079438
 30
0.0
 40
0.08
  1
OF
  7
ROMANS
 72
     1
 11
21.9979228622415
 21
0.1678978799079438
 31
0.0
100
AcDbText
  0
ATTDEF
  5
134E
330
131C
100
AcDbEntity
  8
TEXT
 62
     3
100
AcDbText
 10
22.12895450777721
 20
0.104000000000001
 30
0.0
 40
0.08
  1
1
  7
ROMANS
100
AcDbAttributeDefinition
  3
     of
  2
SHT
 70
     0
  0
LINE
  5
134F
330
131C
100
AcDbEntity
  8
BORDER
100
AcDbLine
 10
22.59445388146594
 20
0.0
 30
0.0
 11
22.59445388146594
 21
0.2740000000000027
 31
0.0
  0
LINE
  5
1350
330
131C
100
AcDbEntity
  8
TEXT
100
AcDbLine
 10
24.31951352142272
 20
0.4820927051781939
 30
0.0
 11
24.36610168800141
 21
0.5916206169503104
 31
0.0
  0
LINE
  5
1351
330
131C
100
AcDbEntity
  8
TEXT
100
AcDbLine
 10
24.35101157708681
 20
0.5269918897822944
 30
0.0
 11
24.37117020238882
 21
0.5743844423481118
 31
0.0
  0
LINE
  5
1352
330
131C
100
AcDbEntity
  8
TEXT
100
AcDbLine
 10
24.35101157708681
 20
0.5269918897822944
 30
0.0
 11
24.37523580631225
 21
0.5269918897822944
 31
0.0
  0
LINE
  5
1353
330
131C
100
AcDbEntity
  8
TEXT
100
AcDbLine
 10
24.34582171906301
 20
0.5147906302461529
 30
0.0
 11
24.37628250006381
 21
0.5147906302461529
 31
0.0
  0
HATCH
  5
1354
330
131C
100
AcDbEntity
  8
TEXT
100
AcDbHatch
 10
0.0
 20
0.0
 30
0.0
210
0.0
220
0.0
230
1.0
  2
SOLID
 70
     1
 71
     0
 91
        2
 92
        7
 72
     0
 73
     1
 93
        8
 10
24.38235453762916
 20
0.5916206169503104
 10
24.36610168800141
 20
0.5916206169503103
 10
24.31951352142272
 20
0.4820927051781939
 10
24.33191351653093
 20
0.4820927051781939
 10
24.34582171906302
 20
0.5147906302461529
 10
24.37628250006381
 20
0.5147906302461529
 10
24.37908751488675
 20
0.4820927051781939
 10
24.39175046765862
 20
0.4820927051781939
 97
        0
 92
       22
 72
     0
 73
     1
 93
        3
 10
24.37117020238882
 20
0.5743844423481118
 10
24.37523580631225
 20
0.5269918897822944
 10
24.35101157708681
 20
0.5269918897822944
 97
        0
 75
     0
 76
     1
 47
0.0008452211162067
 98
        2
 10
24.37824911913725
 20
0.5816187667114713
 10
24.37824911913725
 20
0.5816187667114713
  0
TEXT
  5
1355
330
131C
100
AcDbEntity
  8
TEXT
 62
     5
100
AcDbText
 10
23.35772870173156
 20
0.548412079870748
 30
0.0
 40
0.08
  1
%%UANGLES
  7
ROMANS
 72
     1
 11
23.56887155887441
 21
0.548412079870748
 31
0.0
100
AcDbText
  0
TEXT
  5
1356
330
131C
100
AcDbEntity
  8
TEXT
 62
     3
100
AcDbText
 10
23.46410965411251
 20
0.3984120798707474
 30
0.0
 40
0.08
  1
%%P1%%D
  7
ROMANS
 72
     1
 11
23.56887155887441
 21
0.3984120798707474
 31
0.0
100
AcDbText
  0
TEXT
  5
1357
330
131C
100
AcDbEntity
  8
TEXT
 62
     5
100
AcDbText
 10
24.0008313985821
 20
0.1678978799079438
 30
0.0
 40
0.08
  1
SCALE
  7
ROMANS
 72
     1
 11
24.18368854143924
 21
0.1678978799079438
 31
0.0
100
AcDbText
  0
LINE
  5
1358
330
131C
100
AcDbEntity
  8
TEXT
100
AcDbLine
 10
24.33191351653093
 20
0.4820927051781939
 30
0.0
 11
24.34582171906302
 21
0.5147906302461529
 31
0.0
  0
LINE
  5
1359
330
131C
100
AcDbEntity
  8
TEXT
100
AcDbLine
 10
24.31951352142272
 20
0.4820927051781939
 30
0.0
 11
24.33191351653093
 21
0.4820927051781939
 31
0.0
  0
ATTDEF
  5
135A
330
131C
100
AcDbEntity
  8
TEXT
 62
     3
100
AcDbText
 10
24.43808276191992
 20
0.104000000000001
 30
0.0
 40
0.08
  1
1=1
  7
ROMANS
100
AcDbAttributeDefinition
  3
Scale
  2
SCALE
 70
     0
  0
LINE
  5
135B
330
131C
100
AcDbEntity
  8
TEXT
100
AcDbLine
 10
24.67193649435614
 20
0.5904086985937922
 30
0.0
 11
24.66017000465416
 21
0.5241677195307878
 31
0.0
  0
HATCH
  5
135C
330
131C
100
AcDbEntity
  8
TEXT
100
AcDbHatch
 10
0.0
 20
0.0
 30
0.0
210
0.0
220
0.0
230
1.0
  2
SOLID
 70
     1
 71
     0
 91
        2
 92
        7
 72
     1
 73
     1
 93
        2
 10
24.51271194203405
 20
0.6158682123765677
 42
0.0
 10
24.92586452378381
 20
0.6158682123765667
 42
0.1540857664373886
 97
        0
 92
        7
 72
     1
 73
     1
 93
        2
 10
24.90043968385343
 20
0.4631936180292228
 42
0.0
 10
24.48728710210368
 20
0.4631936180292218
 42
0.1695196477944239
 97
        0
 75
     0
 76
     1
 47
0.0005030016554113
 98
        2
 10
24.67191584410663
 20
0.634277683929965
 10
24.69184660521384
 20
0.4525914190389067
  0
ARC
  5
135D
330
131C
100
AcDbEntity
  8
TEXT
100
AcDbCircle
 10
24.65116113612568
 20
0.5249691538378756
 30
0.0
 40
0.0362314344900731
100
AcDbArc
 50
270.0
 51
349.9275221625611
  0
LINE
  5
135E
330
131C
100
AcDbEntity
  8
TEXT
100
AcDbLine
 10
24.90043968385343
 20
0.4631936180292228
 30
0.0
 11
24.48728710210367
 21
0.4631936180292218
 31
0.0
  0
ARC
  5
135F
330
131C
100
AcDbEntity
  8
TEXT
100
AcDbCircle
 10
24.69386339297856
 20
1.054983209979699
 30
0.0
 40
0.6268083320222648
100
AcDbArc
 50
250.7574118200555
 51
289.2425881799443
  0
HATCH
  5
1360
330
131C
100
AcDbEntity
  8
TEXT
100
AcDbHatch
 10
0.0
 20
0.0
 30
0.0
210
0.0
220
0.0
230
1.0
  2
SOLID
 70
     1
 71
     0
 91
        3
 92
        7
 72
     0
 73
     1
 93
       10
 10
24.59162593020905
 20
0.5658898779516122
 10
24.59606171392962
 20
0.5908616974155404
 10
24.51311959928157
 20
0.5908616974155404
 10
24.508683815561
 20
0.565889877951613
 10
24.54597561904617
 20
0.5658898779516122
 10
24.49949540642555
 20
0.5141625376334778
 10
24.49505962270498
 20
0.4891907181695501
 10
24.57800173735302
 20
0.4891907181695501
 10
24.58243752107359
 20
0.5141625376334777
 10
24.54514571758842
 20
0.5141625376334784
 97
        0
 92
        7
 72
     1
 73
     1
 93
       12
 10
24.6442891228068
 20
0.5904086985937922
 42
0.0
 10
24.61664175125745
 20
0.5904086985937922
 42
0.0
 10
24.60381661541986
 20
0.5182079338784652
 42
0.4666927242167195
 10
24.62851331493601
 20
0.4887377193478019
 42
0.0
 10
24.65116113612568
 20
0.4887377193478019
 42
0.3636121370057948
 10
24.6868341465379
 20
0.5186325006725451
 42
0.0
 10
24.69958386590549
 20
0.5904086985937922
 42
0.0
 10
24.67193649435614
 20
0.5904086985937922
 42
0.0
 10
24.66017000465416
 20
0.5241677195307882
 42
-0.3636121370058041
 10
24.64875464132225
 20
0.5146013895068695
 42
0.0
 10
24.63720874605236
 20
0.5146013895068695
 42
-0.4666927242166856
 10
24.63194011682225
 20
0.5208883686067444
 42
0.0
 97
        0
 92
        7
 72
     0
 73
     1
 93
       10
 10
24.85024382585538
 20
0.5904086985937922
 10
24.82259645430603
 20
0.5904086985937922
 10
24.80453647772944
 20
0.4887377193478019
 10
24.83218384927879
 20
0.4887377193478026
 10
24.84121383756709
 20
0.5395732089707971
 10
24.85983122082814
 20
0.4887377193478026
 10
24.88747859237749
 20
0.4887377193478026
 10
24.90553856895408
 20
0.5904086985937922
 10
24.87789119740473
 20
0.5904086985937922
 10
24.86696711401206
 20
0.5289101550498763
 97
        0
 75
     0
 76
     1
 47
0.0005030016554113
 98
        3
 10
24.57350763338506
 20
0.5652120159906753
 10
24.62707157401934
 20
0.5589898767632608
 10
24.82949351770417
 20
0.5552566023426984
  0
ARC
  5
1361
330
131C
100
AcDbEntity
  8
TEXT
100
AcDbCircle
 10
24.71928823290893
 20
-0.0385454747910676
 30
0.0
 40
0.6862441532748834
100
AcDbArc
 50
72.4808537182195
 51
107.51914628178
  0
LINE
  5
1362
330
131C
100
AcDbEntity
  8
TEXT
100
AcDbLine
 10
24.92586452378381
 20
0.6158682123765665
 30
0.0
 11
24.51271194203405
 21
0.6158682123765676
 31
0.0
  0
LINE
  5
1363
330
131C
100
AcDbEntity
  8
TEXT
100
AcDbLine
 10
24.39175046765862
 20
0.4820927051781939
 30
0.0
 11
24.38235453762916
 21
0.5916206169503104
 31
0.0
  0
LINE
  5
1364
330
131C
100
AcDbEntity
  8
TEXT
100
AcDbLine
 10
24.37908751488675
 20
0.4820927051781939
 30
0.0
 11
24.39175046765862
 21
0.4820927051781939
 31
0.0
  0
LINE
  5
1365
330
131C
100
AcDbEntity
  8
TEXT
100
AcDbLine
 10
24.58243752107359
 20
0.5141625376334776
 30
0.0
 11
24.54514571758842
 21
0.5141625376334784
 31
0.0
  0
LINE
  5
1366
330
131C
100
AcDbEntity
  8
TEXT
100
AcDbLine
 10
24.59162593020905
 20
0.5658898779516122
 30
0.0
 11
24.54514571758842
 21
0.5141625376334784
 31
0.0
  0
LINE
  5
1367
330
131C
100
AcDbEntity
  8
TEXT
100
AcDbLine
 10
24.59606171392962
 20
0.5908616974155404
 30
0.0
 11
24.51311959928157
 21
0.5908616974155404
 31
0.0
  0
LINE
  5
1368
330
131C
100
AcDbEntity
  8
TEXT
100
AcDbLine
 10
24.57800173735302
 20
0.4891907181695501
 30
0.0
 11
24.49505962270498
 21
0.4891907181695501
 31
0.0
  0
LINE
  5
1369
330
131C
100
AcDbEntity
  8
TEXT
100
AcDbLine
 10
24.51311959928157
 20
0.5908616974155404
 30
0.0
 11
24.508683815561
 21
0.5658898779516129
 31
0.0
  0
LINE
  5
136A
330
131C
100
AcDbEntity
  8
TEXT
100
AcDbLine
 10
24.54597561904617
 20
0.5658898779516122
 30
0.0
 11
24.508683815561
 21
0.5658898779516129
 31
0.0
  0
LINE
  5
136B
330
131C
100
AcDbEntity
  8
TEXT
100
AcDbLine
 10
24.49949540642555
 20
0.5141625376334776
 30
0.0
 11
24.54597561904617
 21
0.5658898779516122
 31
0.0
  0
LINE
  5
136C
330
131C
100
AcDbEntity
  8
TEXT
100
AcDbLine
 10
24.49949540642555
 20
0.5141625376334776
 30
0.0
 11
24.49505962270498
 21
0.4891907181695501
 31
0.0
  0
ARC
  5
136D
330
131C
100
AcDbEntity
  8
TEXT
100
AcDbCircle
 10
24.64875464132225
 20
0.5261954485436935
 30
0.0
 40
0.0115940590368234
100
AcDbArc
 50
270.0000000000002
 51
349.9275221625611
  0
LINE
  5
136E
330
131C
100
AcDbEntity
  8
TEXT
100
AcDbLine
 10
24.6442891228068
 20
0.5904086985937922
 30
0.0
 11
24.61664175125745
 21
0.5904086985937922
 31
0.0
  0
LINE
  5
136F
330
131C
100
AcDbEntity
  8
TEXT
100
AcDbLine
 10
24.61664175125745
 20
0.5904086985937922
 30
0.0
 11
24.60381661541986
 21
0.518207933878466
 31
0.0
  0
LINE
  5
1370
330
131C
100
AcDbEntity
  8
TEXT
100
AcDbLine
 10
24.59606171392962
 20
0.5908616974155404
 30
0.0
 11
24.59162593020905
 21
0.5658898779516122
 31
0.0
  0
LINE
  5
1371
330
131C
100
AcDbEntity
  8
TEXT
100
AcDbLine
 10
24.64875464132225
 20
0.5146013895068695
 30
0.0
 11
24.63720874605237
 21
0.5146013895068695
 31
0.0
  0
ARC
  5
1372
330
131C
100
AcDbEntity
  8
TEXT
100
AcDbCircle
 10
24.63720874605237
 20
0.5199524936777119
 30
0.0
 40
0.0053511041708416
100
AcDbArc
 50
169.9275221625609
 51
270.0000000000002
  0
LINE
  5
1373
330
131C
100
AcDbEntity
  8
TEXT
100
AcDbLine
 10
24.6442891228068
 20
0.5904086985937922
 30
0.0
 11
24.63194011682225
 21
0.5208883686067445
 31
0.0
  0
LINE
  5
1374
330
131C
100
AcDbEntity
  8
TEXT
100
AcDbLine
 10
24.65116113612568
 20
0.4887377193478019
 30
0.0
 11
24.62851331493602
 21
0.4887377193478019
 31
0.0
  0
ARC
  5
1375
330
131C
100
AcDbEntity
  8
TEXT
100
AcDbCircle
 10
24.62851331493602
 20
0.513821020148622
 30
0.0
 40
0.0250833008008198
100
AcDbArc
 50
169.927522162561
 51
270.0
  0
LINE
  5
1376
330
131C
100
AcDbEntity
  8
TEXT
100
AcDbLine
 10
24.58243752107359
 20
0.5141625376334776
 30
0.0
 11
24.57800173735302
 21
0.4891907181695501
 31
0.0
  0
LINE
  5
1377
330
131C
100
AcDbEntity
  8
TEXT
100
AcDbLine
 10
24.37523580631225
 20
0.5269918897822944
 30
0.0
 11
24.37117020238882
 21
0.5743844423481118
 31
0.0
  0
LINE
  5
1378
330
131C
100
AcDbEntity
  8
TEXT
100
AcDbLine
 10
24.37908751488675
 20
0.4820927051781939
 30
0.0
 11
24.37628250006381
 21
0.5147906302461529
 31
0.0
  0
LINE
  5
1379
330
131C
100
AcDbEntity
  8
TEXT
100
AcDbLine
 10
24.36610168800141
 20
0.5916206169503104
 30
0.0
 11
24.38235453762916
 21
0.5916206169503104
 31
0.0
  0
TEXT
  5
137A
330
131C
100
AcDbEntity
  8
TEXT
100
AcDbText
 10
24.90786732986401
 20
0.4899289822263832
 30
0.0
 40
0.0270580076822175
  1
TM
 41
0.85
  7
ROMANS
100
AcDbText
  0
LINE
  5
137B
330
131C
100
AcDbEntity
  8
TEXT
100
AcDbLine
 10
24.80453647772944
 20
0.4887377193478019
 30
0.0
 11
24.83218384927879
 21
0.4887377193478026
 31
0.0
  0
LINE
  5
137C
330
131C
100
AcDbEntity
  8
TEXT
100
AcDbLine
 10
24.82259645430603
 20
0.5904086985937922
 30
0.0
 11
24.80453647772944
 21
0.4887377193478019
 31
0.0
  0
LINE
  5
137D
330
131C
100
AcDbEntity
  8
TEXT
100
AcDbLine
 10
24.76137590431656
 20
0.5654368791298648
 30
0.0
 11
24.74292211511008
 21
0.5654368791298648
 31
0.0
  0
ARC
  5
137E
330
131C
100
AcDbEntity
  8
TEXT
100
AcDbCircle
 10
24.75771380081504
 20
0.5554268329997157
 30
0.0
 40
0.0120444766196915
100
AcDbArc
 50
301.8669813934583
 51
31.89250040790762
  0
LINE
  5
137F
330
131C
100
AcDbEntity
  8
TEXT
100
AcDbLine
 10
24.74339100927985
 20
0.5221821204155625
 30
0.0
 11
24.73523870402267
 21
0.5221821204155625
 31
0.0
  0
LINE
  5
1380
330
131C
100
AcDbEntity
  8
TEXT
100
AcDbLine
 10
24.75999096319075
 20
0.5440324624464985
 30
0.0
 11
24.73912001477816
 21
0.5440324624464985
 31
0.0
  0
LINE
  5
1381
330
131C
100
AcDbEntity
  8
TEXT
100
AcDbLine
 10
24.74292211511008
 20
0.5654368791298648
 30
0.0
 11
24.73912001477816
 21
0.5440324624464985
 31
0.0
  0
ARC
  5
1382
330
131C
100
AcDbEntity
  8
TEXT
100
AcDbCircle
 10
24.75836439321044
 20
0.5576713682124345
 30
0.0
 40
0.0376844353990909
100
AcDbArc
 50
289.6527591501218
 51
51.02107143516662
  0
LINE
  5
1383
330
131C
100
AcDbEntity
  8
TEXT
100
AcDbLine
 10
24.78459266535275
 20
0.4887377193478026
 30
0.0
 11
24.7569452938034
 21
0.4887377193478026
 31
0.0
  0
LINE
  5
1384
330
131C
100
AcDbEntity
  8
TEXT
100
AcDbLine
 10
24.7710383808292
 20
0.5221821204155625
 30
0.0
 11
24.78459266535275
 21
0.4887377193478026
 31
0.0
  0
LINE
  5
1385
330
131C
100
AcDbEntity
  8
TEXT
100
AcDbLine
 10
24.74339100927985
 20
0.5221821204155625
 30
0.0
 11
24.7569452938034
 21
0.4887377193478019
 31
0.0
  0
LINE
  5
1386
330
131C
100
AcDbEntity
  8
TEXT
100
AcDbLine
 10
24.72929792225405
 20
0.4887377193478026
 30
0.0
 11
24.70165055070471
 21
0.4887377193478026
 31
0.0
  0
LINE
  5
1387
330
131C
100
AcDbEntity
  8
TEXT
100
AcDbLine
 10
24.7197105272813
 20
0.5904086985937922
 30
0.0
 11
24.70165055070471
 21
0.4887377193478019
 31
0.0
  0
LINE
  5
1388
330
131C
100
AcDbEntity
  8
TEXT
100
AcDbLine
 10
24.73523870402267
 20
0.5221821204155625
 30
0.0
 11
24.72929792225405
 21
0.4887377193478019
 31
0.0
  0
LINE
  5
1389
330
131C
100
AcDbEntity
  8
TEXT
100
AcDbLine
 10
24.77234275504129
 20
0.5904086985937922
 30
0.0
 11
24.7197105272813
 21
0.5904086985937922
 31
0.0
  0
ARC
  5
138A
330
131C
100
AcDbEntity
  8
TEXT
100
AcDbCircle
 10
24.77234275504129
 20
0.5749461936714538
 30
0.0
 40
0.0154625049223386
100
AcDbArc
 50
51.02107143516642
 51
90.0
  0
ARC
  5
138B
330
131C
100
AcDbEntity
  8
TEXT
100
AcDbCircle
 10
24.76137590431656
 20
0.5577056266686954
 30
0.0
 40
0.0077312524611693
100
AcDbArc
 50
31.89250040790756
 51
90.0
  0
ARC
  5
138C
330
131C
100
AcDbEntity
  8
TEXT
100
AcDbCircle
 10
24.75999096319075
 20
0.5517637149076677
 30
0.0
 40
0.0077312524611693
100
AcDbArc
 50
270.0
 51
301.8669813934583
  0
HATCH
  5
138D
330
131C
100
AcDbEntity
  8
TEXT
100
AcDbHatch
 10
0.0
 20
0.0
 30
0.0
210
0.0
220
0.0
230
1.0
  2
SOLID
 70
     1
 71
     0
 91
        2
 92
        7
 72
     1
 73
     1
 93
       10
 10
24.78206920472313
 20
0.5869663947953861
 42
0.1717367721770664
 10
24.77234275504129
 20
0.5904086985937922
 42
0.0
 10
24.7197105272813
 20
0.5904086985937922
 42
0.0
 10
24.7016505507047
 20
0.4887377193478026
 42
0.0
 10
24.72929792225405
 20
0.4887377193478026
 42
0.0
 10
24.73523870402267
 20
0.5221821204155625
 42
0.0
 10
24.74339100927985
 20
0.5221821204155625
 42
0.0
 10
24.7569452938034
 20
0.4887377193478026
 42
0.0
 10
24.78459266535275
 20
0.4887377193478026
 42
0.0
 10
24.7710383808292
 20
0.5221821204155621
 42
0.5853384174846728
 97
        0
 92
       22
 72
     1
 73
     1
 93
        6
 10
24.74292211511008
 20
0.5654368791298648
 42
0.0
 10
24.76137590431656
 20
0.5654368791298648
 42
-0.2591180724233737
 10
24.76794005347011
 20
0.5617902576812046
 42
-0.4143440203427312
 10
24.76407267018641
 20
0.5451977471480817
 42
-0.1399490157835832
 10
24.75999096319076
 20
0.5440324624464984
 42
0.0
 10
24.73912001477816
 20
0.5440324624464984
 42
0.0
 97
        0
 75
     0
 76
     1
 47
0.0005030016554113
 98
        2
 10
24.72672547170911
 20
0.5739229972352329
 10
24.72672547170911
 20
0.5739229972352329
  0
LINE
  5
138E
330
131C
100
AcDbEntity
  8
TEXT
100
AcDbLine
 10
24.87789119740473
 20
0.5904086985937922
 30
0.0
 11
24.90553856895408
 21
0.5904086985937922
 31
0.0
  0
LINE
  5
138F
330
131C
100
AcDbEntity
  8
TEXT
100
AcDbLine
 10
24.87789119740473
 20
0.5904086985937922
 30
0.0
 11
24.86696711401206
 21
0.5289101550498763
 31
0.0
  0
LINE
  5
1390
330
131C
100
AcDbEntity
  8
TEXT
100
AcDbLine
 10
24.85024382585538
 20
0.5904086985937922
 30
0.0
 11
24.86696711401206
 21
0.5289101550498763
 31
0.0
  0
LINE
  5
1391
330
131C
100
AcDbEntity
  8
TEXT
100
AcDbLine
 10
24.82259645430603
 20
0.5904086985937922
 30
0.0
 11
24.85024382585538
 21
0.5904086985937922
 31
0.0
  0
LINE
  5
1392
330
131C
100
AcDbEntity
  8
TEXT
100
AcDbLine
 10
24.85983122082814
 20
0.4887377193478026
 30
0.0
 11
24.88747859237749
 21
0.4887377193478026
 31
0.0
  0
LINE
  5
1393
330
131C
100
AcDbEntity
  8
TEXT
100
AcDbLine
 10
24.90553856895408
 20
0.5904086985937922
 30
0.0
 11
24.88747859237749
 21
0.4887377193478026
 31
0.0
  0
LINE
  5
1394
330
131C
100
AcDbEntity
  8
TEXT
100
AcDbLine
 10
24.84121383756709
 20
0.539573208970797
 30
0.0
 11
24.83218384927879
 21
0.4887377193478019
 31
0.0
  0
LINE
  5
1395
330
131C
100
AcDbEntity
  8
TEXT
100
AcDbLine
 10
24.84121383756709
 20
0.539573208970797
 30
0.0
 11
24.85983122082814
 21
0.4887377193478019
 31
0.0
  0
LINE
  5
1396
330
131C
100
AcDbEntity
  8
TEXT
100
AcDbLine
 10
24.69958386590549
 20
0.5904086985937922
 30
0.0
 11
24.67193649435614
 21
0.5904086985937922
 31
0.0
  0
LINE
  5
1397
330
131C
100
AcDbEntity
  8
TEXT
100
AcDbLine
 10
24.69958386590549
 20
0.5904086985937922
 30
0.0
 11
24.6868341465379
 21
0.5186325006725459
 31
0.0
  0
LINE
  5
1398
330
131C
100
AcDbEntity
  8
BORDER
100
AcDbLine
 10
25.23899684161728
 20
0.2740000000000072
 30
0.0
 11
25.23899684161727
 21
0.0
 31
0.0
  0
LINE
  5
1399
330
131C
100
AcDbEntity
  8
TEXT
100
AcDbLine
 10
25.27395144974112
 20
0.4820927051781939
 30
0.0
 11
25.28873618071225
 21
0.5664822388446457
 31
0.0
  0
LINE
  5
139A
330
131C
100
AcDbEntity
  8
TEXT
100
AcDbLine
 10
25.25284072987808
 20
0.4820927026016954
 30
0.0
 11
25.28873618071225
 21
0.5664822388446457
 31
0.0
  0
LINE
  5
139B
330
131C
100
AcDbEntity
  8
TEXT
100
AcDbLine
 10
25.25081238663533
 20
0.5008433876029117
 30
0.0
 11
25.28942487010153
 21
0.5916206169503104
 31
0.0
  0
LINE
  5
139C
330
131C
100
AcDbEntity
  8
TEXT
100
AcDbLine
 10
25.28571003163601
 20
0.4820927051781939
 30
0.0
 11
25.30489891251999
 21
0.5916206169503104
 31
0.0
  0
ELLIPSE
  5
139D
330
131C
100
AcDbEntity
  8
TEXT
100
AcDbEllipse
 10
25.16637544875188
 20
0.5356109147520739
 30
0.0
 11
-0.0128655156657995
 21
-0.0443514952993966
 31
0.0
210
0.0
220
0.0
230
0.9999999999999998
 40
0.5900396816730368
 41
0.0
 42
6.283185307179586
  0
SPLINE
  5
139E
330
131C
100
AcDbEntity
  8
TEXT
100
AcDbSpline
210
0.0
220
0.0
230
1.0
 70
    11
 71
     3
 72
    18
 73
    14
 74
     0
 42
0.0000000001
 43
0.0000000001
 40
0.0
 40
0.0
 40
0.0
 40
0.0
 40
0.6926727793590734
 40
0.6926727793590734
 40
2.062022958550839
 40
2.062022958550839
 40
3.210988775917606
 40
3.210988775917606
 40
4.359954593284372
 40
4.359954593284372
 40
5.508920410651139
 40
5.508920410651139
 40
6.283185307179586
 40
6.283185307179586
 40
6.283185307179586
 40
6.283185307179586
 10
25.15006369948003
 20
0.4793791639269963
 30
0.0
 10
25.16075483005833
 20
0.4762778725948419
 30
0.0
 10
25.17217416162358
 20
0.4800439661515302
 30
0.0
 10
25.19806576823377
 20
0.5005725043532883
 30
0.0
 10
25.20843328015618
 20
0.5267474213037385
 30
0.0
 10
25.20742605353262
 20
0.5697456910812241
 30
0.0
 10
25.19761753808361
 20
0.5895537730887725
 30
0.0
 10
25.1612386237433
 20
0.5956140043067386
 30
0.0
 10
25.14490311920759
 20
0.5815362289117642
 30
0.0
 10
25.1258500581915
 20
0.546328249292886
 30
0.0
 10
25.12212753402486
 20
0.5240294292256422
 30
0.0
 10
25.13016236164954
 20
0.4938900372801937
 30
0.0
 10
25.1381132268216
 20
0.482845766172601
 30
0.0
 10
25.15006369948003
 20
0.4793791639269963
 30
0.0
  0
ELLIPSE
  5
139F
330
131C
100
AcDbEntity
  8
TEXT
100
AcDbEllipse
 10
25.07832850571685
 20
0.5384487743981417
 30
0.0
 11
-0.0128655156657995
 21
-0.0443514952993966
 31
0.0
210
0.0
220
0.0
230
0.9999999999999998
 40
0.5900396816730368
 41
2.176423108134856
 42
7.667804529524403
  0
SPLINE
  5
13A0
330
131C
100
AcDbEntity
  8
TEXT
100
AcDbSpline
210
0.0
220
0.0
230
1.0
 70
     8
 71
     3
 72
    19
 73
    15
 74
     0
 42
0.0000000001
 43
0.0000000001
 40
2.149765517175995
 40
2.149765517175995
 40
2.149765517175995
 40
2.149765517175995
 40
3.210988775917606
 40
3.210988775917606
 40
4.359954593284372
 40
4.359954593284372
 40
5.508920410651139
 40
5.508920410651139
 40
6.283185307179586
 40
6.283185307179586
 40
6.283185307179586
 40
6.975858086538659
 40
6.975858086538659
 40
7.762448213933878
 40
7.762448213933878
 40
7.762448213933878
 40
7.762448213933878
 10
25.11957023631929
 20
0.5574560409251732
 30
0.0
 10
25.11783214907593
 20
0.5755110540141945
 30
0.0
 10
25.10818152890929
 20
0.5926230322181351
 30
0.0
 10
25.07319168070827
 20
0.5984518639528062
 30
0.0
 10
25.05685617617256
 20
0.5843740885578319
 30
0.0
 10
25.03780311515647
 20
0.5491661089389539
 30
0.0
 10
25.03408059098983
 20
0.5268672888717099
 30
0.0
 10
25.04211541861452
 20
0.4967278969262614
 30
0.0
 10
25.05006628378657
 20
0.4856836258186686
 30
0.0
 10
25.062016756445
 20
0.4822170235730641
 30
0.0
 10
25.0727078870233
 20
0.4791157322409097
 30
0.0
 10
25.08412721858855
 20
0.4828818257975981
 30
0.0
 10
25.10270145079867
 20
0.4976086769055463
 30
0.0
 10
25.11032565628632
 20
0.5095781235665396
 30
0.0
 10
25.11492236619956
 20
0.5227791785529663
 30
0.0
  0
HATCH
  5
13A1
330
131C
100
AcDbEntity
  8
TEXT
100
AcDbHatch
 10
0.0
 20
0.0
 30
0.0
210
0.0
220
0.0
230
1.0
  2
SOLID
 70
     1
 71
     0
 91
        2
 92
        5
 93
        1
 72
     4
 94
        3
 73
     0
 74
     0
 95
       18
 96
       14
 40
0.0
 40
0.0
 40
0.0
 40
0.0
 40
0.6926727793590734
 40
0.6926727793590734
 40
2.062022958550839
 40
2.062022958550839
 40
3.210988775917606
 40
3.210988775917606
 40
4.359954593284372
 40
4.359954593284372
 40
5.508920410651139
 40
5.508920410651139
 40
6.283185307179586
 40
6.283185307179586
 40
6.283185307179586
 40
6.283185307179586
 10
25.15006369948003
 20
0.4793791639269963
 10
25.16075483005833
 20
0.4762778725948419
 10
25.17217416162358
 20
0.4800439661515302
 10
25.19806576823377
 20
0.5005725043532883
 10
25.20843328015618
 20
0.5267474213037385
 10
25.20742605353262
 20
0.5697456910812241
 10
25.19761753808361
 20
0.5895537730887725
 10
25.1612386237433
 20
0.5956140043067386
 10
25.14490311920759
 20
0.5815362289117642
 10
25.1258500581915
 20
0.546328249292886
 10
25.12212753402486
 20
0.5240294292256422
 10
25.13016236164954
 20
0.4938900372801937
 10
25.1381132268216
 20
0.482845766172601
 10
25.15006369948003
 20
0.4793791639269963
 97
        0
 92
       20
 93
        1
 72
     3
 10
25.16637544875188
 20
0.5356109147520739
 11
-0.0128655156657996
 21
-0.0443514952993967
 40
0.5900396816730368
 50
0.0
 51
360.0
 73
     1
 97
        0
 75
     0
 76
     1
 47
0.0005030016253831
 98
        2
 10
25.15707311218916
 20
0.5807994519783476
 10
25.15707311218916
 20
0.5807994519783476
  0
LINE
  5
13A2
330
131C
100
AcDbEntity
  8
TEXT
100
AcDbLine
 10
25.10166396912094
 20
0.5227791785437838
 30
0.0
 11
25.11492236619636
 21
0.5227791785437838
 31
0.0
  0
LINE
  5
13A3
330
131C
100
AcDbEntity
  8
TEXT
100
AcDbLine
 10
25.10716739530328
 20
0.5574560409251799
 30
0.0
 11
25.11957023631929
 21
0.5574560409251799
 31
0.0
  0
LINE
  5
13A4
330
131C
100
AcDbEntity
  8
TEXT
100
AcDbLine
 10
25.27395144974112
 20
0.4820927051781939
 30
0.0
 11
25.28571003163601
 21
0.4820927051781939
 31
0.0
  0
LINE
  5
13A5
330
131C
100
AcDbEntity
  8
TEXT
100
AcDbLine
 10
25.2197313270048
 20
0.4820927051781939
 30
0.0
 11
25.23478998498762
 21
0.5680457825317661
 31
0.0
  0
LINE
  5
13A6
330
131C
100
AcDbEntity
  8
TEXT
100
AcDbLine
 10
25.20797274510991
 20
0.4820927051781939
 30
0.0
 11
25.22716162599389
 21
0.5916206169503104
 31
0.0
  0
LINE
  5
13A7
330
131C
100
AcDbEntity
  8
TEXT
100
AcDbLine
 10
25.24216353125335
 20
0.4820927026016954
 30
0.0
 11
25.23478998498762
 21
0.5680457825317661
 31
0.0
  0
LINE
  5
13A8
330
131C
100
AcDbEntity
  8
TEXT
100
AcDbLine
 10
25.25081238663533
 20
0.5008433876029117
 30
0.0
 11
25.24302499727113
 21
0.5916206169503104
 31
0.0
  0
LINE
  5
13A9
330
131C
100
AcDbEntity
  8
TEXT
100
AcDbLine
 10
25.24216353103232
 20
0.4820927051781939
 30
0.0
 11
25.25284073097401
 21
0.4820927051781939
 31
0.0
  0
LINE
  5
13AA
330
131C
100
AcDbEntity
  8
TEXT
100
AcDbLine
 10
25.20797274510991
 20
0.4820927051781939
 30
0.0
 11
25.2197313270048
 21
0.4820927051781939
 31
0.0
  0
LINE
  5
13AB
330
131C
100
AcDbEntity
  8
TEXT
100
AcDbLine
 10
25.22716162599389
 20
0.5916206169503104
 30
0.0
 11
25.24302499727113
 21
0.5916206169503104
 31
0.0
  0
SPLINE
  5
13AC
330
131C
100
AcDbEntity
  8
TEXT
100
AcDbSpline
210
0.0
220
0.0
230
1.0
 70
     8
 71
     3
 72
    14
 73
    10
 74
     0
 42
0.0000000001
 43
0.0000000001
 40
0.1963946288467134
 40
0.1963946288467134
 40
0.1963946288467134
 40
0.1963946288467134
 40
0.6926727793590734
 40
0.6926727793590734
 40
2.062022958550839
 40
2.062022958550839
 40
3.210988775917606
 40
3.210988775917606
 40
3.313188312346706
 40
3.313188312346706
 40
3.313188312346706
 40
3.313188312346706
 10
25.35598927671816
 20
0.5284273353059353
 30
0.0
 10
25.36026355666275
 20
0.5286217645275988
 30
0.0
 10
25.36446712383238
 20
0.530458920113717
 30
0.0
 10
25.37737514870325
 20
0.5406932360316281
 30
0.0
 10
25.38308787879638
 20
0.5551161985386309
 30
0.0
 10
25.38253287448231
 20
0.5788092033355766
 30
0.0
 10
25.3771281639024
 20
0.5897238979140286
 30
0.0
 10
25.36621384844174
 20
0.5915420740876969
 30
0.0
 10
25.36533041181201
 20
0.5916160044210158
 30
0.0
 10
25.36445697928764
 20
0.5916206169501698
 30
0.0
  0
SPLINE
  5
13AD
330
131C
100
AcDbEntity
  8
TEXT
100
AcDbSpline
210
0.0
220
0.0
230
1.0
 70
     8
 71
     3
 72
    10
 73
     6
 74
     0
 42
0.0000000001
 43
0.0000000001
 40
0.5629523128905774
 40
0.5629523128905774
 40
0.5629523128905774
 40
0.5629523128905774
 40
1.124454566749917
 40
1.124454566749917
 40
2.308915226044241
 40
2.308915226044241
 40
2.308915226044241
 40
2.308915226044241
 10
25.3583586068504
 20
0.5428348729685332
 30
0.0
 10
25.36026254902444
 20
0.5439953960034637
 30
0.0
 10
25.36257763425596
 20
0.5460573541693247
 30
0.0
 10
25.36861201272884
 20
0.5557343114885254
 30
0.0
 10
25.3696359497601
 20
0.5657512944474217
 30
0.0
 10
25.36864339224556
 20
0.5721260143408941
 30
0.0
  0
LINE
  5
13AE
330
131C
100
AcDbEntity
  8
TEXT
100
AcDbLine
 10
25.36945095153471
 20
0.4820927051781939
 30
0.0
 11
25.4160391181134
 21
0.5916206169503104
 31
0.0
  0
LINE
  5
13AF
330
131C
100
AcDbEntity
  8
TEXT
100
AcDbLine
 10
25.39575914917501
 20
0.5147906302461529
 30
0.0
 11
25.4262199301758
 21
0.5147906302461529
 31
0.0
  0
HATCH
  5
13B0
330
131C
100
AcDbEntity
  8
TEXT
100
AcDbHatch
 10
0.0
 20
0.0
 30
0.0
210
0.0
220
0.0
230
1.0
  2
SOLID
 70
     1
 71
     0
 91
        2
 92
        7
 72
     0
 73
     1
 93
        8
 10
25.43229196774115
 20
0.5916206169503104
 10
25.4160391181134
 20
0.5916206169503104
 10
25.36945095153471
 20
0.4820927051781939
 10
25.38185094664292
 20
0.4820927051781939
 10
25.39575914917501
 20
0.5147906302461529
 10
25.4262199301758
 20
0.5147906302461529
 10
25.42902494499875
 20
0.4820927051781939
 10
25.44168789777062
 20
0.4820927051781939
 97
        0
 92
       22
 72
     0
 73
     1
 93
        3
 10
25.42110763250081
 20
0.5743844423481403
 10
25.42517323642424
 20
0.5269918897822944
 10
25.4009490071988
 20
0.5269918897822944
 97
        0
 75
     0
 76
     1
 47
0.0005030016253831
 98
        2
 10
25.42053298008707
 20
0.5814216567852008
 10
25.42053298008707
 20
0.5814216567852008
  0
LINE
  5
13B1
330
131C
100
AcDbEntity
  8
TEXT
100
AcDbLine
 10
25.31445322580493
 20
0.4820927051781939
 30
0.0
 11
25.32257087987081
 21
0.5284273353059339
 31
0.0
  0
LINE
  5
13B2
330
131C
100
AcDbEntity
  8
TEXT
100
AcDbLine
 10
25.38185094664292
 20
0.4820927051781939
 30
0.0
 11
25.39575914917501
 21
0.5147906302461529
 31
0.0
  0
LINE
  5
13B3
330
131C
100
AcDbEntity
  8
TEXT
100
AcDbLine
 10
25.32257087987081
 20
0.5284273353059339
 30
0.0
 11
25.35598927671817
 21
0.5284273353059339
 31
0.0
  0
LINE
  5
13B4
330
131C
100
AcDbEntity
  8
TEXT
100
AcDbLine
 10
25.32489710816959
 20
0.5417051772713809
 30
0.0
 11
25.3543347141517
 21
0.5417051772713809
 31
0.0
  0
LINE
  5
13B5
330
131C
100
AcDbEntity
  8
TEXT
100
AcDbLine
 10
25.33137282608323
 20
0.5786678258278394
 30
0.0
 11
25.36100418451261
 21
0.5786678258278394
 31
0.0
  0
ARC
  5
13B6
330
131C
100
AcDbEntity
  8
TEXT
100
AcDbCircle
 10
25.36100418451261
 20
0.5709365733666702
 30
0.0
 40
0.0077312524611693
100
AcDbArc
 50
8.850014492300017
 51
90.0
  0
ARC
  5
13B7
330
131C
100
AcDbEntity
  8
TEXT
100
AcDbCircle
 10
25.35433471420559
 20
0.5494364297827862
 30
0.0
 40
0.0077312524611693
100
AcDbArc
 50
269.9999996006163
 51
301.3638501407304
  0
LINE
  5
13B8
330
131C
100
AcDbEntity
  8
TEXT
100
AcDbLine
 10
25.36945095153471
 20
0.4820927051781939
 30
0.0
 11
25.38185094664292
 21
0.4820927051781939
 31
0.0
  0
LINE
  5
13B9
330
131C
100
AcDbEntity
  8
TEXT
100
AcDbLine
 10
25.32253678197687
 20
0.5916206169503104
 30
0.0
 11
25.364456983797
 21
0.5916206169503104
 31
0.0
  0
LINE
  5
13BA
330
131C
100
AcDbEntity
  8
TEXT
100
AcDbLine
 10
25.32489710816959
 20
0.5417051772713809
 30
0.0
 11
25.33137282608323
 21
0.5786678258278394
 31
0.0
  0
LINE
  5
13BB
330
131C
100
AcDbEntity
  8
TEXT
100
AcDbLine
 10
25.51513983497642
 20
0.4820927051781939
 30
0.0
 11
25.5343287158604
 21
0.5916206169503104
 31
0.0
  0
LINE
  5
13BC
330
131C
100
AcDbEntity
  8
TEXT
100
AcDbLine
 10
25.50794222599982
 20
0.5052001674712381
 30
0.0
 11
25.52308276583267
 21
0.5916206169503104
 31
0.0
  0
LINE
  5
13BD
330
131C
100
AcDbEntity
  8
TEXT
100
AcDbLine
 10
25.46196321123816
 20
0.4820927051781938
 30
0.0
 11
25.47709513022376
 21
0.5684639478587192
 31
0.0
  0
LINE
  5
13BE
330
131C
100
AcDbEntity
  8
TEXT
100
AcDbLine
 10
25.45072133598237
 20
0.4820927051781939
 30
0.0
 11
25.46991021686634
 21
0.591620616950311
 31
0.0
  0
LINE
  5
13BF
330
131C
100
AcDbEntity
  8
TEXT
100
AcDbLine
 10
25.44168789777062
 20
0.4820927051781939
 30
0.0
 11
25.43229196774115
 21
0.5916206169503104
 31
0.0
  0
LINE
  5
13C0
330
131C
100
AcDbEntity
  8
TEXT
100
AcDbLine
 10
25.42902494499875
 20
0.4820927051781939
 30
0.0
 11
25.4262199301758
 21
0.5147906302461529
 31
0.0
  0
LINE
  5
13C1
330
131C
100
AcDbEntity
  8
TEXT
100
AcDbLine
 10
25.4009490071988
 20
0.5269918897822944
 30
0.0
 11
25.42517323642424
 21
0.5269918897822944
 31
0.0
  0
LINE
  5
13C2
330
131C
100
AcDbEntity
  8
TEXT
100
AcDbLine
 10
25.50794222599982
 20
0.5052001674712381
 30
0.0
 11
25.48102362303754
 21
0.5916206169503104
 31
0.0
  0
LINE
  5
13C3
330
131C
100
AcDbEntity
  8
TEXT
100
AcDbLine
 10
25.50389388494869
 20
0.4820927051781939
 30
0.0
 11
25.47709513022376
 21
0.5684639478587196
 31
0.0
  0
LINE
  5
13C4
330
131C
100
AcDbEntity
  8
TEXT
100
AcDbLine
 10
25.50389388494869
 20
0.4820927051781939
 30
0.0
 11
25.51513983497642
 21
0.4820927051781939
 31
0.0
  0
LINE
  5
13C5
330
131C
100
AcDbEntity
  8
TEXT
100
AcDbLine
 10
25.45072133598237
 20
0.4820927051781939
 30
0.0
 11
25.46196321123816
 21
0.4820927051781939
 31
0.0
  0
LINE
  5
13C6
330
131C
100
AcDbEntity
  8
TEXT
100
AcDbLine
 10
25.42902494499875
 20
0.4820927051781939
 30
0.0
 11
25.44168789777062
 21
0.4820927051781939
 31
0.0
  0
LINE
  5
13C7
330
131C
100
AcDbEntity
  8
TEXT
100
AcDbLine
 10
25.41603911811341
 20
0.5916206169503104
 30
0.0
 11
25.43229196774115
 21
0.5916206169503104
 31
0.0
  0
LINE
  5
13C8
330
131C
100
AcDbEntity
  8
TEXT
100
AcDbLine
 10
25.48102362303754
 20
0.5916206169503104
 30
0.0
 11
25.46991021686634
 21
0.5916206169503104
 31
0.0
  0
LINE
  5
13C9
330
131C
100
AcDbEntity
  8
TEXT
100
AcDbLine
 10
25.4009490071988
 20
0.5269918897822944
 30
0.0
 11
25.42110763250081
 21
0.5743844423481118
 31
0.0
  0
LINE
  5
13CA
330
131C
100
AcDbEntity
  8
TEXT
100
AcDbLine
 10
25.42517323642424
 20
0.5269918897822944
 30
0.0
 11
25.42110763250081
 21
0.5743844423481118
 31
0.0
  0
LINE
  5
13CB
330
131C
100
AcDbEntity
  8
TEXT
100
AcDbLine
 10
25.57168161282146
 20
0.5392074571141712
 30
0.0
 11
25.55764386415858
 21
0.5916206169503104
 31
0.0
  0
LINE
  5
13CC
330
131C
100
AcDbEntity
  8
TEXT
100
AcDbLine
 10
25.56673598361771
 20
0.4820927051781939
 30
0.0
 11
25.57380627322916
 21
0.5224491001888833
 31
0.0
  0
LINE
  5
13CD
330
131C
100
AcDbEntity
  8
TEXT
100
AcDbLine
 10
25.5557222151207
 20
0.4820927051781939
 30
0.0
 11
25.56316226873683
 21
0.5245596703427739
 31
0.0
  0
LINE
  5
13CE
330
131C
100
AcDbEntity
  8
TEXT
100
AcDbLine
 10
25.56316226873683
 20
0.5245596703427749
 30
0.0
 11
25.54520142232889
 21
0.5916206169503104
 31
0.0
  0
LINE
  5
13CF
330
131C
100
AcDbEntity
  8
TEXT
100
AcDbLine
 10
25.5557222151207
 20
0.4820927051781939
 30
0.0
 11
25.56673598361771
 21
0.4820927051781939
 31
0.0
  0
LINE
  5
13D0
330
131C
100
AcDbEntity
  8
TEXT
100
AcDbLine
 10
25.52308276583267
 20
0.5916206169503104
 30
0.0
 11
25.5343287158604
 21
0.5916206169503104
 31
0.0
  0
LINE
  5
13D1
330
131C
100
AcDbEntity
  8
TEXT
100
AcDbLine
 10
25.54520142232889
 20
0.5916206169503104
 30
0.0
 11
25.55764386415858
 21
0.5916206169503104
 31
0.0
  0
LINE
  5
13D2
330
131C
100
AcDbEntity
  8
TEXT
100
AcDbLine
 10
25.28942487010153
 20
0.5916206169503104
 30
0.0
 11
25.30489891251999
 21
0.5916206169503104
 31
0.0
  0
LINE
  5
13D3
330
131C
100
AcDbEntity
  8
TEXT
100
AcDbLine
 10
25.30334790109289
 20
0.482092705178194
 30
0.0
 11
25.32253678197687
 21
0.5916206169503104
 31
0.0
  0
LINE
  5
13D4
330
131C
100
AcDbEntity
  8
TEXT
100
AcDbLine
 10
25.30334790109289
 20
0.4820927051781939
 30
0.0
 11
25.31445322580493
 21
0.4820927051781939
 31
0.0
  0
HATCH
  5
13D5
330
131C
100
AcDbEntity
  8
TEXT
100
AcDbHatch
 10
0.0
 20
0.0
 30
0.0
210
0.0
220
0.0
230
1.0
  2
SOLID
 70
     1
 71
     0
 91
        2
 92
        5
 93
        6
 72
     4
 94
        3
 73
     0
 74
     0
 95
       14
 96
       10
 40
0.1963946288467134
 40
0.1963946288467134
 40
0.1963946288467134
 40
0.1963946288467134
 40
0.6926727793590734
 40
0.6926727793590734
 40
2.062022958550839
 40
2.062022958550839
 40
3.210988775917606
 40
3.210988775917606
 40
3.313188312346706
 40
3.313188312346706
 40
3.313188312346706
 40
3.313188312346706
 10
25.35598927671816
 20
0.5284273353059353
 10
25.36026355666275
 20
0.5286217645275988
 10
25.36446712383238
 20
0.530458920113717
 10
25.37737514870325
 20
0.5406932360316281
 10
25.38308787879638
 20
0.5551161985386309
 10
25.38253287448231
 20
0.5788092033355766
 10
25.3771281639024
 20
0.5897238979140286
 10
25.36621384844174
 20
0.5915420740876969
 10
25.36533041181201
 20
0.5916160044210158
 10
25.36445697928764
 20
0.5916206169501698
 72
     1
 10
25.36445697928152
 20
0.5916206169503104
 11
25.32253678197687
 21
0.5916206169503104
 72
     1
 10
25.32253678197687
 20
0.5916206169503104
 11
25.30334790109289
 21
0.4820927051781939
 72
     1
 10
25.30334790109289
 20
0.4820927051781939
 11
25.31445322580493
 21
0.4820927051781939
 72
     1
 10
25.31445322580493
 20
0.4820927051781939
 11
25.32257087987081
 21
0.5284273353059339
 72
     1
 10
25.32257087987082
 20
0.528427335305934
 11
25.35598927671814
 21
0.528427335305934
 97
        0
 92
       20
 93
        6
 72
     1
 10
25.33137282608324
 20
0.5786678258278394
 11
25.36100418451261
 21
0.5786678258278394
 72
     2
 10
25.36100418451261
 20
0.5709365733666702
 40
0.0077312524611693
 50
269.9999999999979
 51
352.4171203234097
 73
     0
 72
     4
 94
        3
 73
     0
 74
     0
 95
       10
 96
        6
 40
0.5629523128905776
 40
0.5629523128905776
 40
0.5629523128905776
 40
0.5629523128905776
 40
1.747412972184901
 40
1.747412972184901
 40
2.308915226044241
 40
2.308915226044241
 40
2.308915226044241
 40
2.308915226044241
 10
25.36864339224556
 20
0.5721260143408941
 10
25.3696359497601
 20
0.5657512944474217
 10
25.36861201272884
 20
0.5557343114885254
 10
25.36257763425596
 20
0.5460573541693247
 10
25.36026254902444
 20
0.5439953960034637
 10
25.3583586068504
 20
0.5428348729685332
 72
     2
 10
25.35433471412843
 20
0.5494364297325502
 40
0.0077312524611695
 50
56.93257502860992
 51
89.99999942819021
 73
     0
 72
     1
 10
25.35433471420559
 20
0.5417051772713809
 11
25.3248971081696
 21
0.5417051772713809
 72
     1
 10
25.32489710816959
 20
0.5417051772713809
 11
25.33137282608323
 21
0.5786678258278394
 97
        0
 75
     0
 76
     1
 47
0.000502859521852
 98
        2
 10
25.3277293700707
 20
0.5814086438577716
 10
25.3277293700707
 20
0.5814086438577716
  0
TEXT
  5
13D6
330
131C
100
AcDbEntity
  8
TEXT
 62
     5
100
AcDbText
 10
21.60779340794199
 20
1.020381090472602
 30
0.0
 40
0.08
  1
UNLESS OTHERWISE SPECIFIED
  7
ROMANS
 72
     1
 11
22.53922197937057
 21
1.020381090472602
 31
0.0
100
AcDbText
  0
LINE
  5
13D7
330
131C
100
AcDbEntity
  8
BORDER
100
AcDbLine
 10
21.24991092131462
 20
0.9838671519430697
 30
0.0
 11
23.93899684161727
 21
0.9838671519430697
 31
0.0
  0
TEXT
  5
13D8
330
131C
100
AcDbEntity
  8
TEXT
 62
     5
100
AcDbText
 10
22.93483716144505
 20
0.8609725847680469
 30
0.0
 40
0.08
  1
%%UFIN. SURFACES
  7
ROMANS
 72
     1
 11
23.3764562090641
 21
0.8609725847680469
 31
0.0
100
AcDbText
  0
TEXT
  5
13D9
330
131C
100
AcDbEntity
  8
TEXT
 62
     5
100
AcDbText
 10
21.317218113826
 20
0.8609725847680469
 30
0.0
 40
0.08
  1
%%UBREAK EDGES
  7
ROMANS
 72
     1
 11
21.7264562090641
 21
0.8609725847680469
 31
0.0
100
AcDbText
  0
TEXT
  5
13DA
330
131C
100
AcDbEntity
  8
TEXT
 62
     3
100
AcDbText
 10
21.41598001858791
 20
0.7109725847680466
 30
0.0
 40
0.08
  1
.005/.015
  7
ROMANS
 72
     1
 11
21.7264562090641
 21
0.7109725847680466
 31
0.0
100
AcDbText
  0
TEXT
  5
13DB
330
131C
100
AcDbEntity
  8
TEXT
 62
     5
100
AcDbText
 10
22.25626573287363
 20
0.7948332085765704
 30
0.0
 40
0.08
  1
%%UDECIMALS
  7
ROMANS
 72
     1
 11
22.5264562090641
 21
0.7948332085765704
 31
0.0
100
AcDbText
  0
LINE
  5
13DC
330
131C
100
AcDbEntity
  8
TEXT
100
AcDbLine
 10
24.29269173223767
 20
0.7528459699482949
 30
0.0
 11
24.36900471551036
 21
0.9003357419946407
 31
0.0
  0
LINE
  5
13DD
330
131C
100
AcDbEntity
  8
TEXT
100
AcDbLine
 10
24.35574748033439
 20
0.9774045222827092
 30
0.0
 11
24.4088810300464
 21
0.9774045222827092
 31
0.0
  0
TEXT
  5
13DE
330
131C
100
AcDbEntity
  8
TEXT
 62
     3
100
AcDbText
 10
23.2564562090641
 20
0.7109725847680466
 30
0.0
 40
0.08
  1
125
  7
ROMANS
 72
     1
 11
23.3764562090641
 21
0.7109725847680466
 31
0.0
100
AcDbText
  0
LINE
  5
13DF
330
131C
100
AcDbEntity
  8
TEXT
100
AcDbLine
 10
24.24446524597754
 20
0.7528459699482949
 30
0.0
 11
24.20583708126617
 21
0.9774045222827092
 31
0.0
  0
LINE
  5
13E0
330
131C
100
AcDbEntity
  8
TEXT
100
AcDbLine
 10
24.2794344970617
 20
0.8299147502363634
 30
0.0
 11
24.25406356752629
 21
0.9774045222827092
 31
0.0
  0
LINE
  5
13E1
330
131C
100
AcDbEntity
  8
TEXT
100
AcDbLine
 10
24.2794344970617
 20
0.8299147502363634
 30
0.0
 11
24.35574748033439
 21
0.9774045222827092
 31
0.0
  0
LINE
  5
13E2
330
131C
100
AcDbEntity
  8
TEXT
100
AcDbLine
 10
24.24446524597754
 20
0.7528459699482949
 30
0.0
 11
24.29269173223767
 21
0.7528459699482949
 31
0.0
  0
LINE
  5
13E3
330
131C
100
AcDbEntity
  8
TEXT
100
AcDbLine
 10
24.20583708126617
 20
0.9774045222827092
 30
0.0
 11
24.25406356752629
 21
0.9774045222827092
 31
0.0
  0
LINE
  5
13E4
330
131C
100
AcDbEntity
  8
TEXT
100
AcDbLine
 10
24.96591139920384
 20
0.8778806739136472
 30
0.0
 11
24.98332516252541
 21
0.9774045222827092
 31
0.0
  0
LINE
  5
13E5
330
131C
100
AcDbEntity
  8
TEXT
100
AcDbLine
 10
24.9554246695875
 20
0.8179464903054933
 30
0.0
 11
24.9896497873667
 21
0.8439934386191218
 31
0.0
  0
LINE
  5
13E6
330
131C
100
AcDbEntity
  8
TEXT
100
AcDbLine
 10
24.92629216090815
 20
0.9774045222827092
 30
0.0
 11
24.98332516252541
 21
0.9774045222827092
 31
0.0
  0
LINE
  5
13E7
330
131C
100
AcDbEntity
  8
TEXT
100
AcDbLine
 10
24.96591139920384
 20
0.8778806739136472
 30
0.0
 11
25.09413454003231
 21
0.9774045222827092
 31
0.0
  0
LINE
  5
13E8
330
131C
100
AcDbEntity
  8
TEXT
100
AcDbLine
 10
24.65759175970128
 20
0.7528459699482949
 30
0.0
 11
24.69688294011951
 21
0.9774045222827092
 31
0.0
  0
LINE
  5
13E9
330
131C
100
AcDbEntity
  8
TEXT
100
AcDbLine
 10
24.65759175970128
 20
0.7528459699482949
 30
0.0
 11
24.8480694344623
 21
0.7528459699482949
 31
0.0
  0
LINE
  5
13EA
330
131C
100
AcDbEntity
  8
TEXT
100
AcDbLine
 10
24.4423453975801
 20
0.7528459699482949
 30
0.0
 11
24.55853469538884
 21
0.9774045222827092
 31
0.0
  0
LINE
  5
13EB
330
131C
100
AcDbEntity
  8
TEXT
100
AcDbLine
 10
24.43425195958181
 20
0.8299147502363634
 30
0.0
 11
24.5105649428545
 21
0.9774045222827092
 31
0.0
  0
LINE
  5
13EC
330
131C
100
AcDbEntity
  8
TEXT
100
AcDbLine
 10
24.43425195958181
 20
0.8299147502363634
 30
0.0
 11
24.4088810300464
 21
0.9774045222827092
 31
0.0
  0
LINE
  5
13ED
330
131C
100
AcDbEntity
  8
TEXT
100
AcDbLine
 10
24.39437564504576
 20
0.7528459699482949
 30
0.0
 11
24.4423453975801
 21
0.7528459699482949
 31
0.0
  0
LINE
  5
13EE
330
131C
100
AcDbEntity
  8
TEXT
100
AcDbLine
 10
24.60309755036347
 20
0.7528459699482949
 30
0.0
 11
24.6423887307817
 21
0.9774045222827092
 31
0.0
  0
LINE
  5
13EF
330
131C
100
AcDbEntity
  8
TEXT
100
AcDbLine
 10
24.54569679725409
 20
0.7528459699482949
 30
0.0
 11
24.58498797767232
 21
0.9774045222827092
 31
0.0
  0
LINE
  5
13F0
330
131C
100
AcDbEntity
  8
TEXT
100
AcDbLine
 10
24.54569679725409
 20
0.7528459699482949
 30
0.0
 11
24.60309755036347
 21
0.7528459699482949
 31
0.0
  0
LINE
  5
13F1
330
131C
100
AcDbEntity
  8
TEXT
100
AcDbLine
 10
24.5105649428545
 20
0.9774045222827092
 30
0.0
 11
24.55853469538884
 21
0.9774045222827092
 31
0.0
  0
LINE
  5
13F2
330
131C
100
AcDbEntity
  8
TEXT
100
AcDbLine
 10
24.58498797767232
 20
0.9774045222827092
 30
0.0
 11
24.6423887307817
 21
0.9774045222827092
 31
0.0
  0
LINE
  5
13F3
330
131C
100
AcDbEntity
  8
TEXT
100
AcDbLine
 10
24.39437564504576
 20
0.7528459699482949
 30
0.0
 11
24.36900471551036
 21
0.9003357419946407
 31
0.0
  0
LINE
  5
13F4
330
131C
100
AcDbEntity
  8
TEXT
100
AcDbLine
 10
24.88700098048992
 20
0.7528459699482949
 30
0.0
 11
24.92629216090815
 21
0.9774045222827092
 31
0.0
  0
LINE
  5
13F5
330
131C
100
AcDbEntity
  8
TEXT
100
AcDbLine
 10
24.88700098048992
 20
0.7528459699482949
 30
0.0
 11
24.94403398210717
 21
0.7528459699482949
 31
0.0
  0
LINE
  5
13F6
330
131C
100
AcDbEntity
  8
TEXT
100
AcDbLine
 10
24.72215551077723
 20
0.7916414194670802
 30
0.0
 11
24.75465862193423
 21
0.9774045222827092
 31
0.0
  0
LINE
  5
13F7
330
131C
100
AcDbEntity
  8
TEXT
100
AcDbLine
 10
24.8480694344623
 20
0.7528459699482949
 30
0.0
 11
24.85485750372354
 21
0.7916414194670802
 31
0.0
  0
LINE
  5
13F8
330
131C
100
AcDbEntity
  8
TEXT
100
AcDbLine
 10
24.72215551077723
 20
0.7916414194670802
 30
0.0
 11
24.85485750372354
 21
0.7916414194670802
 31
0.0
  0
LINE
  5
13F9
330
131C
100
AcDbEntity
  8
TEXT
100
AcDbLine
 10
24.69688294011951
 20
0.9774045222827092
 30
0.0
 11
24.75465862193423
 21
0.9774045222827092
 31
0.0
  0
LINE
  5
13FA
330
131C
100
AcDbEntity
  8
TEXT
100
AcDbLine
 10
24.94403398210717
 20
0.7528459699482949
 30
0.0
 11
24.9554246695875
 21
0.8179464903054931
 31
0.0
  0
LINE
  5
13FB
330
131C
100
AcDbEntity
  8
TEXT
100
AcDbLine
 10
25.26469682185173
 20
0.7528459699482949
 30
0.0
 11
25.30398800226996
 21
0.9774045222827092
 31
0.0
  0
LINE
  5
13FC
330
131C
100
AcDbEntity
  8
TEXT
100
AcDbLine
 10
25.26469682185173
 20
0.7528459699482949
 30
0.0
 11
25.32297989482523
 21
0.7528459699482949
 31
0.0
  0
LINE
  5
13FD
330
131C
100
AcDbEntity
  8
TEXT
100
AcDbLine
 10
25.1576248488892
 20
0.7528459699482949
 30
0.0
 11
25.19691602930743
 21
0.9774045222827092
 31
0.0
  0
LINE
  5
13FE
330
131C
100
AcDbEntity
  8
TEXT
100
AcDbLine
 10
25.21661827013922
 20
0.7528459699482949
 30
0.0
 11
25.25590945055744
 21
0.9774045222827092
 31
0.0
  0
LINE
  5
13FF
330
131C
100
AcDbEntity
  8
TEXT
100
AcDbLine
 10
25.03441445815615
 20
0.8780614898629979
 30
0.0
 11
25.16494901998536
 21
0.9774045222827092
 31
0.0
  0
LINE
  5
1400
330
131C
100
AcDbEntity
  8
TEXT
100
AcDbLine
 10
25.1576248488892
 20
0.7528459699482949
 30
0.0
 11
25.21661827013922
 21
0.7528459699482949
 31
0.0
  0
LINE
  5
1401
330
131C
100
AcDbEntity
  8
TEXT
100
AcDbLine
 10
25.03441445815615
 20
0.8780614898629977
 30
0.0
 11
25.13108976557004
 21
0.7528459699482949
 31
0.0
  0
LINE
  5
1402
330
131C
100
AcDbEntity
  8
TEXT
100
AcDbLine
 10
25.0600221306653
 20
0.7528459699482949
 30
0.0
 11
25.13108976557004
 21
0.7528459699482949
 31
0.0
  0
LINE
  5
1403
330
131C
100
AcDbEntity
  8
TEXT
100
AcDbLine
 10
25.09413454003231
 20
0.9774045222827092
 30
0.0
 11
25.16494901998536
 21
0.9774045222827092
 31
0.0
  0
LINE
  5
1404
330
131C
100
AcDbEntity
  8
TEXT
100
AcDbLine
 10
25.19691602930743
 20
0.9774045222827092
 30
0.0
 11
25.25590945055744
 21
0.9774045222827092
 31
0.0
  0
LINE
  5
1405
330
131C
100
AcDbEntity
  8
TEXT
100
AcDbLine
 10
24.9896497873667
 20
0.8439934386191218
 30
0.0
 11
25.0600221306653
 21
0.7528459699482949
 31
0.0
  0
LINE
  5
1406
330
131C
100
AcDbEntity
  8
TEXT
100
AcDbLine
 10
25.43202032846161
 20
0.7524860454293476
 30
0.0
 11
25.34939069265361
 21
0.903790035848268
 31
0.0
  0
LINE
  5
1407
330
131C
100
AcDbEntity
  8
TEXT
100
AcDbLine
 10
25.44503309321294
 20
0.8247652532409048
 30
0.0
 11
25.36167423945103
 21
0.9774045222827092
 31
0.0
  0
LINE
  5
1408
330
131C
100
AcDbEntity
  8
TEXT
100
AcDbLine
 10
25.32297989482523
 20
0.7528459699482949
 30
0.0
 11
25.34939069265361
 21
0.903790035848268
 31
0.0
  0
LINE
  5
1409
330
131C
100
AcDbEntity
  8
TEXT
100
AcDbLine
 10
25.36212625395919
 20
0.9765768337888323
 30
0.0
 11
25.36227107524346
 21
0.9774045222827092
 31
0.0
  0
LINE
  5
140A
330
131C
100
AcDbEntity
  8
TEXT
100
AcDbLine
 10
25.44503309321294
 20
0.8247652532409048
 30
0.0
 11
25.47174050202228
 21
0.9774045222827092
 31
0.0
  0
LINE
  5
140B
330
131C
100
AcDbEntity
  8
TEXT
100
AcDbLine
 10
25.48961218795039
 20
0.7528459699482949
 30
0.0
 11
25.52890336836862
 21
0.9774045222827092
 31
0.0
  0
LINE
  5
140C
330
131C
100
AcDbEntity
  8
TEXT
100
AcDbLine
 10
25.57415092500608
 20
0.9524725167684586
 30
0.0
 11
25.56800685360417
 21
0.9454565710507885
 31
0.0
  0
LINE
  5
140D
330
131C
100
AcDbEntity
  8
TEXT
100
AcDbLine
 10
25.5465026058634
 20
0.7744428788548844
 30
0.0
 11
25.556596440237
 21
0.7656729467077968
 31
0.0
  0
LINE
  5
140E
330
131C
100
AcDbEntity
  8
TEXT
100
AcDbLine
 10
25.43182376767139
 20
0.7528459699482949
 30
0.0
 11
25.48961218795039
 21
0.7528459699482949
 31
0.0
  0
LINE
  5
140F
330
131C
100
AcDbEntity
  8
TEXT
100
AcDbLine
 10
25.556596440237
 20
0.7656729467077968
 30
0.0
 11
25.56669027027878
 21
0.759972490222663
 31
0.0
  0
LINE
  5
1410
330
131C
100
AcDbEntity
  8
TEXT
100
AcDbLine
 10
25.56669027027878
 20
0.759972490222663
 30
0.0
 11
25.58029499640799
 21
0.7547105309344106
 31
0.0
  0
LINE
  5
1411
330
131C
100
AcDbEntity
  8
TEXT
100
AcDbLine
 10
25.56800685360417
 20
0.9454565710507885
 30
0.0
 11
25.56142392398168
 21
0.9380021281362374
 31
0.0
  0
LINE
  5
1412
330
131C
100
AcDbEntity
  8
TEXT
100
AcDbLine
 10
25.56142392398168
 20
0.9380021281362374
 30
0.0
 11
25.55527985257977
 21
0.9261627179690886
 31
0.0
  0
LINE
  5
1413
330
131C
100
AcDbEntity
  8
TEXT
100
AcDbLine
 10
25.55527985257977
 20
0.9261627179690886
 30
0.0
 11
25.55176895216049
 21
0.9147618049988214
 31
0.0
  0
LINE
  5
1414
330
131C
100
AcDbEntity
  8
TEXT
100
AcDbLine
 10
25.55176895216049
 20
0.9147618049988214
 30
0.0
 11
25.55045236883509
 21
0.9033608920285537
 31
0.0
  0
LINE
  5
1415
330
131C
100
AcDbEntity
  8
TEXT
100
AcDbLine
 10
25.55045236883509
 20
0.9033608920285537
 30
0.0
 11
25.55133008960808
 21
0.8945909598814662
 31
0.0
  0
LINE
  5
1416
330
131C
100
AcDbEntity
  8
TEXT
100
AcDbLine
 10
25.55133008960808
 20
0.8945909598814662
 30
0.0
 11
25.55264667726531
 21
0.8875750141637965
 31
0.0
  0
LINE
  5
1417
330
131C
100
AcDbEntity
  8
TEXT
100
AcDbLine
 10
25.55264667726531
 20
0.8875750141637965
 30
0.0
 11
25.5579130235624
 21
0.8783665848198278
 31
0.0
  0
LINE
  5
1418
330
131C
100
AcDbEntity
  8
TEXT
100
AcDbLine
 10
25.5579130235624
 20
0.8783665848198278
 30
0.0
 11
25.56844571615658
 21
0.8687196582789777
 31
0.0
  0
LINE
  5
1419
330
131C
100
AcDbEntity
  8
TEXT
100
AcDbLine
 10
25.56844571615658
 20
0.8687196582789777
 30
0.0
 11
25.57853954619835
 21
0.8621422074000816
 31
0.0
  0
LINE
  5
141A
330
131C
100
AcDbEntity
  8
TEXT
100
AcDbLine
 10
25.57853954619835
 20
0.8621422074000816
 30
0.0
 11
25.59038882644976
 21
0.8573187453087104
 31
0.0
  0
LINE
  5
141B
330
131C
100
AcDbEntity
  8
TEXT
100
AcDbLine
 10
25.58951110134494
 20
0.8029451612805528
 30
0.0
 11
25.58643906780991
 21
0.8099611069982229
 31
0.0
  0
LINE
  5
141C
330
131C
100
AcDbEntity
  8
TEXT
100
AcDbLine
 10
25.58643906780991
 20
0.8099611069982229
 30
0.0
 11
25.58556134270508
 21
0.8161000606802378
 31
0.0
  0
LINE
  5
141D
330
131C
100
AcDbEntity
  8
TEXT
100
AcDbLine
 10
25.58556134270508
 20
0.8161000606802378
 30
0.0
 11
25.58556134270508
 21
0.8218005171653715
 31
0.0
  0
LINE
  5
141E
330
131C
100
AcDbEntity
  8
TEXT
100
AcDbLine
 10
25.58556134270508
 20
0.8218005171653715
 30
0.0
 11
25.53070356697213
 21
0.8218005171653715
 31
0.0
  0
LINE
  5
141F
330
131C
100
AcDbEntity
  8
TEXT
100
AcDbLine
 10
25.53070356697213
 20
0.8218005171653715
 30
0.0
 11
25.53026470441972
 21
0.8165385578771189
 31
0.0
  0
LINE
  5
1420
330
131C
100
AcDbEntity
  8
TEXT
100
AcDbLine
 10
25.53026470441972
 20
0.8165385578771189
 30
0.0
 11
25.53070356697213
 21
0.8086456177656865
 31
0.0
  0
LINE
  5
1421
330
131C
100
AcDbEntity
  8
TEXT
100
AcDbLine
 10
25.53070356697213
 20
0.8086456177656865
 30
0.0
 11
25.53289787973418
 21
0.7989986912248365
 31
0.0
  0
LINE
  5
1422
330
131C
100
AcDbEntity
  8
TEXT
100
AcDbLine
 10
25.53289787973418
 20
0.7989986912248365
 30
0.0
 11
25.53596991326922
 21
0.789790261880868
 31
0.0
  0
LINE
  5
1423
330
131C
100
AcDbEntity
  8
TEXT
100
AcDbLine
 10
25.53596991326922
 20
0.789790261880868
 30
0.0
 11
25.53991967624091
 21
0.7818973217694355
 31
0.0
  0
LINE
  5
1424
330
131C
100
AcDbEntity
  8
TEXT
100
AcDbLine
 10
25.53991967624091
 20
0.7818973217694355
 30
0.0
 11
25.5465026058634
 21
0.7744428788548844
 31
0.0
  0
LINE
  5
1425
330
131C
100
AcDbEntity
  8
TEXT
100
AcDbLine
 10
25.47174050202228
 20
0.9774045222827092
 30
0.0
 11
25.52890336836862
 21
0.9774045222827092
 31
0.0
  0
LINE
  5
1426
330
131C
100
AcDbEntity
  8
TEXT
100
AcDbLine
 10
25.58424475504785
 20
0.960365456879891
 30
0.0
 11
25.57415092500608
 21
0.9524725167684586
 31
0.0
  0
LINE
  5
1427
330
131C
100
AcDbEntity
  8
TEXT
100
AcDbLine
 10
25.30398800226996
 20
0.9774045222827092
 30
0.0
 11
25.36167423945103
 21
0.9774045222827092
 31
0.0
  0
LINE
  5
1428
330
131C
100
AcDbEntity
  8
BORDER
100
AcDbLine
 10
27.81899684161727
 20
0.3903447802924458
 30
0.0
 11
31.5
 21
0.3903447802924458
 31
0.0
  0
LINE
  5
1429
330
131C
100
AcDbEntity
  8
BORDER
100
AcDbLine
 10
27.81899684161727
 20
0.7676747802924459
 30
0.0
 11
31.5
 21
0.767674780292446
 31
0.0
  0
TEXT
  5
142A
330
131C
100
AcDbEntity
  8
TEXT
 62
     5
100
AcDbText
 10
27.87265763177108
 20
0.6426957421607238
 30
0.0
 40
0.08
  1
DESCRIPTION:
  7
ROMANS
100
AcDbText
  0
LINE
  5
142B
330
131C
100
AcDbEntity
  8
BORDER
100
AcDbLine
 10
27.81899684161727
 20
1.131598244315883
 30
0.0
 11
27.81899684161727
 21
0.0130147802924459
 31
0.0
  0
LINE
  5
142C
330
131C
100
AcDbEntity
  8
BORDER
 62
     1
100
AcDbLine
 10
25.94058612884397
 20
1.023732917991838
 30
0.0
 11
25.82740755439057
 21
0.3818653263240478
 31
0.0
  0
TEXT
  5
142D
330
131C
100
AcDbEntity
  8
TEXT
 62
     5
100
AcDbText
 10
27.87265763177108
 20
0.2589191637889954
 30
0.0
 40
0.08
  1
PART No:
  7
ROMANS
100
AcDbText
  0
TEXT
  5
142E
330
131C
100
AcDbEntity
  8
TEXT
 62
     5
100
AcDbText
 10
26.55559330334401
 20
0.1678978799079438
 30
0.0
 40
0.08
  1
DATE
  7
ROMANS
 72
     1
 11
26.70035520810591
 21
0.1678978799079438
 31
0.0
100
AcDbText
  0
TEXT
  5
142F
330
131C
100
AcDbEntity
  8
TEXT
100
AcDbText
 10
25.98330506557811
 20
0.5339052102889853
 30
0.0
 40
0.0780553912804254
  1
PHONE: (805) 238-7100
 41
0.95
 51
15.0
  7
ROMANC
 72
     1
 11
26.71423805106838
 21
0.5339052102889853
 31
0.0
100
AcDbText
  0
TEXT
  5
1430
330
131C
100
AcDbEntity
  8
TEXT
100
AcDbText
 10
25.95889820452069
 20
0.3956090616566725
 30
0.0
 40
0.0780553912804254
  1
FAX: (805) 237-3969
 41
0.95
 51
15.0
  7
ROMANC
 72
     1
 11
26.60331979800849
 21
0.3956090616566725
 31
0.0
100
AcDbText
  0
ATTDEF
  5
1431
330
131C
100
AcDbEntity
  8
TEXT
 62
     3
100
AcDbText
 10
25.72108276191992
 20
0.104000000000001
 30
0.0
 40
0.08
  1

  7
ROMANS
100
AcDbAttributeDefinition
  3
Drawn
  2
DRAWN
 70
     0
  0
LINE
  5
1432
330
131C
100
AcDbEntity
  8
TEXT
100
AcDbLine
 10
25.60348067809323
 20
0.5916206169503104
 30
0.0
 11
25.61577263403092
 21
0.5916206169503104
 31
0.0
  0
LINE
  5
1433
330
131C
100
AcDbEntity
  8
BORDER
100
AcDbLine
 10
26.52899684161727
 20
0.2740000000000049
 30
0.0
 11
26.52899684161727
 21
0.0
 31
0.0
  0
ATTDEF
  5
1434
330
131C
100
AcDbEntity
  8
TEXT
 62
     3
100
AcDbText
 10
27.00508276191992
 20
0.104000000000001
 30
0.0
 40
0.08
  1

  7
ROMANS
100
AcDbAttributeDefinition
  3
Date
  2
DATE
 70
     0
  0
ATTDEF
  5
1435
330
131C
100
AcDbEntity
  8
TEXT
 62
     3
100
AcDbText
 10
29.85883510326689
 20
0.4721304777412759
 30
0.0
 40
0.140625
  1

 41
0.95
  7
ROMANS
 72
     1
 11
29.85883510326689
 21
0.4721304777412759
 31
0.0
100
AcDbAttributeDefinition
  3
DESCRIPTION:
  2
DESCRIPTION
 70
     0
  0
ATTDEF
  5
1436
330
131C
100
AcDbEntity
  8
TEXT
 62
     3
100
AcDbText
 10
29.85883510326689
 20
0.0885123832845256
 30
0.0
 40
0.140625
  1

 41
0.95
  7
ROMANS
 72
     1
 11
29.85883510326689
 21
0.0885123832845256
 31
0.0
100
AcDbAttributeDefinition
  3
Part No:
  2
PARTNO
 70
     0
  0
TEXT
  5
1437
330
131C
100
AcDbEntity
  8
TEXT
 62
     5
100
AcDbText
 10
27.87265763177108
 20
1.009362408827392
 30
0.0
 40
0.08
  1
PROJECT:
  7
ROMANS
100
AcDbText
  0
TEXT
  5
1438
330
131C
100
AcDbEntity
  8
TEXT
100
AcDbText
 10
26.03026832637755
 20
0.7780387793671572
 30
0.0
 40
0.0780553912804254
  1
PASO ROBLES, CA. 
 41
0.95
 51
15.0
  7
ROMANC
 72
     1
 11
26.61819268427191
 21
0.7780387793671572
 31
0.0
100
AcDbText
  0
TEXT
  5
1439
330
131C
100
AcDbEntity
  8
TEXT
100
AcDbText
 10
26.04686568148758
 20
0.9001788566755204
 30
0.0
 40
0.0780553912804254
  1
1747 COMMERCE WAY
 41
0.95
 51
15.0
  7
ROMANC
 72
     1
 11
26.68952173636308
 21
0.9001788566755204
 31
0.0
100
AcDbText
  0
LINE
  5
143A
330
131C
100
AcDbEntity
  8
TEXT
100
AcDbLine
 10
26.02735378620294
 20
0.7106346854452679
 30
0.0
 11
27.53061517411469
 21
0.7106346854452679
 31
0.0
  0
LINE
  5
143B
330
131C
100
AcDbEntity
  8
TEXT
100
AcDbLine
 10
25.75803419151552
 20
0.9437025846213714
 30
0.0
 11
25.75452329109623
 21
0.949403041106505
 31
0.0
  0
LINE
  5
143C
330
131C
100
AcDbEntity
  8
TEXT
100
AcDbLine
 10
25.6426134312001
 20
0.7862822890220329
 30
0.0
 11
25.62988642584386
 21
0.7862822890220329
 31
0.0
  0
LINE
  5
143D
330
131C
100
AcDbEntity
  8
TEXT
100
AcDbLine
 10
25.6329584593789
 20
0.7485715772523954
 30
0.0
 11
25.6540238488991
 21
0.7498870664849317
 31
0.0
  0
LINE
  5
143E
330
131C
100
AcDbEntity
  8
TEXT
100
AcDbLine
 10
25.69960585168979
 20
0.8779280876229464
 30
0.0
 11
25.62763244940832
 21
0.8897674977900951
 31
0.0
  0
LINE
  5
143F
330
131C
100
AcDbEntity
  8
TEXT
100
AcDbLine
 10
25.62587699919868
 20
0.9388791225300002
 30
0.0
 11
25.63816514200251
 21
0.9432640897825974
 31
0.0
  0
LINE
  5
1440
330
131C
100
AcDbEntity
  8
TEXT
100
AcDbLine
 10
25.71897545467383
 20
0.7700579139603944
 30
0.0
 11
25.73038587237283
 21
0.7788278461074816
 31
0.0
  0
LINE
  5
1441
330
131C
100
AcDbEntity
  8
TEXT
100
AcDbLine
 10
25.6540238488991
 20
0.7498870664849317
 30
0.0
 11
25.67113947111577
 21
0.7525180473081119
 31
0.0
  0
LINE
  5
1442
330
131C
100
AcDbEntity
  8
TEXT
100
AcDbLine
 10
25.67113947111577
 20
0.7525180473081119
 30
0.0
 11
25.68825509766427
 21
0.7564645173638283
 31
0.0
  0
LINE
  5
1443
330
131C
100
AcDbEntity
  8
TEXT
100
AcDbLine
 10
25.68825509766427
 20
0.7564645173638283
 30
0.0
 11
25.70493186166037
 21
0.7630419658846167
 31
0.0
  0
LINE
  5
1444
330
131C
100
AcDbEntity
  8
TEXT
100
AcDbLine
 10
25.70493186166037
 20
0.7630419658846167
 30
0.0
 11
25.71897545467383
 21
0.7700579139603944
 31
0.0
  0
LINE
  5
1445
330
131C
100
AcDbEntity
  8
TEXT
100
AcDbLine
 10
25.71261195199571
 20
0.9103768401043316
 30
0.0
 11
25.76110622505056
 21
0.9103768401043316
 31
0.0
  0
LINE
  5
1446
330
131C
100
AcDbEntity
  8
TEXT
100
AcDbLine
 10
25.75057353245638
 20
0.8082071205688052
 30
0.0
 11
25.753206703439
 21
0.8178540471096553
 31
0.0
  0
LINE
  5
1447
330
131C
100
AcDbEntity
  8
TEXT
100
AcDbLine
 10
25.7527081772131
 20
0.8446023431059066
 30
0.0
 11
25.74744183091602
 21
0.8538107724498752
 31
0.0
  0
LINE
  5
1448
330
131C
100
AcDbEntity
  8
TEXT
100
AcDbLine
 10
25.66192336617882
 20
0.94589506824767
 30
0.0
 11
25.66828686885694
 21
0.94589506824767
 31
0.0
  0
LINE
  5
1449
330
131C
100
AcDbEntity
  8
TEXT
100
AcDbLine
 10
25.66828686885694
 20
0.94589506824767
 30
0.0
 11
25.68276932009098
 21
0.9441410818182525
 31
0.0
  0
LINE
  5
144A
330
131C
100
AcDbEntity
  8
TEXT
100
AcDbLine
 10
25.68276932009098
 20
0.9441410818182525
 30
0.0
 11
25.6950574628948
 21
0.940194611762536
 31
0.0
  0
LINE
  5
144B
330
131C
100
AcDbEntity
  8
TEXT
100
AcDbLine
 10
25.6950574628948
 20
0.940194611762536
 30
0.0
 11
25.70295698450635
 21
0.935371149671165
 31
0.0
  0
LINE
  5
144C
330
131C
100
AcDbEntity
  8
TEXT
100
AcDbLine
 10
25.70295698450635
 20
0.935371149671165
 30
0.0
 11
25.70866219335585
 21
0.9292321959891502
 31
0.0
  0
LINE
  5
144D
330
131C
100
AcDbEntity
  8
TEXT
100
AcDbLine
 10
25.70866219335585
 20
0.9292321959891502
 30
0.0
 11
25.71173422689089
 21
0.9222162502714802
 31
0.0
  0
LINE
  5
144E
330
131C
100
AcDbEntity
  8
TEXT
100
AcDbLine
 10
25.71173422689089
 20
0.9222162502714802
 30
0.0
 11
25.71261195199571
 21
0.9160772965894652
 31
0.0
  0
LINE
  5
144F
330
131C
100
AcDbEntity
  8
TEXT
100
AcDbLine
 10
25.71261195199571
 20
0.9160772965894652
 30
0.0
 11
25.71261195199571
 21
0.9103768401043316
 31
0.0
  0
LINE
  5
1450
330
131C
100
AcDbEntity
  8
TEXT
100
AcDbLine
 10
25.67772240507009
 20
0.8424098594796078
 30
0.0
 11
25.68606078923405
 21
0.839340383817654
 31
0.0
  0
LINE
  5
1451
330
131C
100
AcDbEntity
  8
TEXT
100
AcDbLine
 10
25.68606078923405
 20
0.839340383817654
 30
0.0
 11
25.69396030651377
 21
0.8332014301356391
 31
0.0
  0
LINE
  5
1452
330
131C
100
AcDbEntity
  8
TEXT
100
AcDbLine
 10
25.69396030651377
 20
0.8332014301356391
 30
0.0
 11
25.69834892770604
 21
0.8261854844179691
 31
0.0
  0
LINE
  5
1453
330
131C
100
AcDbEntity
  8
TEXT
100
AcDbLine
 10
25.69834892770604
 20
0.8261854844179691
 30
0.0
 11
25.69922665281086
 21
0.8182925443065364
 31
0.0
  0
LINE
  5
1454
330
131C
100
AcDbEntity
  8
TEXT
100
AcDbLine
 10
25.69922665281086
 20
0.8182925443065364
 30
0.0
 11
25.69791006948547
 21
0.8099611069982229
 31
0.0
  0
LINE
  5
1455
330
131C
100
AcDbEntity
  8
TEXT
100
AcDbLine
 10
25.69791006948547
 20
0.8099611069982229
 30
0.0
 11
25.69396030651377
 21
0.8033836584774341
 31
0.0
  0
LINE
  5
1456
330
131C
100
AcDbEntity
  8
TEXT
100
AcDbLine
 10
25.69396030651377
 20
0.8033836584774341
 30
0.0
 11
25.68737737255945
 21
0.7972447047954194
 31
0.0
  0
LINE
  5
1457
330
131C
100
AcDbEntity
  8
TEXT
100
AcDbLine
 10
25.68737737255945
 20
0.7972447047954194
 30
0.0
 11
25.67947785527973
 21
0.7932982347397029
 31
0.0
  0
LINE
  5
1458
330
131C
100
AcDbEntity
  8
TEXT
100
AcDbLine
 10
25.67947785527973
 20
0.7932982347397029
 30
0.0
 11
25.66718971247591
 21
0.7889132674871055
 31
0.0
  0
LINE
  5
1459
330
131C
100
AcDbEntity
  8
TEXT
100
AcDbLine
 10
25.66718971247591
 20
0.7889132674871055
 30
0.0
 11
25.6540238488991
 21
0.7867207862189146
 31
0.0
  0
LINE
  5
145A
330
131C
100
AcDbEntity
  8
TEXT
100
AcDbLine
 10
25.6540238488991
 20
0.7867207862189146
 30
0.0
 11
25.6426134312001
 21
0.7862822890220329
 31
0.0
  0
LINE
  5
145B
330
131C
100
AcDbEntity
  8
TEXT
100
AcDbLine
 10
25.73038587237283
 20
0.7788278461074816
 30
0.0
 11
25.74091856496701
 21
0.7902287590777492
 31
0.0
  0
LINE
  5
145C
330
131C
100
AcDbEntity
  8
TEXT
100
AcDbLine
 10
25.74091856496701
 20
0.7902287590777492
 30
0.0
 11
25.74662377381652
 21
0.7985601940279553
 31
0.0
  0
LINE
  5
145D
330
131C
100
AcDbEntity
  8
TEXT
100
AcDbLine
 10
25.74662377381652
 20
0.7985601940279553
 30
0.0
 11
25.75057353245638
 21
0.8082071205688052
 31
0.0
  0
LINE
  5
145E
330
131C
100
AcDbEntity
  8
TEXT
100
AcDbLine
 10
25.74744183091602
 20
0.8538107724498752
 30
0.0
 11
25.73690913832184
 21
0.8634576989907253
 31
0.0
  0
LINE
  5
145F
330
131C
100
AcDbEntity
  8
TEXT
100
AcDbLine
 10
25.73690913832184
 20
0.8634576989907253
 30
0.0
 11
25.72681530828006
 21
0.8700351498696214
 31
0.0
  0
LINE
  5
1460
330
131C
100
AcDbEntity
  8
TEXT
100
AcDbLine
 10
25.72681530828006
 20
0.8700351498696214
 30
0.0
 11
25.71496602802865
 21
0.8748586119609926
 31
0.0
  0
LINE
  5
1461
330
131C
100
AcDbEntity
  8
TEXT
100
AcDbLine
 10
25.71496602802865
 20
0.8748586119609926
 30
0.0
 11
25.69960585168979
 21
0.8779280876229464
 31
0.0
  0
LINE
  5
1462
330
131C
100
AcDbEntity
  8
TEXT
100
AcDbLine
 10
25.63816514200251
 20
0.9432640897825974
 30
0.0
 11
25.65133100557932
 21
0.9454565710507885
 31
0.0
  0
LINE
  5
1463
330
131C
100
AcDbEntity
  8
TEXT
100
AcDbLine
 10
25.65133100557932
 20
0.9454565710507885
 30
0.0
 11
25.66274142327832
 21
0.94589506824767
 31
0.0
  0
LINE
  5
1464
330
131C
100
AcDbEntity
  8
TEXT
100
AcDbLine
 10
25.76110622505056
 20
0.9103768401043316
 30
0.0
 11
25.76242281270779
 21
0.9178312830188826
 31
0.0
  0
LINE
  5
1465
330
131C
100
AcDbEntity
  8
TEXT
100
AcDbLine
 10
25.76242281270779
 20
0.9178312830188826
 30
0.0
 11
25.76242281270779
 21
0.9274782095597327
 31
0.0
  0
LINE
  5
1466
330
131C
100
AcDbEntity
  8
TEXT
100
AcDbLine
 10
25.76242281270779
 20
0.9274782095597327
 30
0.0
 11
25.76110622505056
 21
0.9349326524742838
 31
0.0
  0
LINE
  5
1467
330
131C
100
AcDbEntity
  8
TEXT
100
AcDbLine
 10
25.76110622505056
 20
0.9349326524742838
 30
0.0
 11
25.75803419151552
 21
0.9437025846213714
 31
0.0
  0
LINE
  5
1468
330
131C
100
AcDbEntity
  8
TEXT
100
AcDbLine
 10
25.753206703439
 20
0.8178540471096553
 30
0.0
 11
25.75452329109623
 21
0.8292549600799226
 31
0.0
  0
LINE
  5
1469
330
131C
100
AcDbEntity
  8
TEXT
100
AcDbLine
 10
25.75452329109623
 20
0.8292549600799226
 30
0.0
 11
25.75452329109623
 21
0.8326052675013588
 31
0.0
  0
LINE
  5
146A
330
131C
100
AcDbEntity
  8
TEXT
100
AcDbLine
 10
25.75452329109623
 20
0.8326052675013588
 30
0.0
 11
25.75402476487034
 21
0.8375863973882367
 31
0.0
  0
LINE
  5
146B
330
131C
100
AcDbEntity
  8
TEXT
100
AcDbLine
 10
25.75402476487034
 20
0.8375863973882367
 30
0.0
 11
25.7527081772131
 21
0.8446023431059066
 31
0.0
  0
LINE
  5
146C
330
131C
100
AcDbEntity
  8
TEXT
100
AcDbLine
 10
25.64480773963031
 20
0.9800978048003647
 30
0.0
 11
25.62637552975641
 21
0.9774668263352925
 31
0.0
  0
LINE
  5
146D
330
131C
100
AcDbEntity
  8
TEXT
100
AcDbLine
 10
25.75452329109623
 20
0.949403041106505
 30
0.0
 11
25.74881808224673
 21
0.9568574840210562
 31
0.0
  0
LINE
  5
146E
330
131C
100
AcDbEntity
  8
TEXT
100
AcDbLine
 10
25.74881808224673
 20
0.9568574840210562
 30
0.0
 11
25.74179628574
 21
0.96255794050619
 31
0.0
  0
LINE
  5
146F
330
131C
100
AcDbEntity
  8
TEXT
100
AcDbLine
 10
25.74179628574
 20
0.96255794050619
 30
0.0
 11
25.73126359314581
 21
0.9686968941882053
 31
0.0
  0
LINE
  5
1470
330
131C
100
AcDbEntity
  8
TEXT
100
AcDbLine
 10
25.73126359314581
 20
0.9686968941882053
 30
0.0
 11
25.72116976310404
 21
0.9730818590826949
 31
0.0
  0
LINE
  5
1471
330
131C
100
AcDbEntity
  8
TEXT
100
AcDbLine
 10
25.72116976310404
 20
0.9730818590826949
 30
0.0
 11
25.70932048285263
 21
0.9765898319415297
 31
0.0
  0
LINE
  5
1472
330
131C
100
AcDbEntity
  8
TEXT
100
AcDbLine
 10
25.70932048285263
 20
0.9765898319415297
 30
0.0
 11
25.69439916906619
 21
0.97922081276471
 31
0.0
  0
LINE
  5
1473
330
131C
100
AcDbEntity
  8
TEXT
100
AcDbLine
 10
25.69439916906619
 20
0.97922081276471
 30
0.0
 11
25.67903899272732
 21
0.9809747991941275
 31
0.0
  0
LINE
  5
1474
330
131C
100
AcDbEntity
  8
TEXT
100
AcDbLine
 10
25.67903899272732
 20
0.9809747991941275
 30
0.0
 11
25.6597290577486
 21
0.9809747991941275
 31
0.0
  0
LINE
  5
1475
330
131C
100
AcDbEntity
  8
TEXT
100
AcDbLine
 10
25.6597290577486
 20
0.9809747991941275
 30
0.0
 11
25.64480773963031
 21
0.9800978048003647
 31
0.0
  0
LINE
  5
1476
330
131C
100
AcDbEntity
  8
TEXT
100
AcDbLine
 10
25.59697176040408
 20
0.750325563681813
 30
0.0
 11
25.61320966184777
 21
0.7490100744492771
 31
0.0
  0
LINE
  5
1477
330
131C
100
AcDbEntity
  8
TEXT
100
AcDbLine
 10
25.61540397460982
 20
0.7880362754514505
 30
0.0
 11
25.603115831806
 21
0.791982745507167
 31
0.0
  0
LINE
  5
1478
330
131C
100
AcDbEntity
  8
TEXT
100
AcDbLine
 10
25.603115831806
 20
0.791982745507167
 30
0.0
 11
25.59521631019444
 21
0.7968062075985381
 31
0.0
  0
LINE
  5
1479
330
131C
100
AcDbEntity
  8
TEXT
100
AcDbLine
 10
25.61929406524436
 20
0.8928369734520488
 30
0.0
 11
25.61139454796464
 21
0.898975927134064
 31
0.0
  0
LINE
  5
147A
330
131C
100
AcDbEntity
  8
TEXT
100
AcDbLine
 10
25.61139454796464
 20
0.898975927134064
 30
0.0
 11
25.60700592677237
 21
0.905991872851734
 31
0.0
  0
LINE
  5
147B
330
131C
100
AcDbEntity
  8
TEXT
100
AcDbLine
 10
25.60700592677237
 20
0.905991872851734
 30
0.0
 11
25.60612820166755
 21
0.9138848129631664
 31
0.0
  0
LINE
  5
147C
330
131C
100
AcDbEntity
  8
TEXT
100
AcDbLine
 10
25.60612820166755
 20
0.9138848129631664
 30
0.0
 11
25.60744478499294
 21
0.9222162502714802
 31
0.0
  0
LINE
  5
147D
330
131C
100
AcDbEntity
  8
TEXT
100
AcDbLine
 10
25.60744478499294
 20
0.9222162502714802
 30
0.0
 11
25.61139454796464
 21
0.9287936987922689
 31
0.0
  0
LINE
  5
147E
330
131C
100
AcDbEntity
  8
TEXT
100
AcDbLine
 10
25.61139454796464
 20
0.9287936987922689
 30
0.0
 11
25.61797748191897
 21
0.9349326524742838
 31
0.0
  0
LINE
  5
147F
330
131C
100
AcDbEntity
  8
TEXT
100
AcDbLine
 10
25.61013762831273
 20
0.9726433618858134
 30
0.0
 11
25.59609403529926
 21
0.9673814025975611
 31
0.0
  0
LINE
  5
1480
330
131C
100
AcDbEntity
  8
TEXT
100
AcDbLine
 10
25.60574900278863
 20
0.8542492696467565
 30
0.0
 11
25.67772240507009
 21
0.8424098594796078
 31
0.0
  0
LINE
  5
1481
330
131C
100
AcDbEntity
  8
TEXT
100
AcDbLine
 10
25.61320966184777
 20
0.7490100744492771
 30
0.0
 11
25.6329584593789
 21
0.7485715772523954
 31
0.0
  0
LINE
  5
1482
330
131C
100
AcDbEntity
  8
TEXT
100
AcDbLine
 10
25.62988642584386
 20
0.7862822890220329
 30
0.0
 11
25.61540397460982
 21
0.7880362754514505
 31
0.0
  0
LINE
  5
1483
330
131C
100
AcDbEntity
  8
TEXT
100
AcDbLine
 10
25.62763244940832
 20
0.8897674977900951
 30
0.0
 11
25.61929406524436
 21
0.8928369734520488
 31
0.0
  0
LINE
  5
1484
330
131C
100
AcDbEntity
  8
TEXT
100
AcDbLine
 10
25.61797748191897
 20
0.9349326524742838
 30
0.0
 11
25.62587699919868
 21
0.9388791225300002
 31
0.0
  0
LINE
  5
1485
330
131C
100
AcDbEntity
  8
TEXT
100
AcDbLine
 10
25.62637552975641
 20
0.9774668263352925
 30
0.0
 11
25.61013762831273
 21
0.9726433618858134
 31
0.0
  0
TEXT
  5
1486
330
131C
100
AcDbEntity
  8
TEXT
100
AcDbText
 10
27.19437242067387
 20
0.7780262836934493
 30
0.0
 40
0.0780553912804254
  1
93446
 41
0.95
 51
15.0
  7
ROMANC
 72
     1
 11
27.3709262819034
 21
0.7780262836934493
 31
0.0
100
AcDbText
  0
ATTDEF
  5
1487
330
131C
100
AcDbEntity
  8
TEXT
 62
     3
100
AcDbText
 10
29.85883510326689
 20
0.83912055267084
 30
0.0
 40
0.140625
  1

 41
0.95
  7
ROMANS
 72
     1
 11
29.85883510326689
 21
0.83912055267084
 31
0.0
100
AcDbAttributeDefinition
  3
Project:
  2
PROJECT
 70
     0
  0
ATTDEF
  5
1488
330
131C
100
AcDbEntity
  8
TEXT
 62
     3
100
AcDbText
 10
30.42194126121543
 20
20.32081811211739
 30
0.0
 40
0.08
  1

 41
0.95
  7
ROMANS
 72
     1
 11
30.42194126121543
 21
20.32081811211739
 31
0.0
100
AcDbAttributeDefinition
  3
APPROVED
  2
APP'D
 70
     0
  0
TEXT
  5
1489
330
131C
100
AcDbEntity
  8
TEXT
 62
     5
100
AcDbText
 10
30.25241745169161
 20
20.47068824756938
 30
0.0
 40
0.08
  1
APP'D
  7
ROMANS
 72
     1
 11
30.42194126121542
 21
20.47068824756938
 31
0.0
100
AcDbText
  0
LINE
  5
148A
330
131C
100
AcDbEntity
  8
TEXT
 62
     5
100
AcDbLine
 10
25.71977493661565
 20
20.28643722898182
 30
0.0
 11
31.5
 21
20.28643722898182
 31
0.0
  0
LINE
  5
148B
330
131C
100
AcDbEntity
  8
BORDER
100
AcDbLine
 10
25.71977493661565
 20
20.58643722898182
 30
0.0
 11
31.5
 21
20.58643722898182
 31
0.0
  0
LINE
  5
148C
330
131C
100
AcDbEntity
  8
TEXT
 62
     5
100
AcDbLine
 10
25.71977493661565
 20
20.43643722898183
 30
0.0
 11
31.5
 21
20.43643722898183
 31
0.0
  0
TEXT
  5
148D
330
131C
100
AcDbEntity
  8
TEXT
 62
     5
100
AcDbText
 10
27.4460637687962
 20
20.63281853352362
 30
0.0
 40
0.115
  1
REVISION
 41
2.0
  7
ROMAND
 72
     1
 11
28.21820662593905
 21
20.63281853352362
 31
0.0
100
AcDbText
  0
LINE
  5
148E
330
131C
100
AcDbEntity
  8
TEXT
 62
     5
100
AcDbLine
 10
26.13977493661565
 20
20.43643722898183
 30
0.0
 11
26.13977493661565
 21
20.58643722898183
 31
0.0
  0
LINE
  5
148F
330
131C
100
AcDbEntity
  8
BORDER
100
AcDbLine
 10
25.71977493661565
 20
20.43643722898183
 30
0.0
 11
25.71977493661564
 21
20.8
 31
0.0
  0
ATTDEF
  5
1490
330
131C
100
AcDbEntity
  8
TEXT
 62
     3
100
AcDbText
 10
25.91951883177217
 20
20.3208181121174
 30
0.0
 40
0.08
  1

 41
0.95
  7
ROMANS
 72
     1
 11
25.91951883177217
 21
20.3208181121174
 31
0.0
100
AcDbAttributeDefinition
  3
ECO No.
  2
ECO
 70
     0
  0
TEXT
  5
1491
330
131C
100
AcDbEntity
  8
TEXT
 62
     5
100
AcDbText
 10
25.7991673294299
 20
20.47068824756938
 30
0.0
 40
0.08
  1
ECO
  7
ROMANS
 72
     1
 11
25.9191673294299
 21
20.47068824756938
 31
0.0
100
AcDbText
  0
LINE
  5
1492
330
131C
100
AcDbEntity
  8
BORDER
100
AcDbLine
 10
25.71977493661565
 20
20.28643722898182
 30
0.0
 11
25.71977493661565
 21
20.43643722898182
 31
0.0
  0
LINE
  5
1493
330
131C
100
AcDbEntity
  8
TEXT
 62
     5
100
AcDbLine
 10
26.13977493661565
 20
20.28643722898183
 30
0.0
 11
26.13977493661565
 21
20.43643722898183
 31
0.0
  0
LINE
  5
1494
330
131C
100
AcDbEntity
  8
TEXT
 62
     5
100
AcDbLine
 10
26.53977493661565
 20
20.43643722898182
 30
0.0
 11
26.53977493661565
 21
20.58643722898182
 31
0.0
  0
ATTDEF
  5
1495
330
131C
100
AcDbEntity
  8
TEXT
 62
     3
100
AcDbText
 10
26.34294647532241
 20
20.32081811211739
 30
0.0
 40
0.08
  1

 41
0.95
  7
ROMANS
 72
     1
 11
26.34294647532241
 21
20.32081811211739
 31
0.0
100
AcDbAttributeDefinition
  3
REVISON
  2
LTR
 70
     0
  0
TEXT
  5
1496
330
131C
100
AcDbEntity
  8
TEXT
 62
     5
100
AcDbText
 10
26.2381845705605
 20
20.47068824756937
 30
0.0
 40
0.08
  1
LTR
  7
ROMANS
 72
     1
 11
26.3429464753224
 21
20.47068824756937
 31
0.0
100
AcDbText
  0
ATTDEF
  5
1497
330
131C
100
AcDbEntity
  8
TEXT
 62
     3
100
AcDbText
 10
26.75059474851443
 20
20.32081811211739
 30
0.0
 40
0.08
  1

 41
0.95
  7
ROMANS
 72
     1
 11
26.75059474851443
 21
20.32081811211739
 31
0.0
100
AcDbAttributeDefinition
  3
BY
  2
BY
 70
     0
  0
TEXT
  5
1498
330
131C
100
AcDbEntity
  8
TEXT
 62
     5
100
AcDbText
 10
26.67059474851443
 20
20.47068824756937
 30
0.0
 40
0.08
  1
BY
  7
ROMANS
 72
     1
 11
26.75059474851443
 21
20.47068824756937
 31
0.0
100
AcDbText
  0
LINE
  5
1499
330
131C
100
AcDbEntity
  8
TEXT
 62
     5
100
AcDbLine
 10
26.53977493661565
 20
20.28643722898182
 30
0.0
 11
26.53977493661565
 21
20.43643722898182
 31
0.0
  0
LINE
  5
149A
330
131C
100
AcDbEntity
  8
TEXT
 62
     5
100
AcDbLine
 10
26.93977493661565
 20
20.43643722898182
 30
0.0
 11
26.93977493661565
 21
20.58643722898182
 31
0.0
  0
LINE
  5
149B
330
131C
100
AcDbEntity
  8
TEXT
 62
     5
100
AcDbLine
 10
26.93977493661565
 20
20.28643722898182
 30
0.0
 11
26.93977493661565
 21
20.43643722898182
 31
0.0
  0
ATTDEF
  5
149C
330
131C
100
AcDbEntity
  8
TEXT
 62
     3
100
AcDbText
 10
28.17676815299268
 20
20.3208181121174
 30
0.0
 40
0.08
  1

 41
0.95
  7
ROMANS
 72
     1
 11
28.17676815299268
 21
20.3208181121174
 31
0.0
100
AcDbAttributeDefinition
  3
WAS
  2
WAS
 70
     0
  0
TEXT
  5
149D
330
131C
100
AcDbEntity
  8
TEXT
 62
     5
100
AcDbText
 10
28.06057767680219
 20
20.47068824756938
 30
0.0
 40
0.08
  1
WAS
  7
ROMANS
 72
     1
 11
28.17676815299267
 21
20.47068824756938
 31
0.0
100
AcDbText
  0
ATTDEF
  5
149E
330
131C
100
AcDbEntity
  8
TEXT
 62
     3
100
AcDbText
 10
29.86410469933466
 20
20.32081811211739
 30
0.0
 40
0.08
  1

 41
0.95
  7
ROMANS
 72
     1
 11
29.86410469933466
 21
20.32081811211739
 31
0.0
100
AcDbAttributeDefinition
  3
CHECK
  2
CHK
 70
     0
  0
TEXT
  5
149F
330
131C
100
AcDbEntity
  8
TEXT
 62
     5
100
AcDbText
 10
29.74219993742989
 20
20.47068824756938
 30
0.0
 40
0.08
  1
CHK
  7
ROMANS
 72
     1
 11
29.86410469933466
 21
20.47068824756938
 31
0.0
100
AcDbText
  0
LINE
  5
14A0
330
131C
100
AcDbEntity
  8
TEXT
 62
     5
100
AcDbLine
 10
29.59694126121542
 20
20.43643722898184
 30
0.0
 11
29.59694126121542
 21
20.58643722898183
 31
0.0
  0
LINE
  5
14A1
330
131C
100
AcDbEntity
  8
TEXT
 62
     5
100
AcDbLine
 10
29.59694126121542
 20
20.28643722898183
 30
0.0
 11
29.59694126121542
 21
20.43643722898183
 31
0.0
  0
LINE
  5
14A2
330
131C
100
AcDbEntity
  8
TEXT
 62
     5
100
AcDbLine
 10
30.14694126121542
 20
20.43643722898184
 30
0.0
 11
30.14694126121542
 21
20.58643722898183
 31
0.0
  0
LINE
  5
14A3
330
131C
100
AcDbEntity
  8
TEXT
 62
     5
100
AcDbLine
 10
30.14694126121542
 20
20.28643722898183
 30
0.0
 11
30.14694126121542
 21
20.43643722898183
 31
0.0
  0
ATTDEF
  5
14A4
330
131C
100
AcDbEntity
  8
TEXT
 62
     3
100
AcDbText
 10
31.12649043505766
 20
20.3208181121174
 30
0.0
 40
0.08
  1

 41
0.95
  7
ROMANS
 72
     1
 11
31.12649043505766
 21
20.3208181121174
 31
0.0
100
AcDbAttributeDefinition
  3
DATE
  2
DATE
 70
     0
  0
TEXT
  5
14A5
330
131C
100
AcDbEntity
  8
TEXT
 62
     5
100
AcDbText
 10
30.98780108919497
 20
20.47068824756938
 30
0.0
 40
0.08
  1
DATE
  7
ROMANS
 72
     1
 11
31.13256299395688
 21
20.47068824756938
 31
0.0
100
AcDbText
  0
LINE
  5
14A6
330
131C
100
AcDbEntity
  8
TEXT
 62
     5
100
AcDbLine
 10
30.69694120793801
 20
20.43643722898183
 30
0.0
 11
30.69694120793801
 21
20.58643722898183
 31
0.0
  0
LINE
  5
14A7
330
131C
100
AcDbEntity
  8
TEXT
 62
     5
100
AcDbLine
 10
30.69694120793802
 20
20.28643722898183
 30
0.0
 11
30.69694120793802
 21
20.43643722898183
 31
0.0
  0
ENDBLK
  5
14A9
330
131C
100
AcDbEntity
  8
0
100
AcDbBlockEnd
  0
ENDSEC
  0
SECTION
  2
ENTITIES
  0
INSERT
  5
6E
330
1F
100
AcDbEntity
  8
0
100
AcDbBlockReference
  2
MARKINS
 10
26.11221467604588
 20
13.6953836395221
 30
0.0
 41
0.25
 42
0.25
 43
0.25
  0
LINE
  5
618
330
1F
100
AcDbEntity
  8
OBJECT1
100
AcDbLine
 10
11.53878630411844
 20
15.1035878370582
 30
0.0
 11
11.5387863041181
 21
11.30985035738693
 31
0.0
  0
LINE
  5
619
330
1F
100
AcDbEntity
  8
OBJECT1
100
AcDbLine
 10
11.16973767063632
 20
10.09628767178438
 30
0.0
 11
11.16973767063632
 21
15.1035878370582
 31
0.0
  0
LINE
  5
61A
330
1F
100
AcDbEntity
  8
OBJECT1
100
AcDbLine
 10
16.32116200926873
 20
13.25083114949364
 30
0.0
 11
16.32116200926873
 21
12.16777047494051
 31
0.0
  0
LINE
  5
61B
330
1F
100
AcDbEntity
  8
OBJECT1
100
AcDbLine
 10
16.65264104597531
 20
13.25083114949364
 30
0.0
 11
16.65264104597531
 21
12.14545073729048
 31
0.0
  0
TEXT
  5
61C
330
1F
100
AcDbEntity
  8
TEXT
100
AcDbText
 10
17.74489031176062
 20
12.67870207589306
 30
0.0
 40
0.35191604497582
  1
12" MIN.
  7
ROMANS
 72
     1
 11
18.92632274846516
 21
12.85466009838097
 31
0.0
100
AcDbText
 73
     2
  0
LINE
  5
61D
330
1F
100
AcDbEntity
  8
OBJECT1
100
AcDbLine
 10
8.884327189153111
 20
13.25943439399185
 30
0.0
 11
8.884327189153111
 21
11.75393850969288
 31
0.0
  0
HATCH
  5
61E
330
1F
100
AcDbEntity
  8
OBJECT2
100
AcDbHatch
 10
0.0
 20
0.0
 30
0.0
210
0.0
220
0.0
230
1.0
  2
AR-CONC
 70
     0
 71
     1
 91
        1
 92
       33
 93
       11
 72
     1
 10
22.14261698338992
 20
10.68877962545508
 11
21.41337828146424
 21
10.68877962545508
 72
     1
 10
21.41337828146424
 20
10.68877962545508
 11
21.41337828146424
 21
10.57122386122709
 72
     1
 10
21.41337828146424
 20
10.57122386122709
 11
21.80544214880393
 21
10.57122386122709
 72
     1
 10
21.80544214880393
 20
10.57122386122709
 11
21.80544214880393
 21
9.858052325048163
 72
     1
 10
16.79641772148983
 20
10.09628767178436
 11
21.80406538460766
 21
10.09628767178436
 72
     1
 10
21.80406538460766
 20
11.30985035738693
 11
17.24212104065929
 21
11.30985035738693
 72
     1
 10
21.80406538460766
 20
10.8063353270971
 11
22.14261698338992
 21
10.8063353270971
 72
     1
 10
21.80406538460766
 20
11.48032160853337
 11
21.80406538460766
 21
10.8063353270971
 72
     1
 10
16.79641772148977
 20
10.77776957055763
 11
16.79641772148977
 21
9.812599692442489
 72
     1
 10
17.24212104065929
 20
10.93863123043182
 11
16.79641772148977
 21
10.77776957055763
 72
     1
 10
17.24212104065929
 20
11.30985035738693
 11
17.24212104065929
 21
10.93863123043182
 97
       11
330
653
330
656
330
657
330
658
330
622
330
623
330
654
330
655
330
649
330
64A
330
64B
 75
     0
 76
     1
 52
0.0
 41
0.25
 77
     0
 78
    13
 53
50.0
 43
-324.9978462275525
 44
-92.26489832900279
 45
1.793150456501883
 46
-0.1568803374564878
 79
     2
 49
0.1875
 49
-2.0625
 53
355.0
 43
-324.9978462275525
 44
-92.26489832900279
 45
-0.3468783340325
 46
1.880480334250029
 79
     2
 49
0.15
 49
-1.649999999999999
 53
100.4513999999999
 43
-324.8484170275525
 44
-92.27797167900279
 45
1.446273454285053
 46
1.723598855152383
 79
     2
 49
0.159350475
 49
-1.752855279999999
 53
46.1842
 43
-324.9978462275525
 44
-91.76489832900278
 45
2.668102621564111
 46
-0.4137975358225454
 79
     2
 49
0.28125
 49
-3.09375
 53
96.63559999999998
 43
-324.7755043650525
 44
-91.79938159650278
 45
2.336656763871758
 46
2.435294677251104
 79
     2
 49
0.2390257199999999
 49
-2.629282499999999
 53
351.1842
 43
-324.9978462275525
 44
-91.76489832900278
 45
2.336654862834067
 46
2.435296502313311
 79
     2
 49
0.225
 49
-2.475
 53
21.0
 43
-324.7478462275525
 44
-91.88989832900279
 45
1.492267630296154
 46
-1.006547226663347
 79
     2
 49
0.1875
 49
-2.0625
 53
326.0
 43
-324.7478462275525
 44
-91.88989832900279
 45
0.6082883298039543
 46
1.812875112617132
 79
     2
 49
0.15
 49
-1.649999999999999
 53
71.45140000000001
 43
-324.6234906450525
 44
-91.97377734400278
 45
2.100556571453724
 46
0.8063262417748809
 79
     2
 49
0.159350475
 49
-1.752855279999999
 53
37.5
 43
-324.9978462275525
 44
-92.26489832900279
 45
0.0303996382932267
 46
0.8322346345782786
 79
     6
 49
0.0
 49
-1.629999999999999
 49
0.0
 49
-1.675
 49
0.0
 49
-1.65625
 53
7.499999999999999
 43
-324.9978462275525
 44
-92.26489832900279
 45
0.6576738436053715
 46
0.9860292797059006
 79
     6
 49
0.0
 49
-0.9549999999999998
 49
0.0
 49
-1.5925
 49
0.0
 49
-0.63125
 53
327.4999999999999
 43
-325.5553462275525
 44
-92.26489832900279
 45
1.334556090431022
 46
-0.0563871793359495
 79
     6
 49
0.0
 49
-0.625
 49
0.0
 49
-1.95
 49
0.0
 49
-2.587499999999999
 53
317.5
 43
-325.8053462275525
 44
-92.26489832900279
 45
1.457965423355965
 46
0.2502624558307942
 79
     6
 49
0.0
 49
-0.8125
 49
0.0
 49
-1.294999999999999
 49
0.0
 49
-1.8375
 98
        1
 10
-324.9978462275525
 20
-92.26489832900279
  0
TEXT
  5
61F
330
1F
100
AcDbEntity
  8
TEXT
100
AcDbText
 10
10.96461111222878
 20
3.50517350745487
 30
0.0
 40
0.375
  1
INDOOR HORIZONTAL INSTALLATION
  7
ROMANS
 72
     1
 11
15.87532539794307
 21
3.69267350745487
 31
0.0
100
AcDbText
 73
     2
  0
TEXT
  5
620
330
1F
100
AcDbEntity
  8
TEXT
100
AcDbText
 10
8.750325397943072
 20
4.33972298121597
 30
0.0
 40
0.75
  1
WILKINS MODEL 975XLST
  7
ROMANS
 72
     1
 11
15.87532539794307
 21
4.71472298121597
 31
0.0
100
AcDbText
 73
     2
  0
TEXT
  5
621
330
1F
100
AcDbEntity
  8
TEXT
100
AcDbText
 10
17.7029955445016
 20
12.12543558798899
 30
0.0
 40
0.35191604497582
  1
30" MAX.
  7
ROMANS
 72
     1
 11
18.92632274846516
 21
12.3013936104769
 31
0.0
100
AcDbText
 73
     2
  0
LINE
  5
622
102
{ACAD_REACTORS
330
61E
102
}
330
1F
100
AcDbEntity
  8
OBJECT1
100
AcDbLine
 10
16.79641772148983
 20
10.09628767178436
 30
0.0
 11
21.80406538460766
 21
10.09628767178436
 31
0.0
  0
LINE
  5
623
102
{ACAD_REACTORS
330
61E
102
}
330
1F
100
AcDbEntity
  8
OBJECT1
100
AcDbLine
 10
21.80406538460766
 20
11.30985035738693
 30
0.0
 11
17.24212104065929
 21
11.30985035738693
 31
0.0
  0
INSERT
  5
624
330
1F
100
AcDbEntity
  8
OBJECT2
100
AcDbBlockReference
  2
*X2
 10
11.13281117441823
 20
29.83401353160047
 30
0.0
 41
0.25
 42
0.25
 43
0.25
1001
ACAD
1000
HATCH
1002
{
1070
    16
1000
AR-CONC
1040
1.0
1040
0.0
1002
}
  0
LINE
  5
625
330
1F
100
AcDbEntity
  8
OBJECT1
100
AcDbLine
 10
7.215746170740544
 20
6.964633299626711
 30
0.0
 11
12.83831868904894
 21
6.964633299626711
 31
0.0
  0
LINE
  5
626
330
1F
100
AcDbEntity
  8
OBJECT1
100
AcDbLine
 10
8.884327189153111
 20
10.09628767178435
 30
0.0
 11
7.215746170740544
 21
10.09628767178435
 31
0.0
  0
LINE
  5
627
330
1F
100
AcDbEntity
  8
OBJECT1
100
AcDbLine
 10
7.215746170740544
 20
10.09628767178435
 30
0.0
 11
7.215746170740544
 21
6.964633299626711
 31
0.0
  0
HATCH
  5
628
330
1F
100
AcDbEntity
  8
OBJECT2
100
AcDbHatch
 10
0.0
 20
0.0
 30
0.0
210
0.0
220
0.0
230
1.0
  2
AR-CONC
 70
     0
 71
     1
 91
        1
 92
        7
 72
     0
 73
     1
 93
        6
 10
11.70016397337741
 20
11.30985035738693
 10
11.70016397337741
 20
10.09628767178436
 10
16.17738533375421
 20
10.09628767178436
 10
16.17738533375421
 20
10.77776957055763
 10
15.73168201458469
 20
10.93863123043182
 10
15.73168201458469
 20
11.30985035738693
 97
        6
330
629
330
62A
330
62B
330
62C
330
62D
330
62E
 75
     0
 76
     1
 52
0.0
 41
0.25
 77
     0
 78
    13
 53
50.0
 43
-324.9978462275525
 44
-92.26489832900279
 45
1.793150456501883
 46
-0.1568803374564878
 79
     2
 49
0.1875
 49
-2.0625
 53
355.0
 43
-324.9978462275525
 44
-92.26489832900279
 45
-0.3468783340325
 46
1.880480334250029
 79
     2
 49
0.15
 49
-1.649999999999999
 53
100.4513999999999
 43
-324.8484170275525
 44
-92.27797167900279
 45
1.446273454285053
 46
1.723598855152383
 79
     2
 49
0.159350475
 49
-1.752855279999999
 53
46.1842
 43
-324.9978462275525
 44
-91.76489832900278
 45
2.668102621564111
 46
-0.4137975358225454
 79
     2
 49
0.28125
 49
-3.09375
 53
96.63559999999998
 43
-324.7755043650525
 44
-91.79938159650278
 45
2.336656763871758
 46
2.435294677251104
 79
     2
 49
0.2390257199999999
 49
-2.629282499999999
 53
351.1842
 43
-324.9978462275525
 44
-91.76489832900278
 45
2.336654862834067
 46
2.435296502313311
 79
     2
 49
0.225
 49
-2.475
 53
21.0
 43
-324.7478462275525
 44
-91.88989832900279
 45
1.492267630296154
 46
-1.006547226663347
 79
     2
 49
0.1875
 49
-2.0625
 53
326.0
 43
-324.7478462275525
 44
-91.88989832900279
 45
0.6082883298039543
 46
1.812875112617132
 79
     2
 49
0.15
 49
-1.649999999999999
 53
71.45140000000001
 43
-324.6234906450525
 44
-91.97377734400278
 45
2.100556571453724
 46
0.8063262417748809
 79
     2
 49
0.159350475
 49
-1.752855279999999
 53
37.5
 43
-324.9978462275525
 44
-92.26489832900279
 45
0.0303996382932267
 46
0.8322346345782786
 79
     6
 49
0.0
 49
-1.629999999999999
 49
0.0
 49
-1.675
 49
0.0
 49
-1.65625
 53
7.499999999999999
 43
-324.9978462275525
 44
-92.26489832900279
 45
0.6576738436053715
 46
0.9860292797059006
 79
     6
 49
0.0
 49
-0.9549999999999998
 49
0.0
 49
-1.5925
 49
0.0
 49
-0.63125
 53
327.4999999999999
 43
-325.5553462275525
 44
-92.26489832900279
 45
1.334556090431022
 46
-0.0563871793359495
 79
     6
 49
0.0
 49
-0.625
 49
0.0
 49
-1.95
 49
0.0
 49
-2.587499999999999
 53
317.5
 43
-325.8053462275525
 44
-92.26489832900279
 45
1.457965423355965
 46
0.2502624558307942
 79
     6
 49
0.0
 49
-0.8125
 49
0.0
 49
-1.294999999999999
 49
0.0
 49
-1.8375
 47
0.1055364031811643
 98
        1
 10
12.93166199287639
 20
10.94885306184596
  0
LINE
  5
629
102
{ACAD_REACTORS
330
628
102
}
330
1F
100
AcDbEntity
  8
OBJECT1
100
AcDbLine
 10
15.73168201458469
 20
11.30985035738693
 30
0.0
 11
11.16973767063632
 21
11.30985035738693
 31
0.0
  0
LINE
  5
62A
102
{ACAD_REACTORS
330
628
102
}
330
1F
100
AcDbEntity
  8
OBJECT2
100
AcDbLine
 10
11.70016397337741
 20
11.30985035738693
 30
0.0
 11
11.70016397337741
 21
10.09598140945307
 31
0.0
  0
LINE
  5
62B
102
{ACAD_REACTORS
330
628
102
}
330
1F
100
AcDbEntity
  8
OBJECT1
100
AcDbLine
 10
11.16973767063632
 20
10.09628767178436
 30
0.0
 11
16.17738533375421
 21
10.09628767178436
 31
0.0
  0
LINE
  5
62C
102
{ACAD_REACTORS
330
628
102
}
330
1F
100
AcDbEntity
  8
OBJECT1
100
AcDbLine
 10
16.17738533375421
 20
10.77776957055763
 30
0.0
 11
16.17738533375421
 21
9.812599692442489
 31
0.0
  0
LINE
  5
62D
102
{ACAD_REACTORS
330
628
102
}
330
1F
100
AcDbEntity
  8
OBJECT1
100
AcDbLine
 10
15.73168201458469
 20
10.93863123043182
 30
0.0
 11
16.17738533375421
 21
10.77776957055763
 31
0.0
  0
LINE
  5
62E
102
{ACAD_REACTORS
330
628
102
}
330
1F
100
AcDbEntity
  8
OBJECT1
100
AcDbLine
 10
15.73168201458469
 20
11.30985035738693
 30
0.0
 11
15.73168201458469
 21
10.93863123043182
 31
0.0
  0
LINE
  5
62F
330
1F
100
AcDbEntity
  8
OBJECT2
100
AcDbLine
 10
16.56956442991435
 20
12.18154606827558
 30
0.0
 11
16.60457253746517
 21
12.17677515898287
 31
0.0
  0
LINE
  5
630
330
1F
100
AcDbEntity
  8
OBJECT2
100
AcDbLine
 10
16.48682109978659
 20
12.1179304123278
 30
0.0
 11
16.51228079622541
 21
12.15291884649686
 31
0.0
  0
LINE
  5
631
330
1F
100
AcDbEntity
  8
OBJECT2
100
AcDbLine
 10
16.51228079622541
 20
12.15291884649686
 30
0.0
 11
16.52978416670237
 21
12.16882276048372
 31
0.0
  0
LINE
  5
632
330
1F
100
AcDbEntity
  8
OBJECT1
100
AcDbLine
 10
16.32116200926873
 20
12.16777047494051
 30
0.0
 11
16.33247083600383
 21
12.12747311392445
 31
0.0
  0
LINE
  5
633
330
1F
100
AcDbEntity
  8
OBJECT1
100
AcDbLine
 10
16.33247083600383
 20
12.12747311392445
 30
0.0
 11
16.36111333614655
 21
12.10043619524317
 31
0.0
  0
LINE
  5
634
330
1F
100
AcDbEntity
  8
OBJECT1
100
AcDbLine
 10
16.36111333614655
 20
12.10043619524317
 30
0.0
 11
16.39930288080461
 21
12.089303190549
 31
0.0
  0
LINE
  5
635
330
1F
100
AcDbEntity
  8
OBJECT1
100
AcDbLine
 10
16.39930288080461
 20
12.089303190549
 30
0.0
 11
16.4502222736823
 21
12.09566528595056
 31
0.0
  0
LINE
  5
636
330
1F
100
AcDbEntity
  8
OBJECT1
100
AcDbLine
 10
16.4502222736823
 20
12.09566528595056
 30
0.0
 11
16.48682109978659
 21
12.1179304123278
 31
0.0
  0
LINE
  5
637
330
1F
100
AcDbEntity
  8
OBJECT1
100
AcDbLine
 10
16.52182784074068
 20
12.08612258435384
 30
0.0
 11
16.50114166655964
 21
12.09566528595056
 31
0.0
  0
LINE
  5
638
330
1F
100
AcDbEntity
  8
OBJECT1
100
AcDbLine
 10
16.50114166655964
 20
12.09566528595056
 30
0.0
 11
16.48682109978659
 21
12.1179304123278
 31
0.0
  0
LINE
  5
639
330
1F
100
AcDbEntity
  8
OBJECT1
100
AcDbLine
 10
16.57433931876869
 20
12.08453228125631
 30
0.0
 11
16.52182784074068
 21
12.08612258435384
 31
0.0
  0
LINE
  5
63A
330
1F
100
AcDbEntity
  8
OBJECT2
100
AcDbLine
 10
16.52978416670237
 20
12.16882276048372
 30
0.0
 11
16.56956442991435
 21
12.18154606827558
 31
0.0
  0
LINE
  5
63B
330
1F
100
AcDbEntity
  8
OBJECT2
100
AcDbLine
 10
16.63321503760778
 20
12.16246154809347
 30
0.0
 11
16.65264104597531
 21
12.14545073729048
 31
0.0
  0
LINE
  5
63C
330
1F
100
AcDbEntity
  8
OBJECT1
100
AcDbLine
 10
16.65264104597531
 20
12.14545073729048
 30
0.0
 11
16.64116999697279
 21
12.11474980613265
 31
0.0
  0
LINE
  5
63D
330
1F
100
AcDbEntity
  8
OBJECT1
100
AcDbLine
 10
16.64116999697279
 20
12.11474980613265
 30
0.0
 11
16.6125288634268
 21
12.09248467975531
 31
0.0
  0
LINE
  5
63E
330
1F
100
AcDbEntity
  8
OBJECT1
100
AcDbLine
 10
16.6125288634268
 20
12.09248467975531
 30
0.0
 11
16.57433931876869
 21
12.08453228125631
 31
0.0
  0
LINE
  5
63F
330
1F
100
AcDbEntity
  8
OBJECT2
100
AcDbLine
 10
16.60457253746517
 20
12.17677515898287
 30
0.0
 11
16.63321503760778
 21
12.16246154809347
 31
0.0
  0
SOLID
  5
640
330
1F
100
AcDbEntity
  8
TEXT
100
AcDbTrace
 10
18.79990812410289
 20
11.66176640236274
 30
0.0
 11
18.91721347242816
 21
11.66176640236274
 31
0.0
 12
18.8585607982655
 22
11.30985035738693
 32
0.0
 13
18.8585607982655
 23
11.30985035738693
 33
0.0
  0
LINE
  5
641
330
1F
100
AcDbEntity
  8
TEXT
100
AcDbLine
 10
18.8585607982655
 20
11.30985035738693
 30
0.0
 11
18.8585607982655
 21
12.01089696896951
 31
0.0
  0
INSERT
  5
642
330
1F
100
AcDbEntity
  8
OBJECT2
100
AcDbBlockReference
  2
*X3
 10
11.13281117441823
 20
29.87235035738693
 30
0.0
 41
0.25
 42
0.25
 43
0.25
1001
ACAD
1000
HATCH
1002
{
1070
    16
1000
ANSI31
1040
3.0
1040
2.356194490192344
1002
}
  0
ARC
  5
643
330
1F
100
AcDbEntity
  8
OBJECT1
100
AcDbCircle
 10
16.33214343068812
 20
9.869276291869169
 30
0.0
 40
0.1648099071329394
100
AcDbArc
 50
200.1140965647218
 51
339.885903435278
  0
ARC
  5
644
330
1F
100
AcDbEntity
  8
OBJECT2
100
AcDbCircle
 10
16.64165962455587
 20
9.75592309301578
 30
0.0
 40
0.1648099071329394
100
AcDbArc
 50
20.1140965647219
 51
159.8859034352781
  0
ARC
  5
645
330
1F
100
AcDbEntity
  8
OBJECT1
100
AcDbCircle
 10
16.64165962455587
 20
9.869276291869169
 30
0.0
 40
0.1648099071329394
100
AcDbArc
 50
200.1140965647218
 51
339.885903435278
  0
ARC
  5
646
330
1F
100
AcDbEntity
  8
OBJECT1
100
AcDbCircle
 10
16.48690152762196
 20
9.463543325645417
 30
0.0
 40
1.994794768473792
100
AcDbArc
 50
67.75331333034997
 51
112.24668666965
  0
LINE
  5
647
330
1F
100
AcDbEntity
  8
OBJECT2
100
AcDbLine
 10
15.73168201458469
 20
10.93863123043182
 30
0.0
 11
17.24212104065929
 21
10.93863123043182
 31
0.0
  0
LINE
  5
648
330
1F
100
AcDbEntity
  8
OBJECT2
100
AcDbLine
 10
16.17738533375421
 20
10.77776957055763
 30
0.0
 11
16.79641772148977
 21
10.77776957055763
 31
0.0
  0
LINE
  5
649
102
{ACAD_REACTORS
330
61E
102
}
330
1F
100
AcDbEntity
  8
OBJECT1
100
AcDbLine
 10
16.79641772148977
 20
10.77776957055763
 30
0.0
 11
16.79641772148977
 21
9.812599692442489
 31
0.0
  0
LINE
  5
64A
102
{ACAD_REACTORS
330
61E
102
}
330
1F
100
AcDbEntity
  8
OBJECT1
100
AcDbLine
 10
17.24212104065929
 20
10.93863123043182
 30
0.0
 11
16.79641772148977
 21
10.77776957055763
 31
0.0
  0
LINE
  5
64B
102
{ACAD_REACTORS
330
61E
102
}
330
1F
100
AcDbEntity
  8
OBJECT1
100
AcDbLine
 10
17.24212104065929
 20
11.30985035738693
 30
0.0
 11
17.24212104065929
 21
10.93863123043182
 31
0.0
  0
INSERT
  5
64C
330
1F
100
AcDbEntity
  8
OBJECT2
100
AcDbBlockReference
  2
*X4
 10
11.13281117441823
 20
29.83401353160047
 30
0.0
 41
0.25
 42
0.25
 43
0.25
1001
ACAD
1000
HATCH
1002
{
1070
    16
1000
EARTH
1040
5.0
1040
0.0
1002
}
  0
LINE
  5
64D
330
1F
100
AcDbEntity
  8
OBJECT1
100
AcDbLine
 10
12.83831868904894
 20
10.09628767178435
 30
0.0
 11
12.83831868904894
 21
6.964633299626711
 31
0.0
  0
LINE
  5
64E
330
1F
100
AcDbEntity
  8
OBJECT2
100
AcDbLine
 10
11.16973767063637
 20
11.60178355608332
 30
0.0
 11
8.884327189153111
 21
11.60178355608332
 31
0.0
  0
LINE
  5
64F
330
1F
100
AcDbEntity
  8
OBJECT2
100
AcDbLine
 10
11.16973767063637
 20
11.75393850969288
 30
0.0
 11
8.884327189153111
 21
11.75393850969288
 31
0.0
  0
LINE
  5
650
330
1F
100
AcDbEntity
  8
OBJECT2
100
AcDbLine
 10
8.884327189153111
 20
10.09628767178435
 30
0.0
 11
11.16973767063637
 21
10.09628767178435
 31
0.0
  0
LINE
  5
651
330
1F
100
AcDbEntity
  8
OBJECT1
100
AcDbLine
 10
8.884327189153111
 20
11.60178355608332
 30
0.0
 11
8.884327189153111
 21
10.09628767178435
 31
0.0
  0
LINE
  5
652
330
1F
100
AcDbEntity
  8
OBJECT2
100
AcDbLine
 10
9.059930622240926
 20
11.60178355608332
 30
0.0
 11
9.059930622240926
 21
11.75393850969288
 31
0.0
  0
LINE
  5
653
102
{ACAD_REACTORS
330
61E
102
}
330
1F
100
AcDbEntity
  8
OBJECT2
100
AcDbLine
 10
22.14261698338992
 20
10.68877962545508
 30
0.0
 11
21.41337828146424
 21
10.68877962545508
 31
0.0
  0
LINE
  5
654
102
{ACAD_REACTORS
330
61E
102
}
330
1F
100
AcDbEntity
  8
OBJECT2
100
AcDbLine
 10
21.80406538460766
 20
10.8063353270971
 30
0.0
 11
22.14261698338992
 21
10.8063353270971
 31
0.0
  0
LINE
  5
655
102
{ACAD_REACTORS
330
61E
102
}
330
1F
100
AcDbEntity
  8
OBJECT2
100
AcDbLine
 10
21.80406538460766
 20
11.48032160853337
 30
0.0
 11
21.80406538460766
 21
10.8063353270971
 31
0.0
  0
LINE
  5
656
102
{ACAD_REACTORS
330
61E
102
}
330
1F
100
AcDbEntity
  8
OBJECT2
100
AcDbLine
 10
21.41337828146424
 20
10.68877962545508
 30
0.0
 11
21.41337828146424
 21
10.57122386122709
 31
0.0
  0
LINE
  5
657
102
{ACAD_REACTORS
330
61E
102
}
330
1F
100
AcDbEntity
  8
OBJECT2
100
AcDbLine
 10
21.41337828146424
 20
10.57122386122709
 30
0.0
 11
21.80544214880393
 21
10.57122386122709
 31
0.0
  0
LINE
  5
658
102
{ACAD_REACTORS
330
61E
102
}
330
1F
100
AcDbEntity
  8
OBJECT2
100
AcDbLine
 10
21.80544214880393
 20
10.57122386122709
 30
0.0
 11
21.80544214880393
 21
9.858052325048163
 31
0.0
  0
LINE
  5
659
330
1F
100
AcDbEntity
  8
OBJECT1
  6
CONTINUOUS
100
AcDbLine
 10
18.82052500163587
 20
15.33106267738878
 30
0.0
 11
20.54827428408725
 21
15.33106267738881
 31
0.0
  0
LINE
  5
65A
330
1F
100
AcDbEntity
  8
OBJECT1
  6
CONTINUOUS
100
AcDbLine
 10
18.82052500163581
 20
15.09279872070638
 30
0.0
 11
20.54827428408725
 21
15.09279872070638
 31
0.0
  0
LINE
  5
65B
330
1F
100
AcDbEntity
  8
OBJECT1
  6
CONTINUOUS
100
AcDbLine
 10
14.42801660529585
 20
15.1035878370582
 30
0.0
 11
7.17588678388904
 21
15.10358783705822
 31
0.0
  0
LINE
  5
65C
330
1F
100
AcDbEntity
  8
OBJECT1
  6
CONTINUOUS
100
AcDbLine
 10
14.42801660529573
 20
15.3418517937406
 30
0.0
 11
7.175886783888984
 21
15.34185179374071
 31
0.0
  0
INSERT
  5
65D
330
1F
100
AcDbEntity
  8
OBJECT2
100
AcDbBlockReference
  2
*X4
 10
28.62205304896923
 20
20.54288718297297
 30
0.0
 41
0.25
 42
0.25
 43
0.25
 50
270.0
1001
ACAD
1000
HATCH
1002
{
1070
    16
1000
EARTH
1040
5.0
1040
0.0
1002
}
  0
ARC
  5
65E
330
1F
100
AcDbEntity
  8
OBJECT2
100
AcDbCircle
 10
7.780121105399587
 20
18.77323749030182
 30
0.0
 40
0.3330492717890609
100
AcDbArc
 50
86.45478000105423
 51
171.2090746183706
  0
ARC
  5
65F
330
1F
100
AcDbEntity
  8
OBJECT2
100
AcDbCircle
 10
8.508493817913915
 20
18.80096622917918
 30
0.0
 40
1.057763338458013
100
AcDbArc
 50
147.1841746253589
 51
178.7448004574508
  0
ARC
  5
660
330
1F
100
AcDbEntity
  8
OBJECT2
100
AcDbCircle
 10
7.862062726950057
 20
18.83793531297058
 30
0.0
 40
0.5885684599475032
100
AcDbArc
 50
114.3349078291789
 51
169.5993313657416
  0
ELLIPSE
  5
661
330
1F
100
AcDbEntity
  8
OBJECT1
100
AcDbEllipse
 10
7.17588678388904
 20
15.28228580457008
 30
0.0
 11
0.0
 21
-0.0595659891706077
 31
0.0
210
0.0
220
0.0
230
1.0
 40
0.6778715586623083
 41
3.141592653589793
 42
6.283185307179586
  0
ELLIPSE
  5
662
330
1F
100
AcDbEntity
  8
OBJECT1
100
AcDbEllipse
 10
7.17588678388904
 20
15.16315382622883
 30
0.0
 11
0.0
 21
-0.0595659891706113
 31
0.0
210
0.0
220
0.0
230
1.0
 40
0.6778715586621486
 41
0.0
 42
6.283185307179586
  0
ARC
  5
663
330
1F
100
AcDbEntity
  8
OBJECT2
100
AcDbCircle
 10
5.246565731680846
 20
19.3008956721645
 30
0.0
 40
1.923678637289783
100
AcDbArc
 50
347.0691615938375
 51
4.846234667865818
  0
ARC
  5
664
330
1F
100
AcDbEntity
  8
OBJECT2
100
AcDbCircle
 10
5.644722797944325
 20
19.03385498711591
 30
0.0
 40
1.31434057474648
100
AcDbArc
 50
353.1041144800003
 51
14.0977451379708
  0
ARC
  5
665
330
1F
100
AcDbEntity
  8
OBJECT2
100
AcDbCircle
 10
6.554891035637695
 20
18.91774349288428
 30
0.0
 40
0.5685430849320693
100
AcDbArc
 50
355.2258859347466
 51
50.1138242026866
  0
ARC
  5
666
330
1F
100
AcDbEntity
  8
OBJECT2
100
AcDbCircle
 10
6.554553938530261
 20
19.04951209127708
 30
0.0
 40
0.7361837901385922
100
AcDbArc
 50
351.7747553097772
 51
34.20969277332162
  0
ARC
  5
667
330
1F
100
AcDbEntity
  8
OBJECT2
100
AcDbCircle
 10
6.545402237859661
 20
18.68682178790331
 30
0.0
 40
0.2578893299413595
100
AcDbArc
 50
44.86257011073415
 51
127.3232719025892
  0
ARC
  5
668
330
1F
100
AcDbEntity
  8
OBJECT2
100
AcDbCircle
 10
6.394352106704502
 20
18.24268114219745
 30
0.0
 40
0.6492430002695575
100
AcDbArc
 50
63.58441388956764
 51
90.46871244708595
  0
ARC
  5
669
330
1F
100
AcDbEntity
  8
OBJECT2
100
AcDbCircle
 10
6.325484243273024
 20
18.58220356303917
 30
0.0
 40
0.4942450024685793
100
AcDbArc
 50
35.43254208632292
 51
83.08263043591937
  0
ARC
  5
66A
330
1F
100
AcDbEntity
  8
OBJECT2
100
AcDbCircle
 10
6.495140747517154
 20
18.92391038531783
 30
0.0
 40
0.3240138731093084
100
AcDbArc
 50
353.5111851103267
 51
68.16079043166819
  0
ARC
  5
66B
330
1F
100
AcDbEntity
  8
OBJECT2
100
AcDbCircle
 10
6.505588238328243
 20
18.75780282727044
 30
0.0
 40
0.3373342428875908
100
AcDbArc
 50
22.5733300301152
 51
110.9433271923111
  0
ARC
  5
66C
330
1F
100
AcDbEntity
  8
OBJECT2
100
AcDbCircle
 10
6.594651848183445
 20
18.87034401288374
 30
0.0
 40
0.3549493743772776
100
AcDbArc
 50
0.9207694437791962
 51
86.60447613714302
  0
LINE
  5
66D
330
1F
100
AcDbEntity
  8
OBJECT2
100
AcDbLine
 10
9.059930622240926
 20
14.91708523190036
 30
0.0
 11
9.059930622240869
 21
15.1035878370582
 31
0.0
  0
LINE
  5
66E
330
1F
100
AcDbEntity
  8
OBJECT1
100
AcDbLine
 10
8.884327189153054
 20
14.91708523190036
 30
0.0
 11
8.884327189153054
 21
13.41158934760142
 31
0.0
  0
LINE
  5
66F
330
1F
100
AcDbEntity
  8
OBJECT2
100
AcDbLine
 10
11.16973767063637
 20
14.91708523190036
 30
0.0
 11
8.884327189153111
 21
14.91708523190036
 31
0.0
  0
LINE
  5
670
330
1F
100
AcDbEntity
  8
OBJECT1
100
AcDbLine
 10
8.884327189153111
 20
16.57473606980889
 30
0.0
 11
8.884327189153111
 21
15.34185179374065
 31
0.0
  0
LINE
  5
671
330
1F
100
AcDbEntity
  8
OBJECT1
100
AcDbLine
 10
11.16973767063626
 20
15.34185179374064
 30
0.0
 11
11.16973767063637
 21
19.89003774562596
 31
0.0
  0
LINE
  5
672
330
1F
100
AcDbEntity
  8
OBJECT1
100
AcDbLine
 10
11.53878630411833
 20
19.89003774562597
 30
0.0
 11
11.53878630411838
 21
15.34185179374064
 31
0.0
  0
LINE
  5
673
330
1F
100
AcDbEntity
  8
OBJECT1
100
AcDbLine
 10
16.13081900578208
 20
15.90345321172836
 30
0.0
 11
15.89651660549662
 21
15.66915519904611
 31
0.0
  0
LINE
  5
674
330
1F
100
AcDbEntity
  8
OBJECT2
100
AcDbLine
 10
15.94186248491735
 20
15.62381370722857
 30
0.0
 11
16.17615610999644
 21
15.85811171991075
 31
0.0
  0
LINE
  5
675
330
1F
100
AcDbEntity
  8
OBJECT1
100
AcDbLine
 10
15.85546180203846
 20
15.02846859964746
 30
0.0
 11
15.98134213881474
 21
15.02846859964746
 31
0.0
  0
LINE
  5
676
330
1F
100
AcDbEntity
  8
OBJECT1
100
AcDbLine
 10
15.85546180203846
 20
15.02846859964746
 30
0.0
 11
15.57778794378737
 21
15.02846859964746
 31
0.0
  0
LINE
  5
677
330
1F
100
AcDbEntity
  8
OBJECT1
100
AcDbLine
 10
15.80563695564637
 20
15.4169733155831
 30
0.0
 11
15.57778794378737
 21
15.4169733155831
 31
0.0
  0
LINE
  5
678
330
1F
100
AcDbEntity
  8
OBJECT1
100
AcDbLine
 10
15.91518146965307
 20
15.65048594728654
 30
0.0
 11
15.89651660549662
 21
15.66915519904611
 31
0.0
  0
ARC
  5
679
330
1F
100
AcDbEntity
  8
OBJECT1
100
AcDbCircle
 10
15.81424904486391
 20
15.53352560788448
 30
0.0
 40
0.0113244039463088
100
AcDbArc
 50
135.0598749999933
 51
224.9476169999995
  0
LINE
  5
67A
330
1F
100
AcDbEntity
  8
OBJECT2
100
AcDbLine
 10
15.85690971110568
 20
15.47485018983943
 30
0.0
 11
15.89911170364501
 21
15.43264819730012
 31
0.0
  0
LINE
  5
67B
330
1F
100
AcDbEntity
  8
OBJECT2
100
AcDbLine
 10
15.89911170364501
 20
15.43355854199035
 30
0.0
 11
15.89911170364501
 21
15.41672252636523
 31
0.0
  0
LINE
  5
67C
330
1F
100
AcDbEntity
  8
OBJECT1
100
AcDbLine
 10
15.85690971110568
 20
15.45884860084601
 30
0.0
 11
15.8216794407445
 21
15.42361833048488
 31
0.0
  0
ARC
  5
67D
330
1F
100
AcDbEntity
  8
OBJECT1
100
AcDbCircle
 10
15.84887600958461
 20
15.46684720154108
 30
0.0
 40
0.01133756675601
100
AcDbArc
 50
315.1158750000007
 51
44.88413199999177
  0
LINE
  5
67E
330
1F
100
AcDbEntity
  8
OBJECT1
100
AcDbLine
 10
15.80622850615247
 20
15.52552261958612
 30
0.0
 11
15.85690971110568
 21
15.47485018983943
 31
0.0
  0
ARC
  5
67F
330
1F
100
AcDbEntity
  8
OBJECT1
100
AcDbCircle
 10
15.80563695564637
 20
15.43966081558309
 30
0.0
 40
0.0226875
100
AcDbArc
 50
270.0
 51
314.999999999993
  0
LINE
  5
680
330
1F
100
AcDbEntity
  8
OBJECT2
100
AcDbLine
 10
15.91518146965307
 20
15.65048594728654
 30
0.0
 11
15.94186248491735
 21
15.62381370722857
 31
0.0
  0
LINE
  5
681
330
1F
100
AcDbEntity
  8
OBJECT1
100
AcDbLine
 10
15.80622850615247
 20
15.54152859618284
 30
0.0
 11
15.91518146965307
 21
15.65048155968332
 31
0.0
  0
ARC
  5
682
330
1F
100
AcDbEntity
  8
OBJECT1
100
AcDbCircle
 10
14.2526571779399
 20
15.71943274450168
 30
0.0
 40
0.0075422899588163
100
AcDbArc
 50
90.0
 51
180.0158999999999
  0
LINE
  5
683
330
1F
100
AcDbEntity
  8
OBJECT1
100
AcDbLine
 10
14.24511927558433
 20
15.68781567559926
 30
0.0
 11
14.24511927558433
 21
15.71942835689837
 31
0.0
  0
ARC
  5
684
330
1F
100
AcDbEntity
  8
OBJECT1
100
AcDbCircle
 10
14.25266156554312
 20
15.68782006320246
 30
0.0
 40
0.0075422899588163
100
AcDbArc
 50
180.0158840000029
 51
269.9682310000028
  0
LINE
  5
685
330
1F
100
AcDbEntity
  8
OBJECT2
100
AcDbLine
 10
14.90592303580973
 20
15.38773871523663
 30
0.0
 11
14.9074012928076
 21
15.38773871523663
 31
0.0
  0
LINE
  5
686
330
1F
100
AcDbEntity
  8
OBJECT2
100
AcDbLine
 10
15.04975744501848
 20
15.67063820893919
 30
0.0
 11
15.02108884548909
 21
15.65726479428266
 31
0.0
  0
LINE
  5
687
330
1F
100
AcDbEntity
  8
OBJECT2
100
AcDbLine
 10
15.2177412224259
 20
15.69785889940132
 30
0.0
 11
15.16118062913955
 21
15.69062812927207
 31
0.0
  0
LINE
  5
688
330
1F
100
AcDbEntity
  8
OBJECT2
100
AcDbLine
 10
15.27428426529917
 20
15.69059302844621
 30
0.0
 11
15.2177412224259
 21
15.69785889940132
 31
0.0
  0
LINE
  5
689
330
1F
100
AcDbEntity
  8
OBJECT2
100
AcDbLine
 10
15.13605721302315
 20
15.69782379857547
 30
0.0
 11
15.16118062913955
 21
15.69062812927207
 31
0.0
  0
LINE
  5
68A
330
1F
100
AcDbEntity
  8
OBJECT2
100
AcDbLine
 10
15.29944278224155
 20
15.69782379857547
 30
0.0
 11
15.27428426529917
 21
15.69059302844621
 31
0.0
  0
ARC
  5
68B
330
1F
100
AcDbEntity
  8
OBJECT1
100
AcDbCircle
 10
14.99517566079066
 20
15.66951937011447
 30
0.0
 40
0.0107540155259213
100
AcDbArc
 50
25.02968600000027
 51
89.93312100000224
  0
ARC
  5
68C
330
1F
100
AcDbEntity
  8
OBJECT1
100
AcDbCircle
 10
14.9951888236003
 20
15.66954130813071
 30
0.0
 40
0.0574337263297875
100
AcDbArc
 50
24.99306499999546
 51
90.0
  0
LINE
  5
68D
330
1F
100
AcDbEntity
  8
OBJECT1
100
AcDbLine
 10
15.0534167061154
 20
15.68067265753474
 30
0.0
 11
15.0472872243979
 21
15.69382230442627
 31
0.0
  0
LINE
  5
68E
330
1F
100
AcDbEntity
  8
OBJECT1
100
AcDbLine
 10
15.00496001600197
 20
15.67409125268409
 30
0.0
 11
15.0111026605291
 21
15.66091528017309
 31
0.0
  0
ARC
  5
68F
330
1F
100
AcDbEntity
  8
OBJECT1
100
AcDbCircle
 10
15.01790344554149
 20
15.66404364127881
 30
0.0
 40
0.0074852511167775
100
AcDbArc
 50
204.6878809999982
 51
295.1687620000025
  0
ARC
  5
690
330
1F
100
AcDbEntity
  8
OBJECT1
100
AcDbCircle
 10
15.04652378143527
 20
15.67750042039669
 30
0.0
 40
0.0075861659911538
100
AcDbArc
 50
295.2364499999971
 51
24.71334100000473
  0
LINE
  5
691
330
1F
100
AcDbEntity
  8
OBJECT1
100
AcDbLine
 10
15.11214038779604
 20
15.6913082077733
 30
0.0
 11
15.13605721302315
 21
15.69782379857547
 31
0.0
  0
LINE
  5
692
330
1F
100
AcDbEntity
  8
OBJECT1
100
AcDbLine
 10
15.3233683826752
 20
15.6913082077733
 30
0.0
 11
15.29944278224155
 21
15.69782379857547
 31
0.0
  0
LINE
  5
693
330
1F
100
AcDbEntity
  8
OBJECT1
100
AcDbLine
 10
15.13608353864242
 20
15.69787206221104
 30
0.0
 11
15.29944278224155
 21
15.69782379857547
 31
0.0
  0
LINE
  5
694
330
1F
100
AcDbEntity
  8
OBJECT2
100
AcDbLine
 10
15.14702183350425
 20
15.54055016066166
 30
0.0
 11
15.14704377152042
 21
15.51973098331757
 31
0.0
  0
LINE
  5
695
330
1F
100
AcDbEntity
  8
OBJECT2
100
AcDbLine
 10
15.28846061134743
 20
15.54057648628102
 30
0.0
 11
15.28848693696687
 21
15.51974853373045
 31
0.0
  0
LINE
  5
696
330
1F
100
AcDbEntity
  8
OBJECT1
100
AcDbLine
 10
15.3516508731198
 20
15.51974853373045
 30
0.0
 11
15.3516508731198
 21
15.54053699785197
 31
0.0
  0
LINE
  5
697
330
1F
100
AcDbEntity
  8
OBJECT1
100
AcDbLine
 10
15.08387106016084
 20
15.54055016066166
 30
0.0
 11
15.0838271841286
 21
15.51974853373045
 31
0.0
  0
LINE
  5
698
330
1F
100
AcDbEntity
  8
OBJECT2
100
AcDbLine
 10
15.31205714153855
 20
15.50089500263503
 30
0.0
 11
15.1234472413293
 21
15.50089500263503
 31
0.0
  0
LINE
  5
699
330
1F
100
AcDbEntity
  8
OBJECT2
100
AcDbLine
 10
15.12346917934553
 20
15.51973098331757
 30
0.0
 11
15.31203520352227
 21
15.51973098331757
 31
0.0
  0
LINE
  5
69A
330
1F
100
AcDbEntity
  8
OBJECT1
100
AcDbLine
 10
15.1234472413293
 20
15.50089500263503
 30
0.0
 11
15.0838271841286
 21
15.50089500263503
 31
0.0
  0
LINE
  5
69B
330
1F
100
AcDbEntity
  8
OBJECT1
100
AcDbLine
 10
15.12346917934553
 20
15.51973098331757
 30
0.0
 11
15.12346917934553
 21
15.50089500263503
 31
0.0
  0
LINE
  5
69C
330
1F
100
AcDbEntity
  8
OBJECT1
100
AcDbLine
 10
15.31203520352227
 20
15.51973098331757
 30
0.0
 11
15.3516508731198
 21
15.51974853373045
 31
0.0
  0
LINE
  5
69D
330
1F
100
AcDbEntity
  8
OBJECT1
100
AcDbLine
 10
15.0838271841286
 20
15.51974853373045
 30
0.0
 11
15.12346917934553
 21
15.51973098331757
 31
0.0
  0
LINE
  5
69E
330
1F
100
AcDbEntity
  8
OBJECT1
100
AcDbLine
 10
15.31203520352227
 20
15.51973098331757
 30
0.0
 11
15.31205714153855
 21
15.50089500263503
 31
0.0
  0
LINE
  5
69F
330
1F
100
AcDbEntity
  8
OBJECT2
100
AcDbLine
 10
15.2177412224259
 20
15.60356930590796
 30
0.0
 11
15.27428426529917
 21
15.61077813802106
 31
0.0
  0
LINE
  5
6A0
330
1F
100
AcDbEntity
  8
OBJECT2
100
AcDbLine
 10
15.16118062913955
 20
15.61076497521135
 30
0.0
 11
15.2177412224259
 21
15.60356930590796
 31
0.0
  0
LINE
  5
6A1
330
1F
100
AcDbEntity
  8
OBJECT2
100
AcDbLine
 10
15.29935503017674
 20
15.60356930590796
 30
0.0
 11
15.13617129070723
 21
15.60355175549512
 31
0.0
  0
LINE
  5
6A2
330
1F
100
AcDbEntity
  8
OBJECT2
100
AcDbLine
 10
15.27428426529917
 20
15.61077813802106
 30
0.0
 11
15.29935503017674
 21
15.60356930590796
 31
0.0
  0
LINE
  5
6A3
330
1F
100
AcDbEntity
  8
OBJECT2
100
AcDbLine
 10
15.13617129070723
 20
15.60355175549512
 30
0.0
 11
15.16118062913955
 21
15.61076497521135
 31
0.0
  0
LINE
  5
6A4
330
1F
100
AcDbEntity
  8
OBJECT2
100
AcDbLine
 10
15.14702183350425
 20
15.54055016066166
 30
0.0
 11
15.2177412224259
 21
15.54800031095254
 31
0.0
  0
LINE
  5
6A5
330
1F
100
AcDbEntity
  8
OBJECT2
100
AcDbLine
 10
15.14702183350425
 20
15.54055016066166
 30
0.0
 11
15.11545302823742
 21
15.54800031095254
 31
0.0
  0
LINE
  5
6A6
330
1F
100
AcDbEntity
  8
OBJECT2
100
AcDbLine
 10
15.28846061134743
 20
15.54057648628102
 30
0.0
 11
15.2177412224259
 21
15.54800031095254
 31
0.0
  0
LINE
  5
6A7
330
1F
100
AcDbEntity
  8
OBJECT2
100
AcDbLine
 10
15.28846061134743
 20
15.54057648628102
 30
0.0
 11
15.32007329264649
 21
15.54800908615905
 31
0.0
  0
LINE
  5
6A8
330
1F
100
AcDbEntity
  8
OBJECT2
100
AcDbLine
 10
15.16118062913955
 20
15.57195223700563
 30
0.0
 11
15.27428426529917
 21
15.57195223700563
 31
0.0
  0
LINE
  5
6A9
330
1F
100
AcDbEntity
  8
OBJECT2
100
AcDbLine
 10
15.27428426529917
 20
15.54800908615905
 30
0.0
 11
15.1611060398846
 21
15.54800908615905
 31
0.0
  0
LINE
  5
6AA
330
1F
100
AcDbEntity
  8
OBJECT2
100
AcDbLine
 10
15.27428426529917
 20
15.57195223700563
 30
0.0
 11
15.27428426529917
 21
15.54800908615905
 31
0.0
  0
LINE
  5
6AB
330
1F
100
AcDbEntity
  8
OBJECT2
100
AcDbLine
 10
15.16118062913955
 20
15.57195223700563
 30
0.0
 11
15.1611060398846
 21
15.54800908615905
 31
0.0
  0
LINE
  5
6AC
330
1F
100
AcDbEntity
  8
OBJECT1
100
AcDbLine
 10
15.36136941428259
 20
15.57195223700563
 30
0.0
 11
15.27428426529917
 21
15.57195223700563
 31
0.0
  0
ARC
  5
6AD
330
1F
100
AcDbEntity
  8
OBJECT1
100
AcDbCircle
 10
-41.24228819772787
 20
3.016663242310329
 30
0.0
 40
57.97938621834958
100
AcDbArc
 50
12.49912700000065
 51
12.50632999999935
  0
LINE
  5
6AE
330
1F
100
AcDbEntity
  8
OBJECT1
100
AcDbLine
 10
15.36136941428259
 20
15.60356053070155
 30
0.0
 11
15.29935503017674
 21
15.60356930590796
 31
0.0
  0
ARC
  5
6AF
330
1F
100
AcDbEntity
  8
OBJECT1
100
AcDbCircle
 10
15.0926550418348
 20
15.62184806097981
 30
0.0
 40
0.0499002115774388
100
AcDbArc
 50
204.8232119999975
 51
270.0
  0
ARC
  5
6B0
330
1F
100
AcDbEntity
  8
OBJECT1
100
AcDbCircle
 10
15.0926550418348
 20
15.62185244858311
 30
0.0
 40
0.018305080691205
100
AcDbArc
 50
204.5054779999903
 51
269.9869079999988
  0
LINE
  5
6B1
330
1F
100
AcDbEntity
  8
OBJECT1
100
AcDbLine
 10
15.16118062913955
 20
15.57195223700563
 30
0.0
 11
15.0926550418348
 21
15.57195223700563
 31
0.0
  0
LINE
  5
6B2
330
1F
100
AcDbEntity
  8
OBJECT1
100
AcDbLine
 10
15.13617129070723
 20
15.60355175549512
 30
0.0
 11
15.0926550418348
 21
15.60355175549512
 31
0.0
  0
LINE
  5
6B3
330
1F
100
AcDbEntity
  8
OBJECT1
100
AcDbLine
 10
15.13617129070723
 20
15.60355175549512
 30
0.0
 11
15.11214038779604
 21
15.61011122232957
 31
0.0
  0
LINE
  5
6B4
330
1F
100
AcDbEntity
  8
OBJECT1
100
AcDbLine
 10
15.29935503017674
 20
15.60356930590796
 30
0.0
 11
15.3233683826752
 21
15.61011122232957
 31
0.0
  0
LINE
  5
6B5
330
1F
100
AcDbEntity
  8
OBJECT1
100
AcDbLine
 10
15.08387106016084
 20
15.54055016066166
 30
0.0
 11
15.11545302823742
 21
15.54800031095254
 31
0.0
  0
LINE
  5
6B6
330
1F
100
AcDbEntity
  8
OBJECT1
100
AcDbLine
 10
15.16118062913955
 20
15.54800031095254
 30
0.0
 11
15.11545302823742
 21
15.54800031095254
 31
0.0
  0
LINE
  5
6B7
330
1F
100
AcDbEntity
  8
OBJECT1
100
AcDbLine
 10
15.3516508731198
 20
15.54053699785197
 30
0.0
 11
15.32007329264649
 21
15.54800908615905
 31
0.0
  0
LINE
  5
6B8
330
1F
100
AcDbEntity
  8
OBJECT1
100
AcDbLine
 10
15.27428426529917
 20
15.54800908615905
 30
0.0
 11
15.32007329264649
 21
15.54800908615905
 31
0.0
  0
LINE
  5
6B9
330
1F
100
AcDbEntity
  8
OBJECT1
100
AcDbLine
 10
15.27428426529917
 20
15.57195223700563
 30
0.0
 11
15.27428426529917
 21
15.54800908615905
 31
0.0
  0
LINE
  5
6BA
330
1F
100
AcDbEntity
  8
OBJECT1
100
AcDbLine
 10
15.39908525167993
 20
15.565840305701
 30
0.0
 11
15.39908525167993
 21
15.44891506712474
 31
0.0
  0
LINE
  5
6BB
330
1F
100
AcDbEntity
  8
OBJECT1
100
AcDbLine
 10
15.36747695798396
 20
15.50089500263503
 30
0.0
 11
15.36747695798396
 21
15.565840305701
 31
0.0
  0
LINE
  5
6BC
330
1F
100
AcDbEntity
  8
OBJECT2
100
AcDbLine
 10
15.58909918492395
 20
15.36605079245214
 30
0.0
 11
15.73243340736411
 21
15.36605079245214
 31
0.0
  0
LINE
  5
6BD
330
1F
100
AcDbEntity
  8
OBJECT2
100
AcDbLine
 10
15.36747695798396
 20
15.50086428941246
 30
0.0
 11
15.39500039306938
 21
15.50086428941246
 31
0.0
  0
LINE
  5
6BE
330
1F
100
AcDbEntity
  8
OBJECT2
100
AcDbLine
 10
15.39500039306938
 20
15.44891506712474
 30
0.0
 11
15.39500039306938
 21
15.50086428941246
 31
0.0
  0
LINE
  5
6BF
330
1F
100
AcDbEntity
  8
OBJECT1
100
AcDbLine
 10
15.39908525167993
 20
15.44891506712474
 30
0.0
 11
15.39500039306938
 21
15.44891506712474
 31
0.0
  0
LINE
  5
6C0
330
1F
100
AcDbEntity
  8
OBJECT1
100
AcDbLine
 10
15.39500039306938
 20
15.39995380263936
 30
0.0
 11
15.39500039306938
 21
15.44891506712474
 31
0.0
  0
LINE
  5
6C1
330
1F
100
AcDbEntity
  8
OBJECT1
100
AcDbLine
 10
15.42328727111731
 20
15.39995380263936
 30
0.0
 11
15.42328727111731
 21
15.38359681778396
 31
0.0
  0
LINE
  5
6C2
330
1F
100
AcDbEntity
  8
OBJECT1
100
AcDbLine
 10
15.42328727111731
 20
15.38359681778396
 30
0.0
 11
15.46321446054446
 21
15.38359681778396
 31
0.0
  0
LINE
  5
6C3
330
1F
100
AcDbEntity
  8
OBJECT1
100
AcDbLine
 10
15.39500039306938
 20
15.39995380263936
 30
0.0
 11
15.42328727111731
 21
15.39995380263936
 31
0.0
  0
LINE
  5
6C4
330
1F
100
AcDbEntity
  8
OBJECT1
100
AcDbLine
 10
15.57778794378737
 20
15.4169733155831
 30
0.0
 11
15.56444962995675
 21
15.40363500175253
 31
0.0
  0
LINE
  5
6C5
330
1F
100
AcDbEntity
  8
OBJECT2
100
AcDbLine
 10
15.39500039306938
 20
15.46500002057979
 30
0.0
 11
15.2799662114869
 21
15.42437520223839
 31
0.0
  0
LINE
  5
6C6
330
1F
100
AcDbEntity
  8
OBJECT1
100
AcDbLine
 10
15.31205714153855
 20
15.50089500263503
 30
0.0
 11
15.36747695798396
 21
15.50086428941246
 31
0.0
  0
ARC
  5
6C7
330
1F
100
AcDbEntity
  8
OBJECT1
100
AcDbCircle
 10
15.36136502667943
 20
15.5658359180978
 30
0.0
 40
0.0377246126037825
100
AcDbArc
 50
0.0047669999993364
 51
89.99364499999876
  0
LINE
  5
6C8
330
1F
100
AcDbEntity
  8
OBJECT2
100
AcDbLine
 10
15.27428426529917
 20
15.69059302844621
 30
0.0
 11
15.27428426529917
 21
15.61077813802106
 31
0.0
  0
LINE
  5
6C9
330
1F
100
AcDbEntity
  8
OBJECT2
100
AcDbLine
 10
15.16118062913955
 20
15.69062812927207
 30
0.0
 11
15.16118062913955
 21
15.61076497521135
 31
0.0
  0
LINE
  5
6CA
330
1F
100
AcDbEntity
  8
OBJECT1
100
AcDbLine
 10
15.04737936406576
 20
15.60087970512574
 30
0.0
 11
15.02108884548909
 21
15.65726479428266
 31
0.0
  0
LINE
  5
6CB
330
1F
100
AcDbEntity
  8
OBJECT1
100
AcDbLine
 10
15.07600408756275
 20
15.61426189498871
 30
0.0
 11
15.04972673179577
 21
15.67061627092295
 31
0.0
  0
LINE
  5
6CC
330
1F
100
AcDbEntity
  8
OBJECT1
100
AcDbLine
 10
15.3233683826752
 20
15.6913082077733
 30
0.0
 11
15.3233683826752
 21
15.61011122232957
 31
0.0
  0
LINE
  5
6CD
330
1F
100
AcDbEntity
  8
OBJECT1
100
AcDbLine
 10
15.11214038779604
 20
15.61011122232957
 30
0.0
 11
15.11214038779604
 21
15.6913082077733
 31
0.0
  0
LINE
  5
6CE
330
1F
100
AcDbEntity
  8
OBJECT1
100
AcDbLine
 10
14.2526571779399
 20
15.7269750344605
 30
0.0
 11
14.9951888236003
 21
15.7269750344605
 31
0.0
  0
LINE
  5
6CF
330
1F
100
AcDbEntity
  8
OBJECT1
100
AcDbLine
 10
14.9951888236003
 20
15.68027338564043
 30
0.0
 11
14.2526571779399
 21
15.68027338564043
 31
0.0
  0
LINE
  5
6D0
330
1F
100
AcDbEntity
  8
OBJECT2
100
AcDbLine
 10
14.8386523030299
 20
15.08958791269368
 30
0.0
 11
14.8386523030299
 21
15.355854002537
 31
0.0
  0
LINE
  5
6D1
330
1F
100
AcDbEntity
  8
OBJECT2
100
AcDbLine
 10
14.92117434465012
 20
15.30523422402919
 30
0.0
 11
14.93845711378799
 21
15.33988751436935
 31
0.0
  0
LINE
  5
6D2
330
1F
100
AcDbEntity
  8
OBJECT2
100
AcDbLine
 10
14.85593507216754
 20
15.30523422402919
 30
0.0
 11
14.8386523030299
 21
15.33988751436935
 31
0.0
  0
LINE
  5
6D3
330
1F
100
AcDbEntity
  8
OBJECT2
100
AcDbLine
 10
14.85593507216754
 20
15.14020769120141
 30
0.0
 11
14.8386523030299
 21
15.21193184126352
 31
0.0
  0
LINE
  5
6D4
330
1F
100
AcDbEntity
  8
OBJECT2
100
AcDbLine
 10
14.92117434465012
 20
15.14020769120141
 30
0.0
 11
14.93845711378799
 21
15.10555440086125
 31
0.0
  0
LINE
  5
6D5
330
1F
100
AcDbEntity
  8
OBJECT2
100
AcDbLine
 10
14.85593507216754
 20
15.14020769120141
 30
0.0
 11
14.92117434465012
 21
15.14020769120141
 31
0.0
  0
LINE
  5
6D6
330
1F
100
AcDbEntity
  8
OBJECT2
100
AcDbLine
 10
14.85593507216754
 20
15.14020769120141
 30
0.0
 11
14.8386523030299
 21
15.10555440086125
 31
0.0
  0
LINE
  5
6D7
330
1F
100
AcDbEntity
  8
OBJECT2
100
AcDbLine
 10
14.85593507216754
 20
15.30523422402919
 30
0.0
 11
14.92117434465012
 21
15.30523422402919
 31
0.0
  0
LINE
  5
6D8
330
1F
100
AcDbEntity
  8
OBJECT2
100
AcDbLine
 10
14.85593507216754
 20
15.30523422402919
 30
0.0
 11
14.8386523030299
 21
15.23350568636387
 31
0.0
  0
LINE
  5
6D9
330
1F
100
AcDbEntity
  8
OBJECT1
100
AcDbLine
 10
14.85593507216754
 20
15.05770319999396
 30
0.0
 11
14.92117434465012
 21
15.05770319999396
 31
0.0
  0
LINE
  5
6DA
330
1F
100
AcDbEntity
  8
OBJECT1
100
AcDbLine
 10
14.93395104526683
 20
15.08127340456565
 30
0.0
 11
14.92117434465012
 21
15.05770319999396
 31
0.0
  0
LINE
  5
6DB
330
1F
100
AcDbEntity
  8
OBJECT1
100
AcDbLine
 10
14.8386523030299
 20
15.08958791269368
 30
0.0
 11
14.85593507216754
 21
15.05770319999396
 31
0.0
  0
LINE
  5
6DC
330
1F
100
AcDbEntity
  8
OBJECT2
100
AcDbLine
 10
15.74374026089748
 20
15.35473516371235
 30
0.0
 11
15.74374026089748
 21
15.09070675151822
 31
0.0
  0
LINE
  5
6DD
330
1F
100
AcDbEntity
  8
OBJECT2
100
AcDbLine
 10
15.56444962995675
 20
15.34337565894019
 30
0.0
 11
15.56444962995675
 21
15.10206625629038
 31
0.0
  0
LINE
  5
6DE
330
1F
100
AcDbEntity
  8
OBJECT2
100
AcDbLine
 10
15.47986980241972
 20
15.34337565894019
 30
0.0
 11
15.47986980241972
 21
15.10206625629038
 31
0.0
  0
LINE
  5
6DF
330
1F
100
AcDbEntity
  8
OBJECT2
100
AcDbLine
 10
15.46321446054446
 20
15.30315450009641
 30
0.0
 11
15.47986980241972
 21
15.34337565894019
 31
0.0
  0
LINE
  5
6E0
330
1F
100
AcDbEntity
  8
OBJECT2
100
AcDbLine
 10
15.58909918492395
 20
15.07939112277831
 30
0.0
 11
15.73243340736411
 21
15.07939112277831
 31
0.0
  0
LINE
  5
6E1
330
1F
100
AcDbEntity
  8
OBJECT2
100
AcDbLine
 10
15.46321446054446
 20
15.14228302753096
 30
0.0
 11
15.47986980241972
 21
15.10206625629038
 31
0.0
  0
LINE
  5
6E2
330
1F
100
AcDbEntity
  8
OBJECT2
100
AcDbLine
 10
15.46321446054446
 20
15.14228302753096
 30
0.0
 11
15.42328727111731
 21
15.14228302753096
 31
0.0
  0
LINE
  5
6E3
330
1F
100
AcDbEntity
  8
OBJECT2
100
AcDbLine
 10
15.46321446054446
 20
15.14228302753096
 30
0.0
 11
15.47986980241972
 21
15.20623673226613
 31
0.0
  0
LINE
  5
6E4
330
1F
100
AcDbEntity
  8
OBJECT2
100
AcDbLine
 10
15.46321446054446
 20
15.30315450009641
 30
0.0
 11
15.42328727111731
 21
15.30315450009641
 31
0.0
  0
LINE
  5
6E5
330
1F
100
AcDbEntity
  8
OBJECT2
100
AcDbLine
 10
15.46321446054446
 20
15.30315450009641
 30
0.0
 11
15.47986980241972
 21
15.23920079536122
 31
0.0
  0
LINE
  5
6E6
330
1F
100
AcDbEntity
  8
OBJECT1
100
AcDbLine
 10
15.47986980241972
 20
15.10206625629038
 30
0.0
 11
15.56444962995675
 21
15.10206625629038
 31
0.0
  0
LINE
  5
6E7
330
1F
100
AcDbEntity
  8
OBJECT1
100
AcDbLine
 10
15.47986980241972
 20
15.34337565894019
 30
0.0
 11
15.56444962995675
 21
15.34337565894019
 31
0.0
  0
LINE
  5
6E8
330
1F
100
AcDbEntity
  8
OBJECT1
100
AcDbLine
 10
15.0838271841286
 20
15.06996216342906
 30
0.0
 11
15.0838271841286
 21
15.05770319999396
 31
0.0
  0
LINE
  5
6E9
330
1F
100
AcDbEntity
  8
OBJECT1
100
AcDbLine
 10
15.0838271841286
 20
15.05770319999396
 30
0.0
 11
15.27241514632157
 21
15.05770319999396
 31
0.0
  0
LINE
  5
6EA
330
1F
100
AcDbEntity
  8
OBJECT1
100
AcDbLine
 10
15.27241514632157
 20
15.05770319999396
 30
0.0
 11
15.27241514632157
 21
15.04548811259115
 31
0.0
  0
LINE
  5
6EB
330
1F
100
AcDbEntity
  8
OBJECT1
100
AcDbLine
 10
15.42328727111731
 20
15.04548811259115
 30
0.0
 11
15.42328727111731
 21
15.0618450974466
 31
0.0
  0
LINE
  5
6EC
330
1F
100
AcDbEntity
  8
OBJECT1
100
AcDbLine
 10
15.42328727111731
 20
15.0618450974466
 30
0.0
 11
15.46321446054446
 21
15.0618450974466
 31
0.0
  0
LINE
  5
6ED
330
1F
100
AcDbEntity
  8
OBJECT1
100
AcDbLine
 10
15.39500039306938
 20
15.04548811259115
 30
0.0
 11
15.42328727111731
 21
15.04548811259115
 31
0.0
  0
LINE
  5
6EE
330
1F
100
AcDbEntity
  8
OBJECT1
100
AcDbLine
 10
15.39500039306938
 20
15.04548811259115
 30
0.0
 11
15.42328727111731
 21
15.04548811259115
 31
0.0
  0
LINE
  5
6EF
330
1F
100
AcDbEntity
  8
OBJECT1
100
AcDbLine
 10
15.57778794378737
 20
15.02846859964746
 30
0.0
 11
15.56444962995675
 21
15.04180691347812
 31
0.0
  0
LINE
  5
6F0
330
1F
100
AcDbEntity
  8
OBJECT1
100
AcDbLine
 10
15.27241514632157
 20
15.04548811259115
 30
0.0
 11
15.39500039306938
 21
15.04548811259115
 31
0.0
  0
ARC
  5
6F1
330
1F
100
AcDbEntity
  8
OBJECT2
100
AcDbCircle
 10
15.73243779496738
 20
15.0906935887085
 30
0.0
 40
0.01130246593014
100
AcDbArc
 50
269.9787899999995
 51
0.0689419999975009
  0
ARC
  5
6F2
330
1F
100
AcDbEntity
  8
OBJECT2
100
AcDbCircle
 10
15.5891123477337
 20
15.09071552672465
 30
0.0
 40
0.0113287915495425
100
AcDbArc
 50
180.042327999998
 51
269.9364930000001
  0
LINE
  5
6F3
330
1F
100
AcDbEntity
  8
OBJECT1
100
AcDbLine
 10
15.56444962995675
 20
15.10206625629038
 30
0.0
 11
15.56444962995675
 21
15.04180691347812
 31
0.0
  0
LINE
  5
6F4
330
1F
100
AcDbEntity
  8
OBJECT1
100
AcDbLine
 10
15.46321446054446
 20
15.0618450974466
 30
0.0
 11
15.47986980241972
 21
15.10206625629038
 31
0.0
  0
ARC
  5
6F5
330
1F
100
AcDbEntity
  8
OBJECT1
100
AcDbCircle
 10
15.07249839257895
 20
15.06994461301613
 30
0.0
 40
0.0113287915495425
100
AcDbArc
 50
0.0899209999971269
 51
89.93652299999554
  0
LINE
  5
6F6
330
1F
100
AcDbEntity
  8
OBJECT1
100
AcDbLine
 10
14.93395104526683
 20
15.08127340456565
 30
0.0
 11
15.0725115553887
 21
15.08127340456565
 31
0.0
  0
LINE
  5
6F7
330
1F
100
AcDbEntity
  8
OBJECT2
100
AcDbLine
 10
15.39500039306938
 20
15.39995380263936
 30
0.0
 11
15.39500039306938
 21
15.04548811259115
 31
0.0
  0
LINE
  5
6F8
330
1F
100
AcDbEntity
  8
OBJECT2
100
AcDbLine
 10
15.42328727111731
 20
15.0618450974466
 30
0.0
 11
15.42328727111731
 21
15.38359681778396
 31
0.0
  0
LINE
  5
6F9
330
1F
100
AcDbEntity
  8
OBJECT2
100
AcDbLine
 10
15.27241514632157
 20
15.39390768538334
 30
0.0
 11
15.27241514632157
 21
15.05770319999396
 31
0.0
  0
LINE
  5
6FA
330
1F
100
AcDbEntity
  8
OBJECT2
100
AcDbLine
 10
15.57778794378737
 20
15.4169733155831
 30
0.0
 11
15.57778794378737
 21
15.02846859964746
 31
0.0
  0
ARC
  5
6FB
330
1F
100
AcDbEntity
  8
OBJECT2
100
AcDbCircle
 10
15.73243340736411
 20
15.3547483265221
 30
0.0
 40
0.01130246593014
100
AcDbArc
 50
359.9363710000014
 51
90.0
  0
ARC
  5
6FC
330
1F
100
AcDbEntity
  8
OBJECT2
100
AcDbCircle
 10
15.5891123477337
 20
15.35472638850585
 30
0.0
 40
0.0113244039463088
100
AcDbArc
 50
90.06350699999982
 51
179.9523769999984
  0
LINE
  5
6FD
330
1F
100
AcDbEntity
  8
OBJECT1
100
AcDbLine
 10
15.56444962995675
 20
15.34337565894019
 30
0.0
 11
15.56444962995675
 21
15.40363500175253
 31
0.0
  0
LINE
  5
6FE
330
1F
100
AcDbEntity
  8
OBJECT1
100
AcDbLine
 10
15.46321446054446
 20
15.38359681778396
 30
0.0
 11
15.47986980241972
 21
15.34337565894019
 31
0.0
  0
LINE
  5
6FF
330
1F
100
AcDbEntity
  8
OBJECT1
100
AcDbLine
 10
14.8386523030299
 20
15.355854002537
 30
0.0
 11
14.85593507216754
 21
15.38773871523663
 31
0.0
  0
LINE
  5
700
330
1F
100
AcDbEntity
  8
OBJECT1
100
AcDbLine
 10
14.93395104526683
 20
15.36416851066493
 30
0.0
 11
14.92117434465012
 21
15.38773871523663
 31
0.0
  0
LINE
  5
701
330
1F
100
AcDbEntity
  8
OBJECT1
100
AcDbLine
 10
14.85593507216754
 20
15.38773871523663
 30
0.0
 11
14.92117434465012
 21
15.38773871523663
 31
0.0
  0
LINE
  5
702
330
1F
100
AcDbEntity
  8
OBJECT1
100
AcDbLine
 10
14.93395104526683
 20
15.36416851066493
 30
0.0
 11
15.0725115553887
 21
15.36416851066493
 31
0.0
  0
ARC
  5
703
330
1F
100
AcDbEntity
  8
OBJECT1
100
AcDbCircle
 10
15.07249839257895
 20
15.37549730221445
 30
0.0
 40
0.0113287915495425
100
AcDbArc
 50
270.0634770000044
 51
359.9100790000028
  0
LINE
  5
704
330
1F
100
AcDbEntity
  8
OBJECT1
100
AcDbLine
 10
15.0838271841286
 20
15.50089500263503
 30
0.0
 11
15.0838271841286
 21
15.37547952261213
 31
0.0
  0
LINE
  5
705
330
1F
100
AcDbEntity
  8
OBJECT1
100
AcDbLine
 10
15.08382717017684
 20
15.06996239261269
 30
0.0
 11
15.08382717017684
 21
15.3754795226178
 31
0.0
  0
LINE
  5
706
330
1F
100
AcDbEntity
  8
OBJECT1
  6
CONTINUOUS
100
AcDbLine
 10
14.83865230302979
 20
15.10358783705818
 30
0.0
 11
14.72763295134575
 21
15.1035878370582
 31
0.0
  0
LINE
  5
707
330
1F
100
AcDbEntity
  8
OBJECT1
  6
CONTINUOUS
100
AcDbLine
 10
14.8386523030299
 20
15.3418517937406
 30
0.0
 11
14.72763295134569
 21
15.3418517937406
 31
0.0
  0
LINE
  5
708
330
1F
100
AcDbEntity
  8
OBJECT1
  6
CONTINUOUS
100
AcDbLine
 10
14.80884275192437
 20
15.31402969833766
 30
0.0
 11
14.80884275192437
 21
15.13139622587011
 31
0.0
  0
LINE
  5
709
330
1F
100
AcDbEntity
  8
OBJECT1
  6
CONTINUOUS
100
AcDbLine
 10
14.8386523030299
 20
15.34186093146799
 30
0.0
 11
14.8386523030299
 21
15.10358098376267
 31
0.0
  0
LINE
  5
70A
330
1F
100
AcDbEntity
  8
OBJECT1
  6
CONTINUOUS
100
AcDbLine
 10
14.77904462297806
 20
15.34186093146799
 30
0.0
 11
14.77904462297806
 21
15.10358098376267
 31
0.0
  0
LINE
  5
70B
330
1F
100
AcDbEntity
  8
OBJECT1
  6
CONTINUOUS
100
AcDbLine
 10
14.74923507187259
 20
15.31402969833766
 30
0.0
 11
14.74923507187259
 21
15.13139622587011
 31
0.0
  0
LINE
  5
70C
330
1F
100
AcDbEntity
  8
OBJECT1
100
AcDbLine
 10
14.72763295134575
 20
15.40300363031185
 30
0.0
 11
14.72763295134586
 21
15.04242229389592
 31
0.0
  0
LINE
  5
70D
330
1F
100
AcDbEntity
  8
OBJECT1
100
AcDbLine
 10
14.65727783545361
 20
15.40300363031185
 30
0.0
 11
14.65727783545361
 21
15.04242229389592
 31
0.0
  0
LINE
  5
70E
330
1F
100
AcDbEntity
  8
OBJECT1
100
AcDbLine
 10
14.72763295134586
 20
15.04242229389592
 30
0.0
 11
14.65727783545361
 21
15.04242229389592
 31
0.0
  0
LINE
  5
70F
330
1F
100
AcDbEntity
  8
OBJECT1
100
AcDbLine
 10
14.65727783545361
 20
15.40300363031185
 30
0.0
 11
14.72763295134575
 21
15.40300363031185
 31
0.0
  0
LINE
  5
710
330
1F
100
AcDbEntity
  8
OBJECT1
100
AcDbLine
 10
14.65727783545361
 20
15.3128582962079
 30
0.0
 11
14.72763295134575
 21
15.3128582962079
 31
0.0
  0
LINE
  5
711
330
1F
100
AcDbEntity
  8
OBJECT1
100
AcDbLine
 10
14.65727783545361
 20
15.13256762799994
 30
0.0
 11
14.72763295134586
 21
15.13256762799994
 31
0.0
  0
LINE
  5
712
330
1F
100
AcDbEntity
  8
OBJECT1
100
AcDbLine
 10
14.65727783545344
 20
15.08454941361716
 30
0.0
 11
14.42801660529591
 21
15.08454941361718
 31
0.0
  0
LINE
  5
713
330
1F
100
AcDbEntity
  8
OBJECT1
100
AcDbLine
 10
14.65727783545344
 20
15.36087651059062
 30
0.0
 11
14.42801660529591
 21
15.36087651059061
 31
0.0
  0
LINE
  5
714
330
1F
100
AcDbEntity
  8
OBJECT1
100
AcDbLine
 10
14.42801660529591
 20
15.08454941361718
 30
0.0
 11
14.42801660529585
 21
15.36087651059055
 31
0.0
  0
ARC
  5
715
330
1F
100
AcDbEntity
  8
OBJECT2
100
AcDbCircle
 10
17.53495734305971
 20
15.35475271412529
 30
0.0
 40
0.01130246593014
100
AcDbArc
 50
89.93635600000365
 51
180.079574999999
  0
ARC
  5
716
330
1F
100
AcDbEntity
  8
OBJECT1
100
AcDbCircle
 10
17.34701874614529
 20
15.26992279320394
 30
0.0
 40
0.2414585811597301
100
AcDbArc
 50
225.0057979999996
 51
269.995025999996
  0
LINE
  5
717
330
1F
100
AcDbEntity
  8
OBJECT2
100
AcDbLine
 10
17.09323099989865
 20
15.88476640955583
 30
0.0
 11
17.5359664918036
 21
15.44202653004781
 31
0.0
  0
LINE
  5
718
330
1F
100
AcDbEntity
  8
OBJECT2
100
AcDbLine
 10
17.26658959126746
 20
15.79141576315457
 30
0.0
 11
17.44262462060873
 21
15.61538512141656
 31
0.0
  0
LINE
  5
719
330
1F
100
AcDbEntity
  8
OBJECT1
100
AcDbLine
 10
17.28259118026085
 20
15.79141576315457
 30
0.0
 11
17.36794322596711
 21
15.87676780886069
 31
0.0
  0
LINE
  5
71A
330
1F
100
AcDbEntity
  8
OBJECT1
100
AcDbLine
 10
16.14948386993853
 20
15.88478395996878
 30
0.0
 11
16.13081900578208
 21
15.90345321172836
 31
0.0
  0
LINE
  5
71B
330
1F
100
AcDbEntity
  8
OBJECT1
100
AcDbLine
 10
16.33885721311048
 20
15.79143331356751
 30
0.0
 11
16.42420048361009
 21
15.87678535927361
 31
0.0
  0
ARC
  5
71C
330
1F
100
AcDbEntity
  8
OBJECT1
100
AcDbCircle
 10
16.33084983720886
 20
15.7994538522788
 30
0.0
 40
0.0113287915495425
100
AcDbArc
 50
225.0523679999993
 51
314.9476320000006
  0
LINE
  5
71D
330
1F
100
AcDbEntity
  8
OBJECT1
100
AcDbLine
 10
16.19749302452214
 20
15.91678713795579
 30
0.0
 11
16.32284684891038
 21
15.79143331356751
 31
0.0
  0
ARC
  5
71E
330
1F
100
AcDbEntity
  8
OBJECT1
100
AcDbCircle
 10
16.43219908430518
 20
15.86878237097526
 30
0.0
 40
0.0113156287398413
100
AcDbArc
 50
45.01123400000119
 51
134.9887700000025
  0
ARC
  5
71F
330
1F
100
AcDbEntity
  8
OBJECT1
100
AcDbCircle
 10
16.18949003622384
 20
15.90880170007028
 30
0.0
 40
0.0112980783269063
100
AcDbArc
 50
44.94000599999867
 51
135.0450129999968
  0
LINE
  5
720
330
1F
100
AcDbEntity
  8
OBJECT1
100
AcDbLine
 10
16.14948386993853
 20
15.88478395996878
 30
0.0
 11
16.18149582313196
 21
15.91678713795579
 31
0.0
  0
ARC
  5
721
330
1F
100
AcDbEntity
  8
OBJECT1
100
AcDbCircle
 10
16.50690241696304
 20
15.62340566012777
 30
0.0
 40
0.01133756675601
100
AcDbArc
 50
135.1009519999986
 51
224.8990480000014
  0
LINE
  5
722
330
1F
100
AcDbEntity
  8
OBJECT2
100
AcDbLine
 10
16.32284684891038
 20
15.79143331356751
 30
0.0
 11
16.49887310304529
 21
15.61540705943269
 31
0.0
  0
ARC
  5
723
330
1F
100
AcDbEntity
  8
OBJECT1
100
AcDbCircle
 10
16.57622654805629
 20
15.72475929482739
 30
0.0
 40
0.0113156287398413
100
AcDbArc
 50
314.9924929999916
 51
45.00374599999874
  0
LINE
  5
724
330
1F
100
AcDbEntity
  8
OBJECT1
100
AcDbLine
 10
17.14123576687916
 20
15.91677397514607
 30
0.0
 11
17.26658959126746
 21
15.79141576315457
 31
0.0
  0
ARC
  5
725
330
1F
100
AcDbEntity
  8
OBJECT1
100
AcDbCircle
 10
17.27459257956581
 20
15.79942313905616
 30
0.0
 40
0.011320016343075
100
AcDbArc
 50
225.0187230000059
 51
314.9812619999961
  0
ARC
  5
726
330
1F
100
AcDbEntity
  8
OBJECT1
100
AcDbCircle
 10
17.13322839097765
 20
15.9087622116412
 30
0.0
 40
0.011320016343075
100
AcDbArc
 50
45.00748400000143
 51
134.9625700000012
  0
LINE
  5
727
330
1F
100
AcDbEntity
  8
OBJECT1
100
AcDbLine
 10
17.09323099989865
 20
15.88476640955583
 30
0.0
 11
17.12522540267923
 21
15.91677397514607
 31
0.0
  0
ARC
  5
728
330
1F
100
AcDbEntity
  8
OBJECT1
100
AcDbCircle
 10
16.75795229879168
 20
15.53350805747148
 30
0.0
 40
0.0112980783269063
100
AcDbArc
 50
134.9099579999955
 51
225.0975339999982
  0
LINE
  5
729
330
1F
100
AcDbEntity
  8
OBJECT1
100
AcDbLine
 10
16.5922281370498
 20
15.44203969285752
 30
0.0
 11
16.62424447784639
 21
15.47404725844768
 31
0.0
  0
ARC
  5
72A
330
1F
100
AcDbEntity
  8
OBJECT1
100
AcDbCircle
 10
16.61621077632537
 20
15.48205024674604
 30
0.0
 40
0.01133756675601
100
AcDbArc
 50
315.1121220000013
 51
44.88787799999863
  0
LINE
  5
72B
330
1F
100
AcDbEntity
  8
OBJECT1
100
AcDbLine
 10
16.58676118342049
 20
15.43656396402175
 30
0.0
 11
16.5922281370498
 21
15.44203969285752
 31
0.0
  0
LINE
  5
72C
330
1F
100
AcDbEntity
  8
OBJECT1
100
AcDbLine
 10
16.80064806585926
 20
15.47483263942659
 30
0.0
 11
16.74997563611276
 21
15.5255050691731
 31
0.0
  0
ARC
  5
72D
330
1F
100
AcDbEntity
  8
OBJECT1
100
AcDbCircle
 10
16.79264946516423
 20
15.46682965112822
 30
0.0
 40
0.0113156287398413
100
AcDbArc
 50
315.0037540000083
 51
45.00749199999964
  0
LINE
  5
72E
330
1F
100
AcDbEntity
  8
OBJECT2
100
AcDbLine
 10
17.21754057471736
 20
15.39775122581605
 30
0.0
 11
17.14216593876471
 21
15.47313463697511
 31
0.0
  0
LINE
  5
72F
330
1F
100
AcDbEntity
  8
OBJECT2
100
AcDbLine
 10
17.14216593876471
 20
15.47313463697511
 30
0.0
 11
17.14216593876471
 21
15.42418653529934
 31
0.0
  0
LINE
  5
730
330
1F
100
AcDbEntity
  8
OBJECT2
100
AcDbLine
 10
16.94539070893756
 20
15.37132469153915
 30
0.0
 11
16.94539070893756
 21
15.42418653529934
 31
0.0
  0
LINE
  5
731
330
1F
100
AcDbEntity
  8
OBJECT2
100
AcDbLine
 10
17.14216593876471
 20
15.37132469153915
 30
0.0
 11
16.94539070893756
 21
15.37132469153915
 31
0.0
  0
LINE
  5
732
330
1F
100
AcDbEntity
  8
OBJECT2
100
AcDbLine
 10
17.14216593876471
 20
15.42418653529934
 30
0.0
 11
16.94539070893756
 21
15.42418653529934
 31
0.0
  0
LINE
  5
733
330
1F
100
AcDbEntity
  8
OBJECT1
100
AcDbLine
 10
16.74997563611276
 20
15.54151104576982
 30
0.0
 11
17.09323099989865
 21
15.88476640955583
 31
0.0
  0
LINE
  5
734
330
1F
100
AcDbEntity
  8
OBJECT2
100
AcDbLine
 10
16.14948386993853
 20
15.88478395996878
 30
0.0
 11
16.5922281370498
 21
15.44203969285752
 31
0.0
  0
LINE
  5
735
330
1F
100
AcDbEntity
  8
OBJECT1
100
AcDbLine
 10
16.62424447784639
 20
15.49005323504438
 30
0.0
 11
16.49887310304529
 21
15.61540705943269
 31
0.0
  0
LINE
  5
736
330
1F
100
AcDbEntity
  8
OBJECT1
100
AcDbLine
 10
16.58422514875133
 20
15.73275789552254
 30
0.0
 11
16.44020207260354
 21
15.87678535927361
 31
0.0
  0
LINE
  5
737
330
1F
100
AcDbEntity
  8
OBJECT1
100
AcDbLine
 10
16.49887310304529
 20
15.63140864842613
 30
0.0
 11
16.58422514875133
 21
15.71675630652903
 31
0.0
  0
LINE
  5
738
330
1F
100
AcDbEntity
  8
OBJECT2
100
AcDbLine
 10
16.0618900616671
 20
15.26986983927805
 30
0.0
 11
16.14768934021583
 21
15.18407056072921
 31
0.0
  0
LINE
  5
739
330
1F
100
AcDbEntity
  8
OBJECT2
100
AcDbLine
 10
16.18793243707585
 20
15.23872254660877
 30
0.0
 11
16.26620727876593
 21
15.31781787010358
 31
0.0
  0
LINE
  5
73A
330
1F
100
AcDbEntity
  8
OBJECT2
100
AcDbLine
 10
16.18793243707585
 20
15.23872254660877
 30
0.0
 11
16.14768934021583
 21
15.18407056072921
 31
0.0
  0
ARC
  5
73B
330
1F
100
AcDbEntity
  8
OBJECT1
100
AcDbCircle
 10
15.98135091402122
 20
15.01715297090759
 30
0.0
 40
0.0113112411366075
100
AcDbArc
 50
0.0052989999989142
 51
90.04238899999604
  0
LINE
  5
73C
330
1F
100
AcDbEntity
  8
OBJECT2
100
AcDbLine
 10
17.13167956703608
 20
15.23870938379913
 30
0.0
 11
17.20994563351973
 21
15.31780031969066
 31
0.0
  0
LINE
  5
73D
330
1F
100
AcDbEntity
  8
OBJECT2
100
AcDbLine
 10
17.11985936392437
 20
15.18443034419436
 30
0.0
 11
17.13167956703608
 21
15.23870938379913
 31
0.0
  0
LINE
  5
73E
330
1F
100
AcDbEntity
  8
OBJECT2
100
AcDbLine
 10
17.12603710927743
 20
15.14944359600841
 30
0.0
 11
17.11985936392437
 21
15.18443034419436
 31
0.0
  0
LINE
  5
73F
330
1F
100
AcDbEntity
  8
OBJECT1
100
AcDbLine
 10
17.17670515142083
 20
15.09877555386509
 30
0.0
 11
17.12603710927743
 21
15.14944359600841
 31
0.0
  0
LINE
  5
740
330
1F
100
AcDbEntity
  8
OBJECT1
100
AcDbLine
 10
17.04470410813337
 20
15.08411657146112
 30
0.0
 11
17.11002674507744
 21
15.14944359600841
 31
0.0
  0
LINE
  5
741
330
1F
100
AcDbEntity
  8
OBJECT1
100
AcDbLine
 10
17.09603029076186
 20
15.13544275408952
 30
0.0
 11
17.09653486513366
 21
15.13595171606465
 31
0.0
  0
LINE
  5
742
330
1F
100
AcDbEntity
  8
OBJECT1
100
AcDbLine
 10
17.09603029076186
 20
15.13544275408952
 30
0.0
 11
17.09653486513366
 21
15.13595171606465
 31
0.0
  0
LINE
  5
743
330
1F
100
AcDbEntity
  8
OBJECT1
100
AcDbLine
 10
17.09603029076186
 20
15.13544275408952
 30
0.0
 11
17.0965436403402
 21
15.13595171606465
 31
0.0
  0
LINE
  5
744
330
1F
100
AcDbEntity
  8
OBJECT1
100
AcDbLine
 10
17.09603029076186
 20
15.13544275408952
 30
0.0
 11
17.0965436403402
 21
15.13595171606465
 31
0.0
  0
LINE
  5
745
330
1F
100
AcDbEntity
  8
OBJECT1
100
AcDbLine
 10
17.02736430015369
 20
15.08545040284424
 30
0.0
 11
17.02870690674325
 21
15.08411657146112
 31
0.0
  0
ARC
  5
746
330
1F
100
AcDbEntity
  8
OBJECT1
100
AcDbCircle
 10
17.0193656994586
 20
15.07746935256202
 30
0.0
 40
0.01130246593014
100
AcDbArc
 50
44.95123699999527
 51
135.0637510000011
  0
ARC
  5
747
330
1F
100
AcDbEntity
  8
OBJECT1
100
AcDbCircle
 10
17.0193656994586
 20
15.07746057735551
 30
0.0
 40
0.0113068535333738
100
AcDbArc
 50
44.98875400000597
 51
134.8575589999927
  0
LINE
  5
748
330
1F
100
AcDbEntity
  8
OBJECT1
100
AcDbLine
 10
17.02736430015369
 20
15.08545479044735
 30
0.0
 11
17.02870690674325
 21
15.08411657146112
 31
0.0
  0
ARC
  5
749
330
1F
100
AcDbEntity
  8
OBJECT1
100
AcDbCircle
 10
17.03670550743834
 20
15.09211955975948
 30
0.0
 40
0.0113156287398413
100
AcDbArc
 50
225.0112459999963
 51
315.0037540000083
  0
ARC
  5
74A
330
1F
100
AcDbEntity
  8
OBJECT1
100
AcDbCircle
 10
17.11803412097913
 20
15.14144060771005
 30
0.0
 40
0.0113244039463088
100
AcDbArc
 50
45.0000000000069
 51
135.0149690000008
  0
LINE
  5
74B
330
1F
100
AcDbEntity
  8
OBJECT2
100
AcDbLine
 10
17.20994563351973
 20
15.31780031969066
 30
0.0
 11
17.31080407724215
 21
15.35442717210921
 31
0.0
  0
LINE
  5
74C
330
1F
100
AcDbEntity
  8
OBJECT2
100
AcDbLine
 10
17.02736430015369
 20
15.08545040284424
 30
0.0
 11
16.80676438476723
 21
15.30605470583388
 31
0.0
  0
LINE
  5
74D
330
1F
100
AcDbEntity
  8
OBJECT1
100
AcDbLine
 10
16.87314004648738
 20
15.02846859964746
 30
0.0
 11
16.54931737742367
 21
15.02846859964746
 31
0.0
  0
ARC
  5
74E
330
1F
100
AcDbEntity
  8
OBJECT1
100
AcDbCircle
 10
16.87313565888411
 20
15.22461640221227
 30
0.0
 40
0.1961521901680275
100
AcDbArc
 50
270.0012210000005
 51
314.8165590000022
  0
ARC
  5
74F
330
1F
100
AcDbEntity
  8
OBJECT1
100
AcDbCircle
 10
16.54931737742367
 20
14.99027012589445
 30
0.0
 40
0.0377202250005488
100
AcDbArc
 50
89.99364499999876
 51
149.9961240000002
  0
LINE
  5
750
330
1F
100
AcDbEntity
  8
OBJECT2
100
AcDbLine
 10
16.80064806585926
 20
15.47483263942659
 30
0.0
 11
17.12603710927743
 21
15.14944359600841
 31
0.0
  0
LINE
  5
751
330
1F
100
AcDbEntity
  8
OBJECT2
100
AcDbLine
 10
17.21754057471736
 20
15.39775122581605
 30
0.0
 11
17.14216593876471
 21
15.32237658986346
 31
0.0
  0
LINE
  5
752
330
1F
100
AcDbEntity
  8
OBJECT2
100
AcDbLine
 10
17.14216593876471
 20
15.32237658986346
 30
0.0
 11
17.14216593876471
 21
15.37132469153915
 31
0.0
  0
LINE
  5
753
330
1F
100
AcDbEntity
  8
OBJECT2
100
AcDbLine
 10
16.26620727876593
 20
15.31781787010358
 30
0.0
 11
16.46264027554087
 21
15.38915591108119
 31
0.0
  0
LINE
  5
754
330
1F
100
AcDbEntity
  8
OBJECT1
100
AcDbLine
 10
17.5279678911084
 20
15.73274034510959
 30
0.0
 11
17.38393603975407
 21
15.87676780886069
 31
0.0
  0
ARC
  5
755
330
1F
100
AcDbEntity
  8
OBJECT1
100
AcDbCircle
 10
17.51996490280999
 20
15.72474174441455
 30
0.0
 40
0.0113156287398413
100
AcDbArc
 50
314.9962459999985
 51
44.99625399999437
  0
ARC
  5
756
330
1F
100
AcDbEntity
  8
OBJECT1
100
AcDbCircle
 10
17.37594621426547
 20
15.86877359576874
 30
0.0
 40
0.0113112411366075
100
AcDbArc
 50
45.00749600000565
 51
135.0224759999954
  0
LINE
  5
757
330
1F
100
AcDbEntity
  8
OBJECT1
100
AcDbLine
 10
17.56797405739371
 20
15.49003568463155
 30
0.0
 11
17.44262462060873
 21
15.61538512141656
 31
0.0
  0
LINE
  5
758
330
1F
100
AcDbEntity
  8
OBJECT2
100
AcDbLine
 10
17.6782959531032
 20
15.36605079245214
 30
0.0
 11
17.53497050586935
 21
15.36605079245214
 31
0.0
  0
LINE
  5
759
330
1F
100
AcDbEntity
  8
OBJECT1
100
AcDbLine
 10
17.5382261074688
 20
15.4169733155831
 30
0.0
 11
17.6896159694462
 21
15.4169733155831
 31
0.0
  0
LINE
  5
75A
330
1F
100
AcDbEntity
  8
OBJECT1
100
AcDbLine
 10
17.5359664918036
 20
15.44202653004781
 30
0.0
 11
17.56797405739371
 21
15.47402970803481
 31
0.0
  0
ARC
  5
75B
330
1F
100
AcDbEntity
  8
OBJECT1
100
AcDbCircle
 10
17.55999739471474
 20
15.48203269633319
 30
0.0
 40
0.0112980783269063
100
AcDbArc
 50
314.9062190000001
 51
45.09753000000493
  0
LINE
  5
75C
330
1F
100
AcDbEntity
  8
OBJECT1
100
AcDbLine
 10
17.53021873156734
 20
15.43626999460512
 30
0.0
 11
17.5359664918036
 21
15.44202653004781
 31
0.0
  0
ARC
  5
75D
330
1F
100
AcDbEntity
  8
OBJECT1
100
AcDbCircle
 10
17.53823488267534
 20
15.4282889443229
 30
0.0
 40
0.0113156287398413
100
AcDbArc
 50
134.9026180000019
 51
269.9576419999973
  0
ARC
  5
75E
330
1F
100
AcDbEntity
  8
OBJECT1
100
AcDbCircle
 10
17.5382217198657
 20
15.4282845567197
 30
0.0
 40
0.0113112411366075
100
AcDbArc
 50
134.8426210000006
 51
270.0212100000005
  0
ARC
  5
75F
330
1F
100
AcDbEntity
  8
OBJECT1
100
AcDbCircle
 10
17.45061005849413
 20
15.62338810971491
 30
0.0
 40
0.0113068535333738
100
AcDbArc
 50
134.9475250000032
 51
225.0524749999967
  0
LINE
  5
760
330
1F
100
AcDbEntity
  8
OBJECT1
100
AcDbLine
 10
17.44262462060873
 20
15.63139109801329
 30
0.0
 11
17.5279678911084
 21
15.7167387561162
 31
0.0
  0
LINE
  5
761
330
1F
100
AcDbEntity
  8
OBJECT2
100
AcDbLine
 10
17.52365926473288
 20
15.35473516371235
 30
0.0
 11
17.52365926473288
 21
15.09070675151822
 31
0.0
  0
LINE
  5
762
330
1F
100
AcDbEntity
  8
OBJECT2
100
AcDbLine
 10
17.6782959531032
 20
15.07939112277831
 30
0.0
 11
17.53497050586935
 21
15.07939112277831
 31
0.0
  0
LINE
  5
763
330
1F
100
AcDbEntity
  8
OBJECT1
100
AcDbLine
 10
17.6896159694462
 20
15.02846859964746
 30
0.0
 11
17.34699680812917
 21
15.02846859964746
 31
0.0
  0
ARC
  5
764
330
1F
100
AcDbEntity
  8
OBJECT2
100
AcDbCircle
 10
17.53495734305971
 20
15.0906935887085
 30
0.0
 40
0.0112980783269063
100
AcDbArc
 50
179.9310300000015
 51
270.0636289999986
  0
ARC
  5
765
330
1F
100
AcDbEntity
  8
OBJECT1
100
AcDbCircle
 10
16.59448336511195
 20
15.42829333192619
 30
0.0
 40
0.011320016343075
100
AcDbArc
 50
133.0338440000012
 51
269.9364619999962
  0
LINE
  5
766
330
1F
100
AcDbEntity
  8
OBJECT1
100
AcDbLine
 10
16.7587811792381
 20
15.4169733155831
 30
0.0
 11
16.80069632949488
 21
15.45888370167188
 31
0.0
  0
LINE
  5
767
330
1F
100
AcDbEntity
  8
OBJECT1
100
AcDbLine
 10
16.7587811792381
 20
15.41697331558302
 30
0.0
 11
16.59447458990547
 21
15.4169733155831
 31
0.0
  0
ARC
  5
768
330
1F
100
AcDbEntity
  8
OBJECT1
100
AcDbCircle
 10
16.60765928326265
 20
15.02817923428457
 30
0.0
 40
0.389017575170701
100
AcDbArc
 50
91.9422566780187
 51
111.8873340260871
  0
LINE
  5
769
330
1F
100
AcDbEntity
  8
OBJECT1
100
AcDbLine
 10
15.85611555492028
 20
14.88513437720733
 30
0.0
 11
15.97681851988068
 21
14.88513437720733
 31
0.0
  0
ARC
  5
76A
330
1F
100
AcDbEntity
  8
OBJECT1
100
AcDbCircle
 10
15.85611116731706
 20
14.87382752367395
 30
0.0
 40
0.0113112411366075
100
AcDbArc
 50
89.97879799999822
 51
180.0158999999999
  0
LINE
  5
76B
330
1F
100
AcDbEntity
  8
OBJECT2
100
AcDbLine
 10
15.97681851988068
 20
14.88513437720733
 30
0.0
 11
16.10392738556248
 21
14.88513437720733
 31
0.0
  0
ARC
  5
76C
330
1F
100
AcDbEntity
  8
OBJECT2
100
AcDbCircle
 10
16.10393616076891
 20
14.87382313607065
 30
0.0
 40
0.0113112411366075
100
AcDbArc
 50
359.9894100000007
 51
90.04238899999604
  0
LINE
  5
76D
330
1F
100
AcDbEntity
  8
OBJECT1
100
AcDbLine
 10
15.97681851988068
 20
14.88513876481056
 30
0.0
 11
15.98134213881474
 21
14.88513876481056
 31
0.0
  0
ARC
  5
76E
330
1F
100
AcDbEntity
  8
OBJECT1
100
AcDbCircle
 10
15.98135530162443
 20
14.89645000594713
 30
0.0
 40
0.0113112411366075
100
AcDbArc
 50
269.9364009999968
 51
0.0159039999992379
  0
LINE
  5
76F
330
1F
100
AcDbEntity
  8
OBJECT1
100
AcDbLine
 10
15.99265776755453
 20
15.01715735851087
 30
0.0
 11
15.99265776755453
 21
14.89645439355044
 31
0.0
  0
ARC
  5
770
330
1F
100
AcDbEntity
  8
OBJECT1
100
AcDbCircle
 10
19.0147423476904
 20
15.71943274450168
 30
0.0
 40
0.0075422899588163
100
AcDbArc
 50
359.9682010000017
 51
90.0
  0
LINE
  5
771
330
1F
100
AcDbEntity
  8
OBJECT1
100
AcDbLine
 10
19.02228463764925
 20
15.68781567559926
 30
0.0
 11
19.02228463764925
 21
15.71942835689837
 31
0.0
  0
ARC
  5
772
330
1F
100
AcDbEntity
  8
OBJECT1
100
AcDbCircle
 10
19.01473357248391
 20
15.68782006320246
 30
0.0
 40
0.00754667756205
100
AcDbArc
 50
270.0635380000037
 51
359.9682310000028
  0
LINE
  5
773
330
1F
100
AcDbEntity
  8
OBJECT1
100
AcDbLine
 10
18.82052500163575
 20
15.07376029726535
 30
0.0
 11
18.82052500163581
 21
15.35008739423875
 31
0.0
  0
LINE
  5
774
330
1F
100
AcDbEntity
  8
OBJECT2
100
AcDbLine
 10
18.39260653476401
 20
15.30523422402919
 30
0.0
 11
18.40988930390182
 21
15.33988751436935
 31
0.0
  0
LINE
  5
775
330
1F
100
AcDbEntity
  8
OBJECT2
100
AcDbLine
 10
18.26686660129126
 20
15.14020769120141
 30
0.0
 11
18.24958383215351
 21
15.21193184126352
 31
0.0
  0
LINE
  5
776
330
1F
100
AcDbEntity
  8
OBJECT2
100
AcDbLine
 10
18.39260653476401
 20
15.14020769120141
 30
0.0
 11
18.40988930390182
 21
15.21193184126352
 31
0.0
  0
LINE
  5
777
330
1F
100
AcDbEntity
  8
OBJECT2
100
AcDbLine
 10
18.39260653476401
 20
15.14020769120141
 30
0.0
 11
18.26686660129126
 21
15.14020769120141
 31
0.0
  0
LINE
  5
778
330
1F
100
AcDbEntity
  8
OBJECT2
100
AcDbLine
 10
18.26686660129126
 20
15.14020769120141
 30
0.0
 11
18.24958383215351
 21
15.10555440086125
 31
0.0
  0
LINE
  5
779
330
1F
100
AcDbEntity
  8
OBJECT2
100
AcDbLine
 10
18.39260653476401
 20
15.14020769120141
 30
0.0
 11
18.40988930390182
 21
15.10555440086125
 31
0.0
  0
LINE
  5
77A
330
1F
100
AcDbEntity
  8
OBJECT2
100
AcDbLine
 10
18.39260653476401
 20
15.30523422402919
 30
0.0
 11
18.26686660129126
 21
15.30523422402919
 31
0.0
  0
LINE
  5
77B
330
1F
100
AcDbEntity
  8
OBJECT2
100
AcDbLine
 10
18.26686660129126
 20
15.30523422402919
 30
0.0
 11
18.24958383215351
 21
15.23350568636387
 31
0.0
  0
LINE
  5
77C
330
1F
100
AcDbEntity
  8
OBJECT2
100
AcDbLine
 10
18.39260653476401
 20
15.30523422402919
 30
0.0
 11
18.40988930390182
 21
15.23350568636387
 31
0.0
  0
LINE
  5
77D
330
1F
100
AcDbEntity
  8
OBJECT1
100
AcDbLine
 10
18.25408990067455
 20
15.08127340456565
 30
0.0
 11
18.19489235784487
 21
15.08127340456565
 31
0.0
  0
LINE
  5
77E
330
1F
100
AcDbEntity
  8
OBJECT1
100
AcDbLine
 10
18.39260653476401
 20
15.05770319999396
 30
0.0
 11
18.26686660129126
 21
15.05770319999396
 31
0.0
  0
LINE
  5
77F
330
1F
100
AcDbEntity
  8
OBJECT1
100
AcDbLine
 10
18.25408990067455
 20
15.08127340456565
 30
0.0
 11
18.26686660129126
 21
15.05770319999396
 31
0.0
  0
LINE
  5
780
330
1F
100
AcDbEntity
  8
OBJECT1
100
AcDbLine
 10
18.40988930390182
 20
15.08958791269368
 30
0.0
 11
18.39260653476401
 21
15.05770319999396
 31
0.0
  0
LINE
  5
781
330
1F
100
AcDbEntity
  8
OBJECT1
100
AcDbLine
 10
18.40988930390182
 20
15.355854002537
 30
0.0
 11
18.39260653476401
 21
15.38773871523663
 31
0.0
  0
LINE
  5
782
330
1F
100
AcDbEntity
  8
OBJECT2
100
AcDbLine
 10
18.21764208061182
 20
15.67063820893919
 30
0.0
 11
18.24631506774443
 21
15.65726479428266
 31
0.0
  0
ARC
  5
783
330
1F
100
AcDbEntity
  8
OBJECT1
100
AcDbCircle
 10
18.27221070202995
 20
15.6695500833372
 30
0.0
 40
0.010723302303285
100
AcDbArc
 50
89.9776460000049
 51
155.079299999992
  0
ARC
  5
784
330
1F
100
AcDbEntity
  8
OBJECT1
100
AcDbCircle
 10
18.27221070202995
 20
15.6695456957339
 30
0.0
 40
0.0574293387265538
100
AcDbArc
 50
89.99581899999759
 51
155.0070650000058
  0
LINE
  5
785
330
1F
100
AcDbEntity
  8
OBJECT1
100
AcDbLine
 10
18.26243950962856
 20
15.67409125268409
 30
0.0
 11
18.25630125270436
 21
15.66091528017309
 31
0.0
  0
ARC
  5
786
330
1F
100
AcDbEntity
  8
OBJECT1
100
AcDbCircle
 10
18.24949608008893
 20
15.664048028882
 30
0.0
 40
0.007494026323245
100
AcDbArc
 50
244.8772430000013
 51
335.3025210000023
  0
LINE
  5
787
330
1F
100
AcDbEntity
  8
OBJECT1
100
AcDbLine
 10
18.19489235784487
 20
15.36416851066493
 30
0.0
 11
18.25408990067455
 21
15.36416851066493
 31
0.0
  0
LINE
  5
788
330
1F
100
AcDbEntity
  8
OBJECT1
100
AcDbLine
 10
18.25408990067455
 20
15.36416851066493
 30
0.0
 11
18.26686660129126
 21
15.38773871523663
 31
0.0
  0
LINE
  5
789
330
1F
100
AcDbEntity
  8
OBJECT1
100
AcDbLine
 10
18.39260653476401
 20
15.38773871523663
 30
0.0
 11
18.26686660129126
 21
15.38773871523663
 31
0.0
  0
LINE
  5
78A
330
1F
100
AcDbEntity
  8
OBJECT1
100
AcDbLine
 10
18.22002016156443
 20
15.60087970512574
 30
0.0
 11
18.24631506774443
 21
15.65726479428266
 31
0.0
  0
LINE
  5
78B
330
1F
100
AcDbEntity
  8
OBJECT2
100
AcDbLine
 10
18.40988930390182
 20
15.08958791269368
 30
0.0
 11
18.40988930390182
 21
15.355854002537
 31
0.0
  0
LINE
  5
78C
330
1F
100
AcDbEntity
  8
OBJECT2
100
AcDbLine
 10
18.26686660129126
 20
15.30523422402919
 30
0.0
 11
18.24958383215351
 21
15.33988751436935
 31
0.0
  0
LINE
  5
78D
330
1F
100
AcDbEntity
  8
OBJECT1
100
AcDbLine
 10
18.59126377147799
 20
15.12177851164811
 30
0.0
 11
18.52090865558579
 21
15.12177851164811
 31
0.0
  0
LINE
  5
78E
330
1F
100
AcDbEntity
  8
OBJECT1
100
AcDbLine
 10
18.59126377147799
 20
15.30206917985607
 30
0.0
 11
18.52090865558585
 21
15.30206917985607
 31
0.0
  0
LINE
  5
78F
330
1F
100
AcDbEntity
  8
OBJECT1
100
AcDbLine
 10
18.59126377147799
 20
15.39221451396002
 30
0.0
 11
18.52090865558585
 21
15.39221451396002
 31
0.0
  0
LINE
  5
790
330
1F
100
AcDbEntity
  8
OBJECT1
100
AcDbLine
 10
18.52090865558579
 20
15.03163317754411
 30
0.0
 11
18.59126377147799
 21
15.03163317754411
 31
0.0
  0
LINE
  5
791
330
1F
100
AcDbEntity
  8
OBJECT1
100
AcDbLine
 10
18.59126377147799
 20
15.39221451396002
 30
0.0
 11
18.59126377147799
 21
15.03163317754411
 31
0.0
  0
LINE
  5
792
330
1F
100
AcDbEntity
  8
OBJECT1
100
AcDbLine
 10
18.52090865558585
 20
15.39221451396002
 30
0.0
 11
18.52090865558579
 21
15.03163317754411
 31
0.0
  0
LINE
  5
793
330
1F
100
AcDbEntity
  8
OBJECT1
  6
CONTINUOUS
100
AcDbLine
 10
18.49930653505907
 20
15.30324058198582
 30
0.0
 11
18.49930653505907
 21
15.12060710951828
 31
0.0
  0
LINE
  5
794
330
1F
100
AcDbEntity
  8
OBJECT1
  6
CONTINUOUS
100
AcDbLine
 10
18.4694969839536
 20
15.33107181511616
 30
0.0
 11
18.4694969839536
 21
15.09279186741086
 31
0.0
  0
LINE
  5
795
330
1F
100
AcDbEntity
  8
OBJECT1
  6
CONTINUOUS
100
AcDbLine
 10
18.40988930390182
 20
15.33107181511616
 30
0.0
 11
18.40988930390182
 21
15.09279186741086
 31
0.0
  0
LINE
  5
796
330
1F
100
AcDbEntity
  8
OBJECT1
  6
CONTINUOUS
100
AcDbLine
 10
18.43969885500723
 20
15.30324058198582
 30
0.0
 11
18.43969885500723
 21
15.12060710951828
 31
0.0
  0
LINE
  5
797
330
1F
100
AcDbEntity
  8
OBJECT1
  6
CONTINUOUS
100
AcDbLine
 10
18.40988930390182
 20
15.33106267738878
 30
0.0
 11
18.52090865558591
 21
15.33106267738878
 31
0.0
  0
LINE
  5
798
330
1F
100
AcDbEntity
  8
OBJECT1
  6
CONTINUOUS
100
AcDbLine
 10
18.40988930390187
 20
15.09279872070635
 30
0.0
 11
18.52090865558585
 21
15.09279872070638
 31
0.0
  0
LINE
  5
799
330
1F
100
AcDbEntity
  8
OBJECT1
100
AcDbLine
 10
19.0147423476904
 20
15.7269750344605
 30
0.0
 11
18.27221508963327
 21
15.7269750344605
 31
0.0
  0
LINE
  5
79A
330
1F
100
AcDbEntity
  8
OBJECT1
100
AcDbLine
 10
18.27221508963327
 20
15.68027338564043
 30
0.0
 11
19.0147423476904
 21
15.68027338564043
 31
0.0
  0
LINE
  5
79B
330
1F
100
AcDbEntity
  8
OBJECT1
100
AcDbLine
 10
18.59126377147816
 20
15.35008739423879
 30
0.0
 11
18.82052500163575
 21
15.35008739423878
 31
0.0
  0
LINE
  5
79C
330
1F
100
AcDbEntity
  8
OBJECT1
100
AcDbLine
 10
18.59126377147816
 20
15.07376029726533
 30
0.0
 11
18.82052500163575
 21
15.07376029726535
 31
0.0
  0
LINE
  5
79D
330
1F
100
AcDbEntity
  8
OBJECT1
100
AcDbLine
 10
18.18358111670829
 20
15.06996216342906
 30
0.0
 11
18.18358111670829
 21
15.05770319999396
 31
0.0
  0
ARC
  5
79E
330
1F
100
AcDbEntity
  8
OBJECT1
100
AcDbCircle
 10
18.19488358263834
 20
15.06997532623879
 30
0.0
 40
0.01130246593014
100
AcDbArc
 50
89.95757300000537
 51
180.0583340000017
  0
LINE
  5
79F
330
1F
100
AcDbEntity
  8
OBJECT1
100
AcDbLine
 10
18.18358111670829
 20
15.05770319999396
 30
0.0
 11
17.99498437930873
 21
15.05770319999396
 31
0.0
  0
LINE
  5
7A0
330
1F
100
AcDbEntity
  8
OBJECT2
100
AcDbLine
 10
17.87239913256098
 20
15.39995380263936
 30
0.0
 11
17.87239913256098
 21
15.04548811259115
 31
0.0
  0
LINE
  5
7A1
330
1F
100
AcDbEntity
  8
OBJECT2
100
AcDbLine
 10
17.84411225451293
 20
15.0618450974466
 30
0.0
 11
17.84411225451293
 21
15.38359681778396
 31
0.0
  0
LINE
  5
7A2
330
1F
100
AcDbEntity
  8
OBJECT2
100
AcDbLine
 10
17.99498437930873
 20
15.39390768538334
 30
0.0
 11
17.99498437930873
 21
15.05770319999396
 31
0.0
  0
LINE
  5
7A3
330
1F
100
AcDbEntity
  8
OBJECT2
100
AcDbLine
 10
17.6896159694462
 20
15.4169733155831
 30
0.0
 11
17.6896159694462
 21
15.02846859964746
 31
0.0
  0
LINE
  5
7A4
330
1F
100
AcDbEntity
  8
OBJECT2
100
AcDbLine
 10
18.18358111670829
 20
15.08127340456565
 30
0.0
 11
18.18358111670829
 21
15.36416851066493
 31
0.0
  0
ARC
  5
7A5
330
1F
100
AcDbEntity
  8
OBJECT1
100
AcDbCircle
 10
18.19487480743197
 20
15.37546220138858
 30
0.0
 40
0.0112936907236725
100
AcDbArc
 50
179.9097750000017
 51
270.0848999999966
  0
LINE
  5
7A6
330
1F
100
AcDbEntity
  8
OBJECT1
100
AcDbLine
 10
17.80418506508596
 20
15.38359681778396
 30
0.0
 11
17.78752972321063
 21
15.34337565894019
 31
0.0
  0
ARC
  5
7A7
330
1F
100
AcDbEntity
  8
OBJECT2
100
AcDbCircle
 10
17.67830034070641
 20
15.35473955131557
 30
0.0
 40
0.0113112411366075
100
AcDbArc
 50
359.9788209999994
 51
90.02119400000301
  0
LINE
  5
7A8
330
1F
100
AcDbEntity
  8
OBJECT1
100
AcDbLine
 10
17.70295428327676
 20
15.34337565894019
 30
0.0
 11
17.70295428327676
 21
15.40363500175253
 31
0.0
  0
LINE
  5
7A9
330
1F
100
AcDbEntity
  8
OBJECT2
100
AcDbLine
 10
18.04965830320452
 20
15.69785889940132
 30
0.0
 11
18.10623205930039
 21
15.69062812927207
 31
0.0
  0
LINE
  5
7AA
330
1F
100
AcDbEntity
  8
OBJECT2
100
AcDbLine
 10
17.9931196479344
 20
15.69059302844621
 30
0.0
 11
18.04965830320452
 21
15.69785889940132
 31
0.0
  0
LINE
  5
7AB
330
1F
100
AcDbEntity
  8
OBJECT2
100
AcDbLine
 10
17.96795235578565
 20
15.69782379857547
 30
0.0
 11
17.9931196479344
 21
15.69059302844621
 31
0.0
  0
LINE
  5
7AC
330
1F
100
AcDbEntity
  8
OBJECT1
100
AcDbLine
 10
17.94403553055843
 20
15.6913082077733
 30
0.0
 11
17.96795235578565
 21
15.69782379857547
 31
0.0
  0
LINE
  5
7AD
330
1F
100
AcDbEntity
  8
OBJECT1
100
AcDbLine
 10
17.6896159694462
 20
15.4169733155831
 30
0.0
 11
17.70295428327676
 21
15.40363500175253
 31
0.0
  0
LINE
  5
7AE
330
1F
100
AcDbEntity
  8
OBJECT2
100
AcDbLine
 10
17.97893452667972
 20
15.54057648628102
 30
0.0
 11
17.97892136386997
 21
15.51974853373045
 31
0.0
  0
LINE
  5
7AF
330
1F
100
AcDbEntity
  8
OBJECT1
100
AcDbLine
 10
17.86832743676006
 20
15.565840305701
 30
0.0
 11
17.86832743676006
 21
15.44891506712474
 31
0.0
  0
LINE
  5
7B0
330
1F
100
AcDbEntity
  8
OBJECT1
100
AcDbLine
 10
17.89992695524961
 20
15.50089500263503
 30
0.0
 11
17.89992695524961
 21
15.565840305701
 31
0.0
  0
LINE
  5
7B1
330
1F
100
AcDbEntity
  8
OBJECT1
100
AcDbLine
 10
17.91574426490717
 20
15.51974853373045
 30
0.0
 11
17.91574426490717
 21
15.54053699785197
 31
0.0
  0
LINE
  5
7B2
330
1F
100
AcDbEntity
  8
OBJECT2
100
AcDbLine
 10
17.89992695524961
 20
15.50086428941246
 30
0.0
 11
17.87239913256098
 21
15.50086428941246
 31
0.0
  0
LINE
  5
7B3
330
1F
100
AcDbEntity
  8
OBJECT2
100
AcDbLine
 10
17.87239913256098
 20
15.44891506712474
 30
0.0
 11
17.87239913256098
 21
15.50086428941246
 31
0.0
  0
LINE
  5
7B4
330
1F
100
AcDbEntity
  8
OBJECT2
100
AcDbLine
 10
17.87239913256098
 20
15.46500002057979
 30
0.0
 11
17.98743770174667
 21
15.42437520223839
 31
0.0
  0
LINE
  5
7B5
330
1F
100
AcDbEntity
  8
OBJECT1
100
AcDbLine
 10
17.86832743676006
 20
15.44891506712474
 30
0.0
 11
17.87239913256098
 21
15.44891506712474
 31
0.0
  0
LINE
  5
7B6
330
1F
100
AcDbEntity
  8
OBJECT1
100
AcDbLine
 10
17.87239913256098
 20
15.39995380263936
 30
0.0
 11
17.87239913256098
 21
15.44891506712474
 31
0.0
  0
LINE
  5
7B7
330
1F
100
AcDbEntity
  8
OBJECT1
100
AcDbLine
 10
17.9553423840918
 20
15.50089500263503
 30
0.0
 11
17.89992695524961
 21
15.50086428941246
 31
0.0
  0
LINE
  5
7B8
330
1F
100
AcDbEntity
  8
OBJECT1
100
AcDbLine
 10
17.84411225451293
 20
15.39995380263936
 30
0.0
 11
17.84411225451293
 21
15.38359681778396
 31
0.0
  0
LINE
  5
7B9
330
1F
100
AcDbEntity
  8
OBJECT1
100
AcDbLine
 10
17.84411225451293
 20
15.38359681778396
 30
0.0
 11
17.80418506508596
 21
15.38359681778396
 31
0.0
  0
LINE
  5
7BA
330
1F
100
AcDbEntity
  8
OBJECT1
100
AcDbLine
 10
17.87239913256098
 20
15.39995380263936
 30
0.0
 11
17.84411225451293
 21
15.39995380263936
 31
0.0
  0
LINE
  5
7BB
330
1F
100
AcDbEntity
  8
OBJECT1
100
AcDbLine
 10
17.95536432210804
 20
15.51973098331757
 30
0.0
 11
17.91574426490717
 21
15.51974853373045
 31
0.0
  0
LINE
  5
7BC
330
1F
100
AcDbEntity
  8
OBJECT1
100
AcDbLine
 10
17.95536432210804
 20
15.51973098331757
 30
0.0
 11
17.9553423840918
 21
15.50089500263503
 31
0.0
  0
LINE
  5
7BD
330
1F
100
AcDbEntity
  8
OBJECT2
100
AcDbLine
 10
18.04965830320452
 20
15.60356930590796
 30
0.0
 11
17.9931196479344
 21
15.61077813802106
 31
0.0
  0
LINE
  5
7BE
330
1F
100
AcDbEntity
  8
OBJECT2
100
AcDbLine
 10
18.10623205930039
 20
15.61076497521135
 30
0.0
 11
18.04965830320452
 21
15.60356930590796
 31
0.0
  0
LINE
  5
7BF
330
1F
100
AcDbEntity
  8
OBJECT2
100
AcDbLine
 10
17.9931196479344
 20
15.61077813802106
 30
0.0
 11
17.96804449545345
 21
15.60356930590796
 31
0.0
  0
LINE
  5
7C0
330
1F
100
AcDbEntity
  8
OBJECT2
100
AcDbLine
 10
17.97893452667972
 20
15.54057648628102
 30
0.0
 11
18.04965830320452
 21
15.54800031095254
 31
0.0
  0
LINE
  5
7C1
330
1F
100
AcDbEntity
  8
OBJECT2
100
AcDbLine
 10
17.97893452667972
 20
15.54057648628102
 30
0.0
 11
17.94733500819018
 21
15.54800908615905
 31
0.0
  0
LINE
  5
7C2
330
1F
100
AcDbEntity
  8
OBJECT2
100
AcDbLine
 10
18.10623205930039
 20
15.57195223700563
 30
0.0
 11
17.9931196479344
 21
15.57195223700563
 31
0.0
  0
LINE
  5
7C3
330
1F
100
AcDbEntity
  8
OBJECT2
100
AcDbLine
 10
17.9931196479344
 20
15.54800908615905
 30
0.0
 11
18.1062934857457
 21
15.54800908615905
 31
0.0
  0
LINE
  5
7C4
330
1F
100
AcDbEntity
  8
OBJECT2
100
AcDbLine
 10
17.9931196479344
 20
15.57195223700563
 30
0.0
 11
17.9931196479344
 21
15.54800908615905
 31
0.0
  0
LINE
  5
7C5
330
1F
100
AcDbEntity
  8
OBJECT2
100
AcDbLine
 10
18.10623205930039
 20
15.57195223700563
 30
0.0
 11
18.1062934857457
 21
15.54800908615905
 31
0.0
  0
LINE
  5
7C6
330
1F
100
AcDbEntity
  8
OBJECT1
100
AcDbLine
 10
17.90603449895087
 20
15.57195223700563
 30
0.0
 11
17.9931196479344
 21
15.57195223700563
 31
0.0
  0
ARC
  5
7C7
330
1F
100
AcDbEntity
  8
OBJECT1
100
AcDbCircle
 10
-41.2421960580599
 20
3.016680792723349
 30
0.0
 40
60.46609106430003
100
AcDbArc
 50
11.97971000000413
 51
11.9841730000017
  0
LINE
  5
7C8
330
1F
100
AcDbEntity
  8
OBJECT1
100
AcDbLine
 10
17.90603449895087
 20
15.60356053070155
 30
0.0
 11
17.96804449545345
 21
15.60356930590796
 31
0.0
  0
ARC
  5
7C9
330
1F
100
AcDbEntity
  8
OBJECT1
100
AcDbCircle
 10
17.9060257237445
 20
15.56584908090744
 30
0.0
 40
0.0377114497940813
100
AcDbArc
 50
89.98728199999911
 51
180.0158999999999
  0
LINE
  5
7CA
330
1F
100
AcDbEntity
  8
OBJECT1
100
AcDbLine
 10
17.96804449545345
 20
15.60356930590796
 30
0.0
 11
17.94403553055843
 21
15.61011122232957
 31
0.0
  0
LINE
  5
7CB
330
1F
100
AcDbEntity
  8
OBJECT1
100
AcDbLine
 10
17.91574426490717
 20
15.54053699785197
 30
0.0
 11
17.94733500819018
 21
15.54800908615905
 31
0.0
  0
LINE
  5
7CC
330
1F
100
AcDbEntity
  8
OBJECT1
100
AcDbLine
 10
17.9931196479344
 20
15.54800908615905
 30
0.0
 11
17.94733500819018
 21
15.54800908615905
 31
0.0
  0
LINE
  5
7CD
330
1F
100
AcDbEntity
  8
OBJECT1
100
AcDbLine
 10
17.9931196479344
 20
15.57195223700563
 30
0.0
 11
17.9931196479344
 21
15.54800908615905
 31
0.0
  0
LINE
  5
7CE
330
1F
100
AcDbEntity
  8
OBJECT2
100
AcDbLine
 10
17.9931196479344
 20
15.69059302844621
 30
0.0
 11
17.9931196479344
 21
15.61077813802106
 31
0.0
  0
LINE
  5
7CF
330
1F
100
AcDbEntity
  8
OBJECT2
100
AcDbLine
 10
18.10623205930039
 20
15.69062812927207
 30
0.0
 11
18.10623205930039
 21
15.61076497521135
 31
0.0
  0
LINE
  5
7D0
330
1F
100
AcDbEntity
  8
OBJECT1
100
AcDbLine
 10
17.94403553055843
 20
15.6913082077733
 30
0.0
 11
17.94403553055843
 21
15.61011122232957
 31
0.0
  0
LINE
  5
7D1
330
1F
100
AcDbEntity
  8
OBJECT1
100
AcDbLine
 10
18.21397843191164
 20
15.68067265753474
 30
0.0
 11
18.22012107643899
 21
15.69382230442627
 31
0.0
  0
ARC
  5
7D2
330
1F
100
AcDbEntity
  8
OBJECT1
100
AcDbCircle
 10
18.2208889070049
 20
15.67750919560319
 30
0.0
 40
0.007599328800855
100
AcDbArc
 50
155.424225000002
 51
244.7115780000066
  0
LINE
  5
7D3
330
1F
100
AcDbEntity
  8
OBJECT1
100
AcDbLine
 10
18.15526352543759
 20
15.6913082077733
 30
0.0
 11
18.13134670021042
 21
15.69782379857547
 31
0.0
  0
LINE
  5
7D4
330
1F
100
AcDbEntity
  8
OBJECT2
100
AcDbLine
 10
18.12038646733253
 20
15.54055016066166
 30
0.0
 11
18.12035575410988
 21
15.51973098331757
 31
0.0
  0
LINE
  5
7D5
330
1F
100
AcDbEntity
  8
OBJECT1
100
AcDbLine
 10
18.18353285307273
 20
15.54055016066166
 30
0.0
 11
18.18358111670829
 21
15.51974853373045
 31
0.0
  0
LINE
  5
7D6
330
1F
100
AcDbEntity
  8
OBJECT1
100
AcDbLine
 10
18.18358111670829
 20
15.50089500263503
 30
0.0
 11
18.18358111670829
 21
15.3754797518015
 31
0.0
  0
LINE
  5
7D7
330
1F
100
AcDbEntity
  8
OBJECT1
100
AcDbLine
 10
18.14395667190422
 20
15.50089500263503
 30
0.0
 11
18.18358111670829
 21
15.50089500263503
 31
0.0
  0
LINE
  5
7D8
330
1F
100
AcDbEntity
  8
OBJECT1
100
AcDbLine
 10
18.14393034628489
 20
15.51973098331757
 30
0.0
 11
18.14393034628489
 21
15.50089500263503
 31
0.0
  0
LINE
  5
7D9
330
1F
100
AcDbEntity
  8
OBJECT1
100
AcDbLine
 10
18.18358111670829
 20
15.51974853373045
 30
0.0
 11
18.14393034628489
 21
15.51973098331757
 31
0.0
  0
LINE
  5
7DA
330
1F
100
AcDbEntity
  8
OBJECT2
100
AcDbLine
 10
18.12038646733253
 20
15.54055016066166
 30
0.0
 11
18.15194649739288
 21
15.54800031095254
 31
0.0
  0
ARC
  5
7DB
330
1F
100
AcDbEntity
  8
OBJECT1
100
AcDbCircle
 10
18.17475325900193
 20
15.62184806097981
 30
0.0
 40
0.049895823974205
100
AcDbArc
 50
270.0
 51
335.1769409999991
  0
ARC
  5
7DC
330
1F
100
AcDbEntity
  8
OBJECT1
100
AcDbCircle
 10
18.17474448379539
 20
15.62183928577339
 30
0.0
 40
0.0182919178815038
100
AcDbArc
 50
270.0262149999964
 51
335.5218810000036
  0
LINE
  5
7DD
330
1F
100
AcDbEntity
  8
OBJECT1
100
AcDbLine
 10
18.13122823492307
 20
15.60355175549512
 30
0.0
 11
18.17475325900193
 21
15.60355175549512
 31
0.0
  0
LINE
  5
7DE
330
1F
100
AcDbEntity
  8
OBJECT1
100
AcDbLine
 10
18.13122823492307
 20
15.60355175549512
 30
0.0
 11
18.15526352543759
 21
15.61011122232957
 31
0.0
  0
LINE
  5
7DF
330
1F
100
AcDbEntity
  8
OBJECT1
100
AcDbLine
 10
18.18353285307273
 20
15.54055016066166
 30
0.0
 11
18.15194649739288
 21
15.54800031095254
 31
0.0
  0
LINE
  5
7E0
330
1F
100
AcDbEntity
  8
OBJECT1
100
AcDbLine
 10
18.19139543806761
 20
15.61426189498871
 30
0.0
 11
18.21767718143775
 21
15.67061627092295
 31
0.0
  0
LINE
  5
7E1
330
1F
100
AcDbEntity
  8
OBJECT1
100
AcDbLine
 10
18.15526352543759
 20
15.61011122232957
 30
0.0
 11
18.15526352543759
 21
15.6913082077733
 31
0.0
  0
LINE
  5
7E2
330
1F
100
AcDbEntity
  8
OBJECT2
100
AcDbLine
 10
17.9553423840918
 20
15.50089500263503
 30
0.0
 11
18.14395667190422
 21
15.50089500263503
 31
0.0
  0
LINE
  5
7E3
330
1F
100
AcDbEntity
  8
OBJECT2
100
AcDbLine
 10
18.14393034628489
 20
15.51973098331757
 30
0.0
 11
17.95536432210804
 21
15.51973098331757
 31
0.0
  0
LINE
  5
7E4
330
1F
100
AcDbEntity
  8
OBJECT2
100
AcDbLine
 10
17.96804449545345
 20
15.60356930590796
 30
0.0
 11
18.13122823492307
 21
15.60355175549512
 31
0.0
  0
LINE
  5
7E5
330
1F
100
AcDbEntity
  8
OBJECT2
100
AcDbLine
 10
18.13122823492307
 20
15.60355175549512
 30
0.0
 11
18.10623205930039
 21
15.61076497521135
 31
0.0
  0
LINE
  5
7E6
330
1F
100
AcDbEntity
  8
OBJECT2
100
AcDbLine
 10
18.12038646733253
 20
15.54055016066166
 30
0.0
 11
18.04965830320452
 21
15.54800031095254
 31
0.0
  0
LINE
  5
7E7
330
1F
100
AcDbEntity
  8
OBJECT2
100
AcDbLine
 10
18.13134670021042
 20
15.69782379857547
 30
0.0
 11
18.10623205930039
 21
15.69062812927207
 31
0.0
  0
LINE
  5
7E8
330
1F
100
AcDbEntity
  8
OBJECT1
100
AcDbLine
 10
18.10623205930039
 20
15.57195223700563
 30
0.0
 11
18.17475325900193
 21
15.57195223700563
 31
0.0
  0
LINE
  5
7E9
330
1F
100
AcDbEntity
  8
OBJECT1
100
AcDbLine
 10
18.10623205930039
 20
15.54800031095254
 30
0.0
 11
18.15194649739288
 21
15.54800031095254
 31
0.0
  0
LINE
  5
7EA
330
1F
100
AcDbEntity
  8
OBJECT1
100
AcDbLine
 10
18.13132037459115
 20
15.69787206221104
 30
0.0
 11
17.96795235578565
 21
15.69782379857547
 31
0.0
  0
LINE
  5
7EB
330
1F
100
AcDbEntity
  8
OBJECT2
100
AcDbLine
 10
17.70295428327676
 20
15.34337565894019
 30
0.0
 11
17.70295428327676
 21
15.10206625629038
 31
0.0
  0
LINE
  5
7EC
330
1F
100
AcDbEntity
  8
OBJECT2
100
AcDbLine
 10
17.78752972321063
 20
15.34337565894019
 30
0.0
 11
17.78752972321063
 21
15.10206625629038
 31
0.0
  0
LINE
  5
7ED
330
1F
100
AcDbEntity
  8
OBJECT2
100
AcDbLine
 10
17.80418506508596
 20
15.30315450009641
 30
0.0
 11
17.78752972321063
 21
15.34337565894019
 31
0.0
  0
LINE
  5
7EE
330
1F
100
AcDbEntity
  8
OBJECT2
100
AcDbLine
 10
17.80418506508596
 20
15.14228302753096
 30
0.0
 11
17.78752972321063
 21
15.10206625629038
 31
0.0
  0
LINE
  5
7EF
330
1F
100
AcDbEntity
  8
OBJECT2
100
AcDbLine
 10
17.80418506508596
 20
15.14228302753096
 30
0.0
 11
17.84411225451293
 21
15.14228302753096
 31
0.0
  0
LINE
  5
7F0
330
1F
100
AcDbEntity
  8
OBJECT2
100
AcDbLine
 10
17.80418506508596
 20
15.14228302753096
 30
0.0
 11
17.78752972321063
 21
15.20623673226613
 31
0.0
  0
LINE
  5
7F1
330
1F
100
AcDbEntity
  8
OBJECT2
100
AcDbLine
 10
17.80418506508596
 20
15.30315450009641
 30
0.0
 11
17.84411225451293
 21
15.30315450009641
 31
0.0
  0
LINE
  5
7F2
330
1F
100
AcDbEntity
  8
OBJECT2
100
AcDbLine
 10
17.80418506508596
 20
15.30315450009641
 30
0.0
 11
17.78752972321063
 21
15.23920079536122
 31
0.0
  0
LINE
  5
7F3
330
1F
100
AcDbEntity
  8
OBJECT1
100
AcDbLine
 10
17.78752972321063
 20
15.10206625629038
 30
0.0
 11
17.70295428327676
 21
15.10206625629038
 31
0.0
  0
LINE
  5
7F4
330
1F
100
AcDbEntity
  8
OBJECT1
100
AcDbLine
 10
17.78752972321063
 20
15.34337565894019
 30
0.0
 11
17.70295428327676
 21
15.34337565894019
 31
0.0
  0
LINE
  5
7F5
330
1F
100
AcDbEntity
  8
OBJECT1
100
AcDbLine
 10
17.6896159694462
 20
15.02846859964746
 30
0.0
 11
17.70295428327676
 21
15.04180691347812
 31
0.0
  0
LINE
  5
7F6
330
1F
100
AcDbEntity
  8
OBJECT1
100
AcDbLine
 10
17.84411225451293
 20
15.04548811259115
 30
0.0
 11
17.84411225451293
 21
15.0618450974466
 31
0.0
  0
LINE
  5
7F7
330
1F
100
AcDbEntity
  8
OBJECT1
100
AcDbLine
 10
17.84411225451293
 20
15.0618450974466
 30
0.0
 11
17.80418506508596
 21
15.0618450974466
 31
0.0
  0
LINE
  5
7F8
330
1F
100
AcDbEntity
  8
OBJECT1
100
AcDbLine
 10
17.87239913256098
 20
15.04548811259115
 30
0.0
 11
17.84411225451293
 21
15.04548811259115
 31
0.0
  0
LINE
  5
7F9
330
1F
100
AcDbEntity
  8
OBJECT1
100
AcDbLine
 10
17.87239913256098
 20
15.04548811259115
 30
0.0
 11
17.84411225451293
 21
15.04548811259115
 31
0.0
  0
LINE
  5
7FA
330
1F
100
AcDbEntity
  8
OBJECT1
100
AcDbLine
 10
17.99498437930873
 20
15.04548811259115
 30
0.0
 11
17.87239913256098
 21
15.04548811259115
 31
0.0
  0
LINE
  5
7FB
330
1F
100
AcDbEntity
  8
OBJECT1
100
AcDbLine
 10
17.99498437930873
 20
15.05770319999396
 30
0.0
 11
17.99498437930873
 21
15.04548811259115
 31
0.0
  0
ARC
  5
7FC
330
1F
100
AcDbEntity
  8
OBJECT2
100
AcDbCircle
 10
17.67830034070641
 20
15.090702363915
 30
0.0
 40
0.0113156287398413
100
AcDbArc
 50
269.9788209999995
 51
0.0211890000021817
  0
LINE
  5
7FD
330
1F
100
AcDbEntity
  8
OBJECT1
100
AcDbLine
 10
17.70295428327676
 20
15.10206625629038
 30
0.0
 11
17.70295428327676
 21
15.04180691347812
 31
0.0
  0
LINE
  5
7FE
330
1F
100
AcDbEntity
  8
OBJECT1
100
AcDbLine
 10
17.80418506508596
 20
15.0618450974466
 30
0.0
 11
17.78752972321063
 21
15.10206625629038
 31
0.0
  0
LINE
  5
7FF
330
1F
100
AcDbEntity
  8
OBJECT2
100
AcDbLine
 10
15.81279674819347
 20
14.79105100106602
 30
0.0
 11
15.80417072023584
 21
14.76906910886495
 31
0.0
  0
LINE
  5
800
330
1F
100
AcDbEntity
  8
OBJECT2
100
AcDbLine
 10
15.81279674819347
 20
14.79105100106602
 30
0.0
 11
15.84479992618042
 21
14.79105100106602
 31
0.0
  0
LINE
  5
801
330
1F
100
AcDbEntity
  8
OBJECT2
100
AcDbLine
 10
15.80417072023584
 20
14.807399210715
 30
0.0
 11
15.81279674819347
 21
14.79105100106602
 31
0.0
  0
LINE
  5
802
330
1F
100
AcDbEntity
  8
OBJECT1
100
AcDbLine
 10
15.84479992618042
 20
14.82304540384655
 30
0.0
 11
15.84479992618042
 21
14.87382313607065
 31
0.0
  0
LINE
  5
803
330
1F
100
AcDbEntity
  8
OBJECT1
100
AcDbLine
 10
15.81279674819347
 20
14.82304540384655
 30
0.0
 11
15.80417072023584
 21
14.807399210715
 31
0.0
  0
LINE
  5
804
330
1F
100
AcDbEntity
  8
OBJECT1
100
AcDbLine
 10
15.81279674819347
 20
14.82304540384655
 30
0.0
 11
15.84479992618042
 21
14.82304540384655
 31
0.0
  0
LINE
  5
805
330
1F
100
AcDbEntity
  8
OBJECT1
100
AcDbLine
 10
15.69015007500047
 20
14.29012711507523
 30
0.0
 11
15.83348868504379
 21
14.29012711507523
 31
0.0
  0
LINE
  5
806
330
1F
100
AcDbEntity
  8
OBJECT1
100
AcDbLine
 10
15.69015007500047
 20
14.53717989035808
 30
0.0
 11
15.81462199113866
 21
14.53717989035808
 31
0.0
  0
LINE
  5
807
330
1F
100
AcDbEntity
  8
OBJECT1
100
AcDbLine
 10
15.82593761987857
 20
14.54849551909788
 30
0.0
 11
15.82593761987857
 21
14.70456695372556
 31
0.0
  0
ARC
  5
808
330
1F
100
AcDbEntity
  8
OBJECT2
100
AcDbCircle
 10
15.83348429744057
 20
14.54849990670106
 30
0.0
 40
0.011320016343075
100
AcDbArc
 50
270.0211790000005
 51
359.9788209999994
  0
LINE
  5
809
330
1F
100
AcDbEntity
  8
OBJECT2
100
AcDbLine
 10
15.81462199113866
 20
14.53717989035808
 30
0.0
 11
15.83348868504379
 21
14.53717989035808
 31
0.0
  0
ARC
  5
80A
330
1F
100
AcDbEntity
  8
OBJECT1
100
AcDbCircle
 10
15.8146307663452
 20
14.54848674389137
 30
0.0
 40
0.0113068535333738
100
AcDbArc
 50
269.9575810000057
 51
0.0477109999991606
  0
LINE
  5
80B
330
1F
100
AcDbEntity
  8
OBJECT2
100
AcDbLine
 10
15.81279674819347
 20
14.73655258129966
 30
0.0
 11
15.80417072023584
 21
14.75853447350068
 31
0.0
  0
LINE
  5
80C
330
1F
100
AcDbEntity
  8
OBJECT2
100
AcDbLine
 10
15.80417072023584
 20
14.72020875925385
 30
0.0
 11
15.81279674819347
 21
14.73655258129966
 31
0.0
  0
LINE
  5
80D
330
1F
100
AcDbEntity
  8
OBJECT2
100
AcDbLine
 10
15.82593761987857
 20
14.70456695372556
 30
0.0
 11
15.84479992618042
 21
14.70456695372556
 31
0.0
  0
LINE
  5
80E
330
1F
100
AcDbEntity
  8
OBJECT2
100
AcDbLine
 10
15.81279674819347
 20
14.73655258129966
 30
0.0
 11
15.84479992618042
 21
14.73655258129966
 31
0.0
  0
LINE
  5
80F
330
1F
100
AcDbEntity
  8
OBJECT1
100
AcDbLine
 10
15.81279674819347
 20
14.70456695372556
 30
0.0
 11
15.80417072023584
 21
14.72020875925385
 31
0.0
  0
LINE
  5
810
330
1F
100
AcDbEntity
  8
OBJECT1
100
AcDbLine
 10
15.81279674819347
 20
14.70456695372556
 30
0.0
 11
15.82593761987857
 21
14.70456695372556
 31
0.0
  0
ARC
  5
811
330
1F
100
AcDbEntity
  8
OBJECT1
100
AcDbCircle
 10
15.83348429744057
 20
14.27880709873221
 30
0.0
 40
0.011320016343075
100
AcDbArc
 50
0.0105910000006421
 51
89.97882099999952
  0
LINE
  5
812
330
1F
100
AcDbEntity
  8
OBJECT2
100
AcDbLine
 10
15.81279674819347
 20
14.03625600436726
 30
0.0
 11
15.84479992618042
 21
14.03625600436726
 31
0.0
  0
LINE
  5
813
330
1F
100
AcDbEntity
  8
OBJECT2
100
AcDbLine
 10
15.81279674819347
 20
14.09075003653043
 30
0.0
 11
15.84479992618042
 21
14.09075003653043
 31
0.0
  0
LINE
  5
814
330
1F
100
AcDbEntity
  8
OBJECT2
100
AcDbLine
 10
15.84479992618042
 20
14.00426598918996
 30
0.0
 11
15.84479992618042
 21
14.12274443931095
 31
0.0
  0
LINE
  5
815
330
1F
100
AcDbEntity
  8
OBJECT2
100
AcDbLine
 10
15.80417072023584
 20
14.01990340711511
 30
0.0
 11
15.81279674819347
 21
14.03625600436726
 31
0.0
  0
LINE
  5
816
330
1F
100
AcDbEntity
  8
OBJECT2
100
AcDbLine
 10
15.81279674819347
 20
14.03625600436726
 30
0.0
 11
15.80417072023584
 21
14.05823789656835
 31
0.0
  0
LINE
  5
817
330
1F
100
AcDbEntity
  8
OBJECT2
100
AcDbLine
 10
15.80417072023584
 20
14.10710263378257
 30
0.0
 11
15.81279674819347
 21
14.09075003653043
 31
0.0
  0
LINE
  5
818
330
1F
100
AcDbEntity
  8
OBJECT2
100
AcDbLine
 10
15.81279674819347
 20
14.09075003653043
 30
0.0
 11
15.80417072023584
 21
14.06877253193263
 31
0.0
  0
LINE
  5
819
330
1F
100
AcDbEntity
  8
OBJECT1
100
AcDbLine
 10
15.80417072023584
 20
14.10710263378257
 30
0.0
 11
15.80417072023584
 21
14.01990340711511
 31
0.0
  0
LINE
  5
81A
330
1F
100
AcDbEntity
  8
OBJECT1
100
AcDbLine
 10
15.81279674819347
 20
14.12274443931095
 30
0.0
 11
15.80417072023584
 21
14.10710263378257
 31
0.0
  0
LINE
  5
81B
330
1F
100
AcDbEntity
  8
OBJECT1
100
AcDbLine
 10
15.81279674819347
 20
14.00426598918996
 30
0.0
 11
15.80417072023584
 21
14.01990340711511
 31
0.0
  0
LINE
  5
81C
330
1F
100
AcDbEntity
  8
OBJECT1
100
AcDbLine
 10
15.81279674819347
 20
14.12274443931095
 30
0.0
 11
15.84479992618042
 21
14.12274443931095
 31
0.0
  0
LINE
  5
81D
330
1F
100
AcDbEntity
  8
OBJECT1
100
AcDbLine
 10
15.81279674819347
 20
14.00426598918996
 30
0.0
 11
15.84479992618042
 21
14.00426598918996
 31
0.0
  0
LINE
  5
81E
330
1F
100
AcDbEntity
  8
OBJECT1
100
AcDbLine
 10
15.84479992618042
 20
14.12274443931095
 30
0.0
 11
15.84479992618042
 21
14.27880709873221
 31
0.0
  0
ARC
  5
81F
330
1F
100
AcDbEntity
  8
OBJECT1
100
AcDbCircle
 10
15.69015446260368
 20
14.52586426161819
 30
0.0
 40
0.011320016343075
100
AcDbArc
 50
90.04235800000264
 51
179.9682310000028
  0
ARC
  5
820
330
1F
100
AcDbEntity
  8
OBJECT1
100
AcDbCircle
 10
15.69015007500047
 20
14.30144274381511
 30
0.0
 40
0.0113156287398413
100
AcDbArc
 50
180.0264889999996
 51
269.9788209999995
  0
LINE
  5
821
330
1F
100
AcDbEntity
  8
OBJECT1
100
AcDbLine
 10
15.67883883386395
 20
14.30143835621183
 30
0.0
 11
15.67883883386395
 21
14.52586864922142
 31
0.0
  0
LINE
  5
822
330
1F
100
AcDbEntity
  8
OBJECT2
100
AcDbLine
 10
15.84479992618042
 20
14.27880709873221
 30
0.0
 11
15.84479992618042
 21
14.82304540384655
 31
0.0
  0
LINE
  5
823
330
1F
100
AcDbEntity
  8
OBJECT1
100
AcDbLine
 10
15.80417072023584
 20
14.72020875925385
 30
0.0
 11
15.80417072023584
 21
14.807399210715
 31
0.0
  0
LINE
  5
824
330
1F
100
AcDbEntity
  8
OBJECT2
100
AcDbLine
 10
16.34575891299709
 20
14.58364899620664
 30
0.0
 11
16.11524301430228
 21
14.81423070894993
 31
0.0
  0
LINE
  5
825
330
1F
100
AcDbEntity
  8
OBJECT1
100
AcDbLine
 10
16.33072259671502
 20
14.68709113004557
 30
0.0
 11
16.51665167134842
 21
15.00913243219639
 31
0.0
  0
ARC
  5
826
330
1F
100
AcDbEntity
  8
OBJECT1
100
AcDbCircle
 10
16.36339269039353
 20
14.66871146009941
 30
0.0
 40
0.0377246126037825
100
AcDbArc
 50
150.0038599999992
 51
269.9873049999993
  0
ARC
  5
827
330
1F
100
AcDbEntity
  8
OBJECT1
100
AcDbCircle
 10
16.56452042262861
 20
14.55554639749449
 30
0.0
 40
0.0754448376043313
100
AcDbArc
 50
0.0079440000029204
 51
89.99047099999495
  0
LINE
  5
828
330
1F
100
AcDbEntity
  8
OBJECT1
100
AcDbLine
 10
16.56453358543819
 20
14.63099123509889
 30
0.0
 11
16.36338391518705
 21
14.63099123509889
 31
0.0
  0
LINE
  5
829
330
1F
100
AcDbEntity
  8
OBJECT2
100
AcDbLine
 10
16.27234992329317
 20
14.09594934636248
 30
0.0
 11
16.27234992329317
 21
14.16433014276042
 31
0.0
  0
LINE
  5
82A
330
1F
100
AcDbEntity
  8
OBJECT1
100
AcDbLine
 10
16.33816397179941
 20
14.04059973156867
 30
0.0
 11
16.40529430127583
 21
14.04059973156867
 31
0.0
  0
ARC
  5
82B
330
1F
100
AcDbEntity
  8
OBJECT1
100
AcDbCircle
 10
16.40529868887915
 20
14.02480874753044
 30
0.0
 40
0.0157909840382663
100
AcDbArc
 50
359.9886170000002
 51
90.01518200000159
  0
LINE
  5
82C
330
1F
100
AcDbEntity
  8
OBJECT1
100
AcDbLine
 10
16.27234992329317
 20
14.09594934636248
 30
0.0
 11
16.27234992329317
 21
14.04849741738945
 31
0.0
  0
LINE
  5
82D
330
1F
100
AcDbEntity
  8
OBJECT1
100
AcDbLine
 10
16.28024322151071
 20
14.04059973156867
 30
0.0
 11
16.30394066657618
 21
14.04059973156867
 31
0.0
  0
ARC
  5
82E
330
1F
100
AcDbEntity
  8
OBJECT1
100
AcDbCircle
 10
16.28024760911392
 20
14.04850180499265
 30
0.0
 40
0.0079020734239838
100
AcDbArc
 50
180.0075840000024
 51
269.9696660000062
  0
ARC
  5
82F
330
1F
100
AcDbEntity
  8
OBJECT2
100
AcDbCircle
 10
16.28025199671719
 20
14.16432136755398
 30
0.0
 40
0.0079020734239838
100
AcDbArc
 50
90.06065399999442
 51
179.9469149999989
  0
LINE
  5
830
330
1F
100
AcDbEntity
  8
OBJECT1
100
AcDbLine
 10
16.70145751955397
 20
14.04849741738945
 30
0.0
 11
16.70145751955397
 21
14.16433014276042
 31
0.0
  0
LINE
  5
831
330
1F
100
AcDbEntity
  8
OBJECT1
100
AcDbLine
 10
16.63564347104772
 20
14.04059973156867
 30
0.0
 11
16.56851314157137
 21
14.04059973156867
 31
0.0
  0
ARC
  5
832
330
1F
100
AcDbEntity
  8
OBJECT1
100
AcDbCircle
 10
16.56850875396804
 20
14.02480435992714
 30
0.0
 40
0.0157909840382663
100
AcDbArc
 50
89.98482500000195
 51
179.9886170000001
  0
LINE
  5
833
330
1F
100
AcDbEntity
  8
OBJECT1
100
AcDbLine
 10
16.69356422133648
 20
14.04059973156867
 30
0.0
 11
16.66986677627096
 21
14.04059973156867
 31
0.0
  0
ARC
  5
834
330
1F
100
AcDbEntity
  8
OBJECT1
100
AcDbCircle
 10
16.69356422133648
 20
14.04849302978615
 30
0.0
 40
0.00789768582075
100
AcDbArc
 50
270.0
 51
0.0303629999993951
  0
LINE
  5
835
330
1F
100
AcDbEntity
  8
OBJECT1
100
AcDbLine
 10
16.63996964783621
 20
14.17222782858118
 30
0.0
 11
16.69356422133648
 21
14.17222782858118
 31
0.0
  0
ARC
  5
836
330
1F
100
AcDbEntity
  8
OBJECT1
100
AcDbCircle
 10
16.69355983373316
 20
14.16432575515712
 30
0.0
 40
0.0079020734239838
100
AcDbArc
 50
0.0227609999985739
 51
89.96965800000698
  0
ARC
  5
837
330
1F
100
AcDbEntity
  8
OBJECT2
100
AcDbCircle
 10
16.48690372142363
 20
14.27094451373732
 30
0.0
 40
0.164535121265625
100
AcDbArc
 50
216.8690190000033
 51
323.1318360000074
  0
LINE
  5
838
330
1F
100
AcDbEntity
  8
OBJECT2
100
AcDbLine
 10
16.28024322151071
 20
14.17222782858118
 30
0.0
 11
16.63996964783621
 21
14.17222782858118
 31
0.0
  0
LINE
  5
839
330
1F
100
AcDbEntity
  8
OBJECT1
100
AcDbLine
 10
16.63996964783621
 20
14.55555517270093
 30
0.0
 11
16.63996964783621
 21
14.17222782858118
 31
0.0
  0
LINE
  5
83A
330
1F
100
AcDbEntity
  8
OBJECT2
100
AcDbLine
 10
16.34575891299709
 20
14.58364899620664
 30
0.0
 11
16.34575891299709
 21
14.17170131619313
 31
0.0
  0
LINE
  5
83B
330
1F
100
AcDbEntity
  8
OBJECT1
100
AcDbLine
 10
16.42108967291733
 20
14.02480435992714
 30
0.0
 11
16.42108967291733
 21
13.72732486067891
 31
0.0
  0
LINE
  5
83C
330
1F
100
AcDbEntity
  8
OBJECT1
100
AcDbLine
 10
16.20191572858175
 20
13.73373514900339
 30
0.0
 11
16.33816397179941
 21
14.04059973156867
 31
0.0
  0
LINE
  5
83D
330
1F
100
AcDbEntity
  8
OBJECT1
100
AcDbLine
 10
16.15783786649558
 20
13.71152948903746
 30
0.0
 11
16.30394066657618
 21
14.04059973156867
 31
0.0
  0
LINE
  5
83E
330
1F
100
AcDbEntity
  8
OBJECT1
100
AcDbLine
 10
16.55271776992981
 20
14.02480435992714
 30
0.0
 11
16.55271776992981
 21
13.72732486067891
 31
0.0
  0
LINE
  5
83F
330
1F
100
AcDbEntity
  8
OBJECT1
100
AcDbLine
 10
16.77189171426539
 20
13.73373514900339
 30
0.0
 11
16.63564347104772
 21
14.04059973156867
 31
0.0
  0
LINE
  5
840
330
1F
100
AcDbEntity
  8
OBJECT1
100
AcDbLine
 10
16.81597396395488
 20
13.71152948903746
 30
0.0
 11
16.66986677627096
 21
14.04059973156867
 31
0.0
  0
ARC
  5
841
330
1F
100
AcDbEntity
  8
OBJECT1
100
AcDbCircle
 10
16.69478836263869
 20
13.71152510143416
 30
0.0
 40
0.5369504961430913
100
AcDbArc
 50
179.9995569999971
 51
213.2560880000013
  0
ARC
  5
842
330
1F
100
AcDbEntity
  8
OBJECT1
100
AcDbCircle
 10
16.27906295624086
 20
13.71152071383096
 30
0.0
 40
0.5369153953172213
100
AcDbArc
 50
326.7419429999991
 51
0.0010049999969773
  0
ARC
  5
843
330
1F
100
AcDbEntity
  8
OBJECT1
100
AcDbCircle
 10
16.19081070479717
 20
13.38100256223262
 30
0.0
 40
0.06574384685451
100
AcDbArc
 50
359.9799500000025
 51
33.27412800000178
  0
ARC
  5
844
330
1F
100
AcDbEntity
  8
OBJECT1
100
AcDbCircle
 10
16.26445223747248
 20
13.25873322291764
 30
0.0
 40
0.0079020734239838
100
AcDbArc
 50
180.0227659999994
 51
270.0
  0
LINE
  5
845
330
1F
100
AcDbEntity
  8
OBJECT1
100
AcDbLine
 10
16.32116200926873
 20
13.25083114949364
 30
0.0
 11
16.26445223747248
 21
13.25083114949364
 31
0.0
  0
LINE
  5
846
330
1F
100
AcDbEntity
  8
OBJECT1
100
AcDbLine
 10
16.25655455165173
 20
13.25872883531443
 30
0.0
 11
16.25655455165173
 21
13.38105082586813
 31
0.0
  0
ARC
  5
847
330
1F
100
AcDbEntity
  8
OBJECT1
100
AcDbCircle
 10
16.78299673804997
 20
13.38100256223262
 30
0.0
 40
0.06574384685451
100
AcDbArc
 50
146.7251129999986
 51
180.0191499999975
  0
ARC
  5
848
330
1F
100
AcDbEntity
  8
OBJECT1
100
AcDbCircle
 10
16.70935520537466
 20
13.25873322291764
 30
0.0
 40
0.0079020734239838
100
AcDbArc
 50
270.0
 51
359.9772340000005
  0
LINE
  5
849
330
1F
100
AcDbEntity
  8
OBJECT1
100
AcDbLine
 10
16.65264104597531
 20
13.25083114949364
 30
0.0
 11
16.70935520537466
 21
13.25083114949364
 31
0.0
  0
LINE
  5
84A
330
1F
100
AcDbEntity
  8
OBJECT1
100
AcDbLine
 10
16.71725289119547
 20
13.25872883531443
 30
0.0
 11
16.71725289119547
 21
13.38098062421639
 31
0.0
  0
LINE
  5
84B
330
1F
100
AcDbEntity
  8
OBJECT2
100
AcDbLine
 10
16.32116200926873
 20
13.25083114949364
 30
0.0
 11
16.65264104597531
 21
13.25083114949364
 31
0.0
  0
LINE
  5
84C
330
1F
100
AcDbEntity
  8
OBJECT2
100
AcDbLine
 10
16.71725289119547
 20
13.38098062421639
 30
0.0
 11
16.25655455165173
 21
13.38105082586813
 31
0.0
  0
ARC
  5
84D
330
1F
100
AcDbEntity
  8
OBJECT1
100
AcDbCircle
 10
16.40529868887915
 20
13.72732047307572
 30
0.0
 40
0.0157909840382663
100
AcDbArc
 50
269.9848330000004
 51
0.0151820000016155
  0
LINE
  5
84E
330
1F
100
AcDbEntity
  8
OBJECT1
100
AcDbLine
 10
16.40529430127583
 20
13.71152948903746
 30
0.0
 11
16.21635094322084
 21
13.71152948903746
 31
0.0
  0
ARC
  5
84F
330
1F
100
AcDbEntity
  8
OBJECT1
100
AcDbCircle
 10
16.21634655561757
 20
13.72732486067891
 30
0.0
 40
0.0157953716415
100
AcDbArc
 50
156.0463710000027
 51
270.0151979999986
  0
ARC
  5
850
330
1F
100
AcDbEntity
  8
OBJECT1
100
AcDbCircle
 10
16.7574564996263
 20
13.72732486067891
 30
0.0
 40
0.0157953716415
100
AcDbArc
 50
270.0
 51
23.94746199999436
  0
ARC
  5
851
330
1F
100
AcDbEntity
  8
OBJECT1
100
AcDbCircle
 10
16.56851752917464
 20
13.72732924828213
 30
0.0
 40
0.0157997592447338
100
AcDbArc
 50
180.0151669999996
 51
269.9848330000004
  0
LINE
  5
852
330
1F
100
AcDbEntity
  8
OBJECT1
100
AcDbLine
 10
16.56851314157137
 20
13.71152948903746
 30
0.0
 11
16.7574564996263
 21
13.71152948903746
 31
0.0
  0
LINE
  5
853
330
1F
100
AcDbEntity
  8
OBJECT1
100
AcDbLine
 10
16.10392738556248
 20
13.94216824062276
 30
0.0
 11
15.85611555492028
 21
13.94216824062276
 31
0.0
  0
LINE
  5
854
330
1F
100
AcDbEntity
  8
OBJECT1
100
AcDbLine
 10
15.84479992618042
 20
14.00426598918996
 30
0.0
 11
15.84479992618042
 21
13.95348386936255
 31
0.0
  0
ARC
  5
855
330
1F
100
AcDbEntity
  8
OBJECT1
100
AcDbCircle
 10
15.85611994252355
 20
13.95348825696577
 30
0.0
 40
0.011320016343075
100
AcDbArc
 50
180.0158840000029
 51
269.9788209999995
  0
LINE
  5
856
330
1F
100
AcDbEntity
  8
OBJECT2
100
AcDbLine
 10
15.97681851988068
 20
14.88513437720733
 30
0.0
 11
15.97681851988068
 21
13.94216824062276
 31
0.0
  0
LINE
  5
857
330
1F
100
AcDbEntity
  8
OBJECT2
100
AcDbLine
 10
16.11524301430228
 20
14.87382313607065
 30
0.0
 11
16.11524301430228
 21
13.96846314680253
 31
0.0
  0
LINE
  5
858
330
1F
100
AcDbEntity
  8
OBJECT1
100
AcDbLine
 10
16.11524301430228
 20
13.95348386936255
 30
0.0
 11
16.11524301430228
 21
13.96846314680253
 31
0.0
  0
LINE
  5
859
330
1F
100
AcDbEntity
  8
OBJECT1
100
AcDbLine
 10
16.27234992329317
 20
14.09594934636248
 30
0.0
 11
16.11524301430228
 21
13.96846314680253
 31
0.0
  0
ARC
  5
85A
330
1F
100
AcDbEntity
  8
OBJECT1
100
AcDbCircle
 10
16.10392738556248
 20
13.95348386936255
 30
0.0
 40
0.0113156287398413
100
AcDbArc
 50
270.0
 51
359.9946899999986
  0
LINE
  5
85B
330
1F
100
AcDbEntity
  8
TEXT
100
AcDbLine
 10
19.14629802137346
 20
14.04845832256845
 30
0.0
 11
16.85367798593694
 21
14.04845832256845
 31
0.0
  0
LINE
  5
85C
330
1F
100
AcDbEntity
  8
TEXT
100
AcDbLine
 10
18.8585607982655
 20
13.13616772291084
 30
0.0
 11
18.8585607982655
 21
14.02240111640759
 31
0.0
  0
SOLID
  5
85D
330
1F
100
AcDbEntity
  8
TEXT
100
AcDbTrace
 10
18.79990812410289
 20
13.67048507143178
 30
0.0
 11
18.91721347242816
 21
13.67048507143178
 31
0.0
 12
18.8585607982655
 22
14.02240111640759
 32
0.0
 13
18.8585607982655
 23
14.02240111640759
 33
0.0
  0
ARC
  5
85E
330
1F
100
AcDbEntity
  8
OBJECT2
100
AcDbCircle
 10
8.266060522110251
 20
18.87736205678109
 30
0.0
 40
0.6205534294226436
100
AcDbArc
 50
355.0796951004375
 51
66.01100297814436
  0
ARC
  5
85F
330
1F
100
AcDbEntity
  8
OBJECT2
100
AcDbCircle
 10
7.682463125034871
 20
18.89980093864659
 30
0.0
 40
0.9976008471305872
100
AcDbArc
 50
1.87283671545835
 51
33.08091279288066
  0
ARC
  5
860
330
1F
100
AcDbEntity
  8
OBJECT2
100
AcDbCircle
 10
7.787433367994651
 20
18.08709820271568
 30
0.0
 40
0.9286261655871916
100
AcDbArc
 50
52.53146195269237
 51
80.88566672240739
  0
ARC
  5
861
330
1F
100
AcDbEntity
  8
OBJECT2
100
AcDbCircle
 10
8.1057979995673
 20
18.44028519159826
 30
0.0
 40
0.589156993813932
100
AcDbArc
 50
44.07042786522107
 51
106.8996241576217
  0
ARC
  5
862
330
1F
100
AcDbEntity
  8
OBJECT2
100
AcDbCircle
 10
8.133591650320965
 20
18.54988992536016
 30
0.0
 40
0.6666084158439394
100
AcDbArc
 50
35.01711252290246
 51
93.5661262630122
  0
ARC
  5
863
330
1F
100
AcDbEntity
  8
OBJECT2
100
AcDbCircle
 10
8.015304557946706
 20
18.67923491280277
 30
0.0
 40
0.5414504386844201
100
AcDbArc
 50
18.39168483556604
 51
81.84305771154495
  0
ARC
  5
864
330
1F
100
AcDbEntity
  8
OBJECT2
100
AcDbCircle
 10
8.178631828601567
 20
17.63470033321562
 30
0.0
 40
1.278447527545438
100
AcDbArc
 50
97.97225468129431
 51
111.5065032217943
  0
ARC
  5
865
330
1F
100
AcDbEntity
  8
OBJECT2
100
AcDbCircle
 10
7.849281778662032
 20
18.50400381277808
 30
0.0
 40
0.4249192756944369
100
AcDbArc
 50
69.0346346007299
 51
131.1144055157112
  0
ARC
  5
866
330
1F
100
AcDbEntity
  8
OBJECT2
100
AcDbCircle
 10
8.791907013620345
 20
18.05744702136351
 30
0.0
 40
1.442632520985176
100
AcDbArc
 50
133.3987203877707
 51
147.896376332228
  0
LINE
  5
867
330
1F
100
AcDbEntity
  8
OBJECT2
100
AcDbLine
 10
8.312974568782294
 20
19.89003774562596
 30
0.0
 11
10.03256608492137
 21
19.89003774562596
 31
0.0
  0
LINE
  5
868
330
1F
100
AcDbEntity
  8
OBJECT2
100
AcDbLine
 10
10.42498240678952
 20
19.46508587890349
 30
0.0
 11
10.42498240678952
 21
19.89003774562596
 31
0.0
  0
LINE
  5
869
330
1F
100
AcDbEntity
  8
OBJECT2
100
AcDbLine
 10
10.22877424585544
 20
19.46508587890349
 30
0.0
 11
10.22877424585544
 21
20.31498961234839
 31
0.0
  0
LINE
  5
86A
330
1F
100
AcDbEntity
  8
OBJECT2
100
AcDbLine
 10
10.22877424585544
 20
19.46508587890349
 30
0.0
 11
10.42498240678952
 21
19.46508587890349
 31
0.0
  0
LINE
  5
86B
330
1F
100
AcDbEntity
  8
OBJECT2
100
AcDbLine
 10
10.22877424585544
 20
20.31498961234839
 30
0.0
 11
10.03256608492137
 21
20.31498961234839
 31
0.0
  0
LINE
  5
86C
330
1F
100
AcDbEntity
  8
OBJECT2
100
AcDbLine
 10
10.42498240678952
 20
19.89003774562596
 30
0.0
 11
12.11739312557603
 21
19.89003774562596
 31
0.0
  0
LINE
  5
86D
330
1F
100
AcDbEntity
  8
OBJECT2
100
AcDbLine
 10
10.03256608492137
 20
20.31498961234839
 30
0.0
 11
10.03256608492137
 21
19.89003774562596
 31
0.0
  0
LINE
  5
86E
330
1F
100
AcDbEntity
  8
OBJECT1
100
AcDbLine
 10
8.884327189153111
 20
19.89003774562596
 30
0.0
 11
8.884327189153111
 21
18.38454186132702
 31
0.0
  0
LINE
  5
86F
330
1F
100
AcDbEntity
  8
OBJECT2
100
AcDbLine
 10
11.16973767063637
 20
18.38454186132702
 30
0.0
 11
8.884327189153111
 21
18.38454186132702
 31
0.0
  0
LINE
  5
870
330
1F
100
AcDbEntity
  8
OBJECT2
100
AcDbLine
 10
11.16973767063637
 20
16.57473606980889
 30
0.0
 11
8.884327189153111
 21
16.57473606980889
 31
0.0
  0
LINE
  5
871
330
1F
100
AcDbEntity
  8
OBJECT2
100
AcDbLine
 10
11.16973767063637
 20
16.72689102341848
 30
0.0
 11
8.884327189153111
 21
16.72689102341848
 31
0.0
  0
LINE
  5
872
330
1F
100
AcDbEntity
  8
OBJECT2
100
AcDbLine
 10
11.16973767063637
 20
13.41158934760142
 30
0.0
 11
8.884327189153111
 21
13.41158934760142
 31
0.0
  0
LINE
  5
873
330
1F
100
AcDbEntity
  8
OBJECT2
100
AcDbLine
 10
11.16973767063637
 20
13.25943439399182
 30
0.0
 11
8.884327189153111
 21
13.25943439399182
 31
0.0
  0
LINE
  5
874
330
1F
100
AcDbEntity
  8
OBJECT2
100
AcDbLine
 10
11.16973767063637
 20
18.23238690771742
 30
0.0
 11
8.884327189153111
 21
18.23238690771742
 31
0.0
  0
LINE
  5
875
330
1F
100
AcDbEntity
  8
OBJECT2
100
AcDbLine
 10
9.059930622240926
 20
13.25943439399182
 30
0.0
 11
9.059930622240926
 21
13.41158934760142
 31
0.0
  0
LINE
  5
876
330
1F
100
AcDbEntity
  8
OBJECT1
100
AcDbLine
 10
8.884327189153111
 20
18.23238690771742
 30
0.0
 11
8.884327189153111
 21
16.72689102341848
 31
0.0
  0
LINE
  5
877
330
1F
100
AcDbEntity
  8
OBJECT2
100
AcDbLine
 10
9.059930622240926
 20
16.57473606980889
 30
0.0
 11
9.059930622240926
 21
16.72689102341848
 31
0.0
  0
LINE
  5
878
330
1F
100
AcDbEntity
  8
OBJECT2
100
AcDbLine
 10
9.059930622240926
 20
18.23238690771742
 30
0.0
 11
9.059930622240926
 21
18.38454186132702
 31
0.0
  0
ELLIPSE
  5
879
330
1F
100
AcDbEntity
  8
OBJECT1
100
AcDbEllipse
 10
20.54827428408714
 20
15.15236470987693
 30
0.0
 11
0.0
 21
-0.0595659891706113
 31
0.0
210
0.0
220
0.0
230
-1.0
 40
0.6778715586621486
 41
0.0
 42
6.283185307179586
  0
ELLIPSE
  5
87A
330
1F
100
AcDbEntity
  8
OBJECT1
100
AcDbEllipse
 10
20.54827428408714
 20
15.27149668821818
 30
0.0
 11
0.0
 21
-0.0595659891706077
 31
0.0
210
0.0
220
0.0
230
-1.0
 40
0.6778715586623083
 41
3.141592653589793
 42
6.283185307179586
  0
TEXT
  5
880
330
1F
100
AcDbEntity
  8
TEXT
100
AcDbText
 10
13.58109728284355
 20
13.31996335799047
 30
0.0
 40
0.35191604497582
  1
AIR GAP
  7
ROMANS
 72
     1
 11
14.63684541777101
 21
13.49592138047838
 31
0.0
100
AcDbText
 73
     2
  0
TEXT
  5
881
330
1F
100
AcDbEntity
  8
TEXT
100
AcDbText
 10
16.95630213412068
 20
9.573647485518593
 30
0.0
 40
0.35191604497582
  1
DRAIN
  7
ROMANS
 72
     1
 11
17.71040794478315
 21
9.749605508006503
 31
0.0
100
AcDbText
 73
     2
  0
INSERT
  5
CFD
330
1F
100
AcDbEntity
  8
0
100
AcDbBlockReference
  2
MARKINS
 10
52.88802844254533
 20
18.68236814985007
 30
0.0
 41
0.25
 42
0.25
 43
0.25
  0
TEXT
  5
115A
330
1F
100
AcDbEntity
  8
TEXT
100
AcDbText
 10
15.57991773585653
 20
8.056752779247673
 30
0.0
 40
0.375
  1
DIRECTION OF FLOW
  7
ROMANS
 72
     1
 11
18.4638463072851
 21
8.244252779247673
 31
0.0
100
AcDbText
 73
     2
  0
INSERT
  5
115B
330
1F
100
AcDbEntity
  8
OBJECT1
100
AcDbBlockReference
  2
SPECSHEET_FLOWARROW
 10
22.9132703470587
 20
8.22328864741091
 30
0.0
 41
0.25
 42
0.25
 43
0.25
 50
270.0
  0
ENDSEC
  0
SECTION
  2
OBJECTS
  0
DICTIONARY
  5
C
330
0
100
AcDbDictionary
  3
ACAD_GROUP
350
D
  3
ACAD_LAYOUT
350
1A
  3
ACAD_MLINESTYLE
350
17
  3
ACAD_PLOTSETTINGS
350
19
  3
ACAD_PLOTSTYLENAME
350
E
  3
ACDBHEADERROUNDTRIPXREC
350
14AD
  3
ACDBVARIABLEDICTIONARY
350
178
  0
DICTIONARY
  5
14CF
330
1F
100
AcDbDictionary
280
     1
  3
ACAD_LAYOUTSELFREF
360
14D0
  0
DICTIONARY
  5
14CD
330
1B
100
AcDbDictionary
280
     1
  3
ACAD_LAYOUTSELFREF
360
14CE
  0
DICTIONARY
  5
D
102
{ACAD_REACTORS
330
C
102
}
330
C
100
AcDbDictionary
  0
DICTIONARY
  5
1A
102
{ACAD_REACTORS
330
C
102
}
330
C
100
AcDbDictionary
  0
DICTIONARY
  5
17
102
{ACAD_REACTORS
330
C
102
}
330
C
100
AcDbDictionary
  3
STANDARD
350
18
  0
DICTIONARY
  5
19
102
{ACAD_REACTORS
330
C
102
}
330
C
100
AcDbDictionary
  0
ACDBDICTIONARYWDFLT
  5
E
102
{ACAD_REACTORS
330
C
102
}
330
C
100
AcDbDictionary
281
     1
  3
Normal
350
F
100
AcDbDictionaryWithDefault
340
F
  0
DICTIONARY
  5
14AD
102
{ACAD_REACTORS
330
C
102
}
330
C
100
AcDbDictionary
  3
CEPSNTYPE
350
14B7
  3
FINGERPRINTGUID
350
14B8
  3
HYPERLINKBASE
350
14B0
  3
INSUNITS
350
14B6
  3
LAYOUTDICT
350
14B2
  3
LWETCUNION
350
14B5
  3
PLOTSETDICT
350
14B3
  3
PLOTSTYLNAMDICT
350
14B4
  3
PSVPSCALE
350
14BA
  3
PUCSBASE
350
14BD
  3
PUCSORGBACK
350
14C3
  3
PUCSORGBOTTOM
350
14BF
  3
PUCSORGFRONT
350
14C2
  3
PUCSORGLEFT
350
14C0
  3
PUCSORGRIGHT
350
14C1
  3
PUCSORGTOP
350
14BE
  3
PUCSORTHOREF
350
14BB
  3
PUCSORTHOVIEW
350
14BC
  3
STYLESHEET
350
14B1
  3
TSTACKALIGN
350
14AE
  3
TSTACKSIZE
350
14AF
  3
UCSBASE
350
14C6
  3
UCSORGBACK
350
14CC
  3
UCSORGBOTTOM
350
14C8
  3
UCSORGFRONT
350
14CB
  3
UCSORGLEFT
350
14C9
  3
UCSORGRIGHT
350
14CA
  3
UCSORGTOP
350
14C7
  3
UCSORTHOREF
350
14C4
  3
UCSORTHOVIEW
350
14C5
  3
VERSIONGUID
350
14B9
  0
DICTIONARY
  5
178
102
{ACAD_REACTORS
330
C
102
}
330
C
100
AcDbDictionary
  3
DIMASSOC
350
87C
  3
SORTENTS
350
179
  0
XRECORD
  5
14D0
102
{ACAD_REACTORS
330
14CF
102
}
330
14CF
100
AcDbXrecord
340
1F
  0
XRECORD
  5
14CE
102
{ACAD_REACTORS
330
14CD
102
}
330
14CD
100
AcDbXrecord
340
1B
  0
MLINESTYLE
  5
18
102
{ACAD_REACTORS
330
17
102
}
330
17
100
AcDbMlineStyle
  2
STANDARD
 70
     0
  3

 62
   256
 51
90.0
 52
90.0
 71
     2
 49
0.5
 62
   256
  6
BYLAYER
 49
-0.5
 62
   256
  6
BYLAYER
  0
ACDBPLACEHOLDER
  5
F
102
{ACAD_REACTORS
330
E
102
}
330
E
100
AcDbPlaceHolder
280
     0
  0
XRECORD
  5
14B7
102
{ACAD_REACTORS
330
14AD
102
}
330
14AD
100
AcDbXrecord
 90
        0
  0
XRECORD
  5
14B8
102
{ACAD_REACTORS
330
14AD
102
}
330
14AD
100
AcDbXrecord
  1
{FDEAD576-A652-11D2-9A35-0060089B3A3F}
  0
XRECORD
  5
14B0
102
{ACAD_REACTORS
330
14AD
102
}
330
14AD
100
AcDbXrecord
  1

  0
XRECORD
  5
14B6
102
{ACAD_REACTORS
330
14AD
102
}
330
14AD
100
AcDbXrecord
 90
        1
  0
XRECORD
  5
14B2
102
{ACAD_REACTORS
330
14AD
102
}
330
14AD
100
AcDbXrecord
340
1A
  0
XRECORD
  5
14B5
102
{ACAD_REACTORS
330
14AD
102
}
330
14AD
100
AcDbXrecord
 90
    11805
  0
XRECORD
  5
14B3
102
{ACAD_REACTORS
330
14AD
102
}
330
14AD
100
AcDbXrecord
340
19
  0
XRECORD
  5
14B4
102
{ACAD_REACTORS
330
14AD
102
}
330
14AD
100
AcDbXrecord
340
E
  0
XRECORD
  5
14BA
102
{ACAD_REACTORS
330
14AD
102
}
330
14AD
100
AcDbXrecord
 40
0.0
  0
XRECORD
  5
14BD
102
{ACAD_REACTORS
330
14AD
102
}
330
14AD
100
AcDbXrecord
340
0
  0
XRECORD
  5
14C3
102
{ACAD_REACTORS
330
14AD
102
}
330
14AD
100
AcDbXrecord
 10
0.0
 20
0.0
 30
0.0
  0
XRECORD
  5
14BF
102
{ACAD_REACTORS
330
14AD
102
}
330
14AD
100
AcDbXrecord
 10
0.0
 20
0.0
 30
0.0
  0
XRECORD
  5
14C2
102
{ACAD_REACTORS
330
14AD
102
}
330
14AD
100
AcDbXrecord
 10
0.0
 20
0.0
 30
0.0
  0
XRECORD
  5
14C0
102
{ACAD_REACTORS
330
14AD
102
}
330
14AD
100
AcDbXrecord
 10
0.0
 20
0.0
 30
0.0
  0
XRECORD
  5
14C1
102
{ACAD_REACTORS
330
14AD
102
}
330
14AD
100
AcDbXrecord
 10
0.0
 20
0.0
 30
0.0
  0
XRECORD
  5
14BE
102
{ACAD_REACTORS
330
14AD
102
}
330
14AD
100
AcDbXrecord
 10
0.0
 20
0.0
 30
0.0
  0
XRECORD
  5
14BB
102
{ACAD_REACTORS
330
14AD
102
}
330
14AD
100
AcDbXrecord
340
0
  0
XRECORD
  5
14BC
102
{ACAD_REACTORS
330
14AD
102
}
330
14AD
100
AcDbXrecord
 70
     0
  0
XRECORD
  5
14B1
102
{ACAD_REACTORS
330
14AD
102
}
330
14AD
100
AcDbXrecord
  1
WILKINS.ctb
  0
XRECORD
  5
14AE
102
{ACAD_REACTORS
330
14AD
102
}
330
14AD
100
AcDbXrecord
 90
        1
  0
XRECORD
  5
14AF
102
{ACAD_REACTORS
330
14AD
102
}
330
14AD
100
AcDbXrecord
 90
       70
  0
XRECORD
  5
14C6
102
{ACAD_REACTORS
330
14AD
102
}
330
14AD
100
AcDbXrecord
340
0
  0
XRECORD
  5
14CC
102
{ACAD_REACTORS
330
14AD
102
}
330
14AD
100
AcDbXrecord
 10
0.0
 20
0.0
 30
0.0
  0
XRECORD
  5
14C8
102
{ACAD_REACTORS
330
14AD
102
}
330
14AD
100
AcDbXrecord
 10
0.0
 20
0.0
 30
0.0
  0
XRECORD
  5
14CB
102
{ACAD_REACTORS
330
14AD
102
}
330
14AD
100
AcDbXrecord
 10
0.0
 20
0.0
 30
0.0
  0
XRECORD
  5
14C9
102
{ACAD_REACTORS
330
14AD
102
}
330
14AD
100
AcDbXrecord
 10
0.0
 20
0.0
 30
0.0
  0
XRECORD
  5
14CA
102
{ACAD_REACTORS
330
14AD
102
}
330
14AD
100
AcDbXrecord
 10
0.0
 20
0.0
 30
0.0
  0
XRECORD
  5
14C7
102
{ACAD_REACTORS
330
14AD
102
}
330
14AD
100
AcDbXrecord
 10
0.0
 20
0.0
 30
0.0
  0
XRECORD
  5
14C4
102
{ACAD_REACTORS
330
14AD
102
}
330
14AD
100
AcDbXrecord
340
0
  0
XRECORD
  5
14C5
102
{ACAD_REACTORS
330
14AD
102
}
330
14AD
100
AcDbXrecord
 70
     0
  0
XRECORD
  5
14B9
102
{ACAD_REACTORS
330
14AD
102
}
330
14AD
100
AcDbXrecord
  1
{AF670D13-31EE-4785-A671-A9FE0440D7AC}
  0
DICTIONARYVAR
  5
87C
102
{ACAD_REACTORS
330
178
102
}
330
178
100
DictionaryVariables
280
     0
  1
1
  0
DICTIONARYVAR
  5
179
102
{ACAD_REACTORS
330
178
102
}
330
178
100
DictionaryVariables
280
     0
  1
96
  0
ENDSEC
  0
EOF
