  0
SECTION
  2
HEADER
  9
$ACADVER
  1
AC1014
  9
$ACADMAINTVER
 70
     9
  9
$DWGCODEPAGE
  3
ANSI_1252
  9
$INSBASE
 10
0.0
 20
0.0
 30
0.0
  9
$EXTMIN
 10
1.916839675182529
 20
6.853247126719502
 30
-0.0000000000112498
  9
$EXTMAX
 10
29.11452491187318
 20
17.07773441909548
 30
0.0000000000002956
  9
$LIMMIN
 10
0.0
 20
0.0
  9
$LIMMAX
 10
31.5
 20
20.8
  9
$ORTHOMODE
 70
     1
  9
$REGENMODE
 70
     1
  9
$FILLMODE
 70
     1
  9
$QTEXTMODE
 70
     0
  9
$MIRRTEXT
 70
     0
  9
$DRAGMODE
 70
     2
  9
$LTSCALE
 40
1.0
  9
$OSMODE
 70
    37
  9
$ATTMODE
 70
     1
  9
$TEXTSIZE
 40
0.125
  9
$TRACEWID
 40
0.05
  9
$TEXTSTYLE
  7
ROMANS
  9
$CLAYER
  8
0
  9
$CELTYPE
  6
BYLAYER
  9
$CECOLOR
 62
   256
  9
$CELTSCALE
 40
1.0
  9
$DELOBJ
 70
     1
  9
$DISPSILH
 70
     0
  9
$DIMSCALE
 40
1.0
  9
$DIMASZ
 40
0.125
  9
$DIMEXO
 40
0.0625
  9
$DIMDLI
 40
0.38
  9
$DIMRND
 40
0.0
  9
$DIMDLE
 40
0.0
  9
$DIMEXE
 40
0.09
  9
$DIMTP
 40
0.0
  9
$DIMTM
 40
0.0
  9
$DIMTXT
 40
0.125
  9
$DIMCEN
 40
0.04
  9
$DIMTSZ
 40
0.0
  9
$DIMTOL
 70
     0
  9
$DIMLIM
 70
     0
  9
$DIMTIH
 70
     1
  9
$DIMTOH
 70
     1
  9
$DIMSE1
 70
     0
  9
$DIMSE2
 70
     0
  9
$DIMTAD
 70
     0
  9
$DIMZIN
 70
     0
  9
$DIMBLK
  1

  9
$DIMASO
 70
     1
  9
$DIMSHO
 70
     1
  9
$DIMPOST
  1

  9
$DIMAPOST
  1

  9
$DIMALT
 70
     0
  9
$DIMALTD
 70
     2
  9
$DIMALTF
 40
25.4
  9
$DIMLFAC
 40
1.0
  9
$DIMTOFL
 70
     0
  9
$DIMTVP
 40
0.0
  9
$DIMTIX
 70
     0
  9
$DIMSOXD
 70
     0
  9
$DIMSAH
 70
     0
  9
$DIMBLK1
  1

  9
$DIMBLK2
  1

  9
$DIMSTYLE
  2
STANDARD
  9
$DIMCLRD
 70
   256
  9
$DIMCLRE
 70
   256
  9
$DIMCLRT
 70
     3
  9
$DIMTFAC
 40
1.0
  9
$DIMGAP
 40
0.09
  9
$DIMJUST
 70
     0
  9
$DIMSD1
 70
     0
  9
$DIMSD2
 70
     0
  9
$DIMTOLJ
 70
     1
  9
$DIMTZIN
 70
     0
  9
$DIMALTZ
 70
     0
  9
$DIMALTTZ
 70
     0
  9
$DIMFIT
 70
     3
  9
$DIMUPT
 70
     1
  9
$DIMUNIT
 70
     2
  9
$DIMDEC
 70
     3
  9
$DIMTDEC
 70
     3
  9
$DIMALTU
 70
     2
  9
$DIMALTTD
 70
     2
  9
$DIMTXSTY
  7
STANDARD
  9
$DIMAUNIT
 70
     0
  9
$LUNITS
 70
     2
  9
$LUPREC
 70
     3
  9
$SKETCHINC
 40
0.05
  9
$FILLETRAD
 40
0.125
  9
$AUNITS
 70
     0
  9
$AUPREC
 70
     0
  9
$MENU
  1
.
  9
$ELEVATION
 40
0.0
  9
$PELEVATION
 40
0.0
  9
$THICKNESS
 40
0.0
  9
$LIMCHECK
 70
     0
  9
$BLIPMODE
 70
     0
  9
$CHAMFERA
 40
0.5
  9
$CHAMFERB
 40
0.5
  9
$CHAMFERC
 40
1.0
  9
$CHAMFERD
 40
0.0
  9
$SKPOLY
 70
     0
  9
$TDCREATE
 40
2452465.482828125
  9
$TDUPDATE
 40
2452509.682914514
  9
$TDINDWG
 40
0.0038230787
  9
$TDUSRTIMER
 40
0.0038230787
  9
$USRTIMER
 70
     1
  9
$ANGBASE
 50
0.0
  9
$ANGDIR
 70
     0
  9
$PDMODE
 70
     0
  9
$PDSIZE
 40
0.0
  9
$PLINEWID
 40
0.0
  9
$COORDS
 70
     0
  9
$SPLFRAME
 70
     0
  9
$SPLINETYPE
 70
     6
  9
$SPLINESEGS
 70
    64
  9
$ATTDIA
 70
     0
  9
$ATTREQ
 70
     1
  9
$HANDLING
 70
 22529
  9
$HANDSEED
  5
EC7
  9
$SURFTAB1
 70
    32
  9
$SURFTAB2
 70
    32
  9
$SURFTYPE
 70
     6
  9
$SURFU
 70
     6
  9
$SURFV
 70
     6
  9
$UCSNAME
  2

  9
$UCSORG
 10
0.0
 20
0.0
 30
0.0
  9
$UCSXDIR
 10
1.0
 20
0.0
 30
0.0
  9
$UCSYDIR
 10
0.0
 20
1.0
 30
0.0
  9
$PUCSNAME
  2

  9
$PUCSORG
 10
0.0
 20
0.0
 30
0.0
  9
$PUCSXDIR
 10
1.0
 20
0.0
 30
0.0
  9
$PUCSYDIR
 10
0.0
 20
1.0
 30
0.0
  9
$USERI1
 70
     0
  9
$USERI2
 70
     0
  9
$USERI3
 70
     0
  9
$USERI4
 70
     0
  9
$USERI5
 70
     0
  9
$USERR1
 40
0.0
  9
$USERR2
 40
0.0
  9
$USERR3
 40
0.0
  9
$USERR4
 40
0.0
  9
$USERR5
 40
0.0
  9
$WORLDVIEW
 70
     1
  9
$SHADEDGE
 70
     3
  9
$SHADEDIF
 70
    70
  9
$TILEMODE
 70
     1
  9
$MAXACTVP
 70
    64
  9
$PINSBASE
 10
0.0
 20
0.0
 30
0.0
  9
$PLIMCHECK
 70
     0
  9
$PEXTMIN
 10
1.000000000000000E+20
 20
1.000000000000000E+20
 30
1.000000000000000E+20
  9
$PEXTMAX
 10
-1.000000000000000E+20
 20
-1.000000000000000E+20
 30
-1.000000000000000E+20
  9
$PLIMMIN
 10
0.0
 20
0.0
  9
$PLIMMAX
 10
12.0
 20
9.0
  9
$UNITMODE
 70
     0
  9
$VISRETAIN
 70
     1
  9
$PLINEGEN
 70
     0
  9
$PSLTSCALE
 70
     1
  9
$TREEDEPTH
 70
  3020
  9
$PICKSTYLE
 70
     1
  9
$CMLSTYLE
  2
STANDARD
  9
$CMLJUST
 70
     0
  9
$CMLSCALE
 40
1.0
  9
$PROXYGRAPHICS
 70
     1
  9
$MEASUREMENT
 70
     0
  0
ENDSEC
  0
SECTION
  2
CLASSES
  0
CLASS
  1
ACDBDICTIONARYWDFLT
  2
AcDbDictionaryWithDefault
  3
AutoCAD 2000
 90
        0
280
     0
281
     0
  0
CLASS
  1
ACDBPLACEHOLDER
  2
AcDbPlaceHolder
  3
AutoCAD 2000
 90
        0
280
     0
281
     0
  0
CLASS
  1
LAYOUT
  2
AcDbLayout
  3
AutoCAD 2000
 90
        0
280
     0
281
     0
  0
CLASS
  1
DICTIONARYVAR
  2
AcDbDictionaryVar
  3
AutoCAD 2000
 90
        0
280
     0
281
     0
  0
CLASS
  1
LONG_TRANSACTION
  2
AcDbLongTransaction
  3
AutoCAD 2000
 90
        0
280
     0
281
     0
  0
CLASS
  1
LWPOLYLINE
  2
AcDbPolyline
  3
AutoCAD 2000
 90
        0
280
     0
281
     1
  0
CLASS
  1
HATCH
  2
AcDbHatch
  3
AutoCAD 2000
 90
        0
280
     0
281
     1
  0
CLASS
  1
XRECORD
  2
AcDbXrecord
  3
AutoCAD 2000
 90
        0
280
     0
281
     0
  0
ENDSEC
  0
SECTION
  2
TABLES
  0
TABLE
  2
VPORT
  5
8
330
0
100
AcDbSymbolTable
 70
     2
  0
VPORT
  5
EA0
330
8
100
AcDbSymbolTableRecord
100
AcDbViewportTableRecord
  2
*ACTIVE
 70
     0
 10
0.0
 20
0.0
 11
1.0
 21
1.0
 12
15.51568229352786
 22
11.96549077290749
 13
0.0
 23
0.0
 14
0.5
 24
0.5
 15
5.0
 25
5.0
 16
0.0
 26
0.0
 36
1.0
 17
0.0
 27
0.0
 37
0.0
 40
15.39131432209944
 41
1.781954887218045
 42
50.0
 43
0.0
 44
0.0
 50
0.0
 51
0.0
 71
     0
 72
 15000
 73
     1
 74
     2
 75
     0
 76
     0
 77
     0
 78
     0
  0
ENDTAB
  0
TABLE
  2
LTYPE
  5
5
330
0
100
AcDbSymbolTable
 70
     2
  0
LTYPE
  5
14
330
5
100
AcDbSymbolTableRecord
100
AcDbLinetypeTableRecord
  2
BYBLOCK
 70
     0
  3

 72
    65
 73
     0
 40
0.0
  0
LTYPE
  5
15
330
5
100
AcDbSymbolTableRecord
100
AcDbLinetypeTableRecord
  2
BYLAYER
 70
     0
  3

 72
    65
 73
     0
 40
0.0
  0
LTYPE
  5
16
330
5
100
AcDbSymbolTableRecord
100
AcDbLinetypeTableRecord
  2
CONTINUOUS
 70
     0
  3
Solid line
 72
    65
 73
     0
 40
0.0
  0
ENDTAB
  0
TABLE
  2
LAYER
  5
2
330
0
100
AcDbSymbolTable
 70
    10
  0
LAYER
  5
10
330
2
100
AcDbSymbolTableRecord
100
AcDbLayerTableRecord
  2
0
 70
     0
 62
     7
  6
CONTINUOUS
  0
LAYER
  5
62
330
2
100
AcDbSymbolTableRecord
100
AcDbLayerTableRecord
  2
OBJECT1
 70
     0
 62
     7
  6
CONTINUOUS
  0
LAYER
  5
63
330
2
100
AcDbSymbolTableRecord
100
AcDbLayerTableRecord
  2
OBJECT2
 70
     0
 62
     8
  6
CONTINUOUS
  0
LAYER
  5
65
330
2
100
AcDbSymbolTableRecord
100
AcDbLayerTableRecord
  2
TEXT
 70
     0
 62
     7
  6
CONTINUOUS
  0
ENDTAB
  0
TABLE
  2
STYLE
  5
3
330
0
100
AcDbSymbolTable
 70
     4
  0
STYLE
  5
11
330
3
100
AcDbSymbolTableRecord
100
AcDbTextStyleTableRecord
  2
STANDARD
 70
     0
 40
0.0
 41
1.0
 50
0.0
 71
     0
 42
0.125
  3
romans.shx
  4

  0
STYLE
  5
B3
330
3
100
AcDbSymbolTableRecord
100
AcDbTextStyleTableRecord
  2
ROMANS
 70
     0
 40
0.0
 41
1.0
 50
0.0
 71
     0
 42
0.125
  3
romans.shx
  4

  0
ENDTAB
  0
TABLE
  2
VIEW
  5
6
330
0
100
AcDbSymbolTable
 70
     0
  0
ENDTAB
  0
TABLE
  2
UCS
  5
7
330
0
100
AcDbSymbolTable
 70
     0
  0
ENDTAB
  0
TABLE
  2
APPID
  5
9
330
0
100
AcDbSymbolTable
 70
     1
  0
APPID
  5
12
330
9
100
AcDbSymbolTableRecord
100
AcDbRegAppTableRecord
  2
ACAD
 70
     0
  0
ENDTAB
  0
TABLE
  2
DIMSTYLE
  5
A
330
0
100
AcDbSymbolTable
 70
     4
  0
DIMSTYLE
105
99
330
A
100
AcDbSymbolTableRecord
100
AcDbDimStyleTableRecord
  2
STANDARD
 70
     0
  3

  4

  5

  6

  7

 40
1.0
 41
0.125
 42
0.0625
 43
0.38
 44
0.09
 45
0.0
 46
0.0
 47
0.0
 48
0.0
140
0.125
141
0.04
142
0.0
143
25.4
144
1.0
145
0.0
146
1.0
147
0.09
 71
     0
 72
     0
 73
     1
 74
     1
 75
     0
 76
     0
 77
     0
 78
     0
170
     0
171
     2
172
     0
173
     0
174
     0
175
     0
176
   256
177
   256
178
     3
270
     2
271
     3
272
     3
273
     2
274
     2
340
11
275
     0
280
     0
281
     0
282
     0
283
     1
284
     0
285
     0
286
     0
287
     3
288
     1
  0
ENDTAB
  0
TABLE
  2
BLOCK_RECORD
  5
1
330
0
100
AcDbSymbolTable
 70
     4
  0
BLOCK_RECORD
  5
1F
102
{ACAD_XDICTIONARY
360
EC3
102
}
330
1
100
AcDbSymbolTableRecord
100
AcDbBlockTableRecord
  2
*MODEL_SPACE
  0
BLOCK_RECORD
  5
1B
102
{ACAD_XDICTIONARY
360
EC1
102
}
330
1
100
AcDbSymbolTableRecord
100
AcDbBlockTableRecord
  2
*PAPER_SPACE
  0
BLOCK_RECORD
  5
6B
330
1
100
AcDbSymbolTableRecord
100
AcDbBlockTableRecord
  2
MARKINS
  0
BLOCK_RECORD
  5
277
330
1
100
AcDbSymbolTableRecord
100
AcDbBlockTableRecord
  2
SPECSHEET_FLOWARROW
  0
ENDTAB
  0
ENDSEC
  0
SECTION
  2
BLOCKS
  0
BLOCK
  5
20
330
1F
100
AcDbEntity
  8
0
100
AcDbBlockBegin
  2
*MODEL_SPACE
 70
     0
 10
0.0
 20
0.0
 30
0.0
  3
*MODEL_SPACE
  1

  0
ENDBLK
  5
21
330
1F
100
AcDbEntity
  8
0
100
AcDbBlockEnd
  0
BLOCK
  5
1C
330
1B
100
AcDbEntity
 67
     1
  8
0
100
AcDbBlockBegin
  2
*PAPER_SPACE
 70
     0
 10
0.0
 20
0.0
 30
0.0
  3
*PAPER_SPACE
  1

  0
ENDBLK
  5
1D
330
1B
100
AcDbEntity
 67
     1
  8
0
100
AcDbBlockEnd
  0
BLOCK
  5
6C
330
6B
100
AcDbEntity
  8
0
100
AcDbBlockBegin
  2
MARKINS
 70
     0
 10
0.0
 20
0.0
 30
0.0
  3
MARKINS
  1

  0
ENDBLK
  5
6D
330
6B
100
AcDbEntity
  8
0
100
AcDbBlockEnd
  0
BLOCK
  5
281
330
277
100
AcDbEntity
  8
0
100
AcDbBlockBegin
  2
SPECSHEET_FLOWARROW
 70
     0
 10
0.0
 20
0.0
 30
0.0
  3
SPECSHEET_FLOWARROW
  1

  0
LINE
  5
278
330
277
100
AcDbEntity
  8
OBJECT1
100
AcDbLine
 10
-0.3883432548078076
 20
-4.226471473879882
 30
0.0
 11
-0.3883432548079213
 21
-1.384666629104103
 31
0.0
  0
LINE
  5
279
330
277
100
AcDbEntity
  8
OBJECT1
100
AcDbLine
 10
0.3883432548076939
 20
-4.226471473879882
 30
0.0
 11
0.3883432548077508
 21
-1.384666629103975
 31
0.0
  0
LINE
  5
27A
330
277
100
AcDbEntity
  8
OBJECT1
100
AcDbLine
 10
-0.3883432548079213
 20
-4.226471473879882
 30
0.0
 11
0.3883432548076939
 21
-4.226471473879882
 31
0.0
  0
LINE
  5
27B
330
277
100
AcDbEntity
  8
OBJECT1
100
AcDbLine
 10
0.0
 20
0.0
 30
0.0
 11
-1.359203679482106
 21
-1.359203679482106
 31
0.0
  0
LINE
  5
27C
330
277
100
AcDbEntity
  8
OBJECT1
100
AcDbLine
 10
-0.3883432548079213
 20
-1.384666629104174
 30
0.0
 11
-1.359203679482106
 21
-2.355527053778388
 31
0.0
  0
LINE
  5
27D
330
277
100
AcDbEntity
  8
OBJECT1
100
AcDbLine
 10
-1.359203679482106
 20
-2.355527053778374
 30
0.0
 11
-1.359203679482106
 21
-1.35920367948205
 31
0.0
  0
LINE
  5
27E
330
277
100
AcDbEntity
  8
OBJECT1
100
AcDbLine
 10
1.359203679482106
 20
-2.355527053778359
 30
0.0
 11
1.359203679482106
 21
-1.359203679482078
 31
0.0
  0
LINE
  5
27F
330
277
100
AcDbEntity
  8
OBJECT1
100
AcDbLine
 10
0.0
 20
0.0
 30
0.0
 11
1.35920367948205
 21
-1.359203679482106
 31
0.0
  0
LINE
  5
280
330
277
100
AcDbEntity
  8
OBJECT1
100
AcDbLine
 10
0.3883432548077508
 20
-1.384666629103989
 30
0.0
 11
1.35920367948205
 21
-2.355527053778317
 31
0.0
  0
ENDBLK
  5
282
330
277
100
AcDbEntity
  8
0
100
AcDbBlockEnd
  0
ENDSEC
  0
SECTION
  2
ENTITIES
  0
INSERT
  5
6E
330
1F
100
AcDbEntity
  8
0
100
AcDbBlockReference
  2
MARKINS
 10
14.47928537900996
 20
5.918354116951569
 30
0.0
 41
0.5
 42
0.5
 43
0.5
  0
LINE
  5
6E3
330
1F
100
AcDbEntity
  8
OBJECT1
100
AcDbLine
 10
20.44753484751886
 20
12.22303453411725
 30
0.0
 11
20.44756839751865
 21
11.98264438411731
 31
0.0
  0
LINE
  5
6E4
330
1F
100
AcDbEntity
  8
OBJECT1
100
AcDbLine
 10
21.20378484751888
 20
11.98274558411733
 30
0.0
 11
21.20378484751888
 21
12.29450373411727
 31
0.0
  0
LINE
  5
6E5
330
1F
100
AcDbEntity
  8
OBJECT2
100
AcDbLine
 10
22.19832871165029
 20
11.52788083752593
 30
0.0
 11
22.1983903470312
 21
13.32896831700448
 31
0.0
  0
LINE
  5
6E6
330
1F
100
AcDbEntity
  8
OBJECT2
100
AcDbLine
 10
22.52836697217181
 20
11.20178493555462
 30
0.0
 11
22.52836813889798
 21
13.11570552153599
 31
0.0
  0
LINE
  5
6E7
330
1F
100
AcDbEntity
  8
OBJECT2
100
AcDbLine
 10
22.36338448667773
 20
13.32893835513007
 30
0.0
 11
22.36338448667773
 21
11.08495524009307
 31
0.0
  0
LINE
  5
6E8
330
1F
100
AcDbEntity
  8
OBJECT1
100
AcDbLine
 10
23.66136699609417
 20
12.24268437193804
 30
0.0
 11
23.66136660718548
 21
11.41634238152541
 31
0.0
  0
LINE
  5
6E9
330
1F
100
AcDbEntity
  8
OBJECT1
100
AcDbLine
 10
20.12186198701677
 20
12.14339124693227
 30
0.0
 11
20.12186198701677
 21
11.75284559693229
 31
0.0
  0
LINE
  5
6EA
330
1F
100
AcDbEntity
  8
OBJECT1
100
AcDbLine
 10
20.18930452743707
 20
11.75284598464545
 30
0.0
 11
20.18932157743706
 21
12.14329098464545
 31
0.0
  0
LINE
  5
6EB
330
1F
100
AcDbEntity
  8
OBJECT1
100
AcDbLine
 10
21.76386923483887
 20
12.42484458066129
 30
0.0
 11
21.76387001265625
 21
11.9910791181306
 31
0.0
  0
LINE
  5
6EC
330
1F
100
AcDbEntity
  8
OBJECT2
100
AcDbLine
 10
22.6053763453652
 20
12.48658225920004
 30
0.0
 11
22.60537478973021
 21
11.97453335847747
 31
0.0
  0
LINE
  5
6ED
330
1F
100
AcDbEntity
  8
OBJECT2
100
AcDbLine
 10
23.4358816037289
 20
12.10436198187996
 30
0.0
 11
23.4358812148201
 21
12.52455025174977
 31
0.0
  0
LINE
  5
6EE
330
1F
100
AcDbEntity
  8
OBJECT2
100
AcDbLine
 10
23.24886706290074
 20
11.99596767420356
 30
0.0
 11
23.24886589617456
 21
12.6489240413102
 31
0.0
  0
LINE
  5
6EF
330
1F
100
AcDbEntity
  8
OBJECT2
100
AcDbLine
 10
22.08834566374691
 20
12.37529972067206
 30
0.0
 11
22.08834410811205
 21
12.08581550775525
 31
0.0
  0
LINE
  5
6F0
330
1F
100
AcDbEntity
  8
OBJECT2
100
AcDbLine
 10
22.1070432287424
 20
12.14185920024177
 30
0.0
 11
22.08834566374691
 21
12.10877667915385
 31
0.0
  0
LINE
  5
6F1
330
1F
100
AcDbEntity
  8
OBJECT2
100
AcDbLine
 10
6.617205210315049
 20
11.75605967323499
 30
0.0
 11
6.617266845695965
 21
13.55714715271354
 31
0.0
  0
LINE
  5
6F2
330
1F
100
AcDbEntity
  8
OBJECT2
100
AcDbLine
 10
6.947243470836568
 20
11.42996377126368
 30
0.0
 11
6.947244637562747
 21
13.34388435724505
 31
0.0
  0
LINE
  5
6F3
330
1F
100
AcDbEntity
  8
OBJECT2
100
AcDbLine
 10
6.782260985342489
 20
13.55711719083912
 30
0.0
 11
6.782260985342489
 21
11.31313407580213
 31
0.0
  0
LINE
  5
6F4
330
1F
100
AcDbEntity
  8
OBJECT1
100
AcDbLine
 10
11.06215172082836
 20
12.37150764048166
 30
0.0
 11
11.06215249864574
 21
11.98099427341056
 31
0.0
  0
LINE
  5
6F5
330
1F
100
AcDbEntity
  8
OBJECT1
100
AcDbLine
 10
11.13016452862491
 20
12.37150764048166
 30
0.0
 11
11.13016375080754
 21
11.98099427341056
 31
0.0
  0
LINE
  5
6F6
330
1F
100
AcDbEntity
  8
OBJECT1
100
AcDbLine
 10
6.529214843878619
 20
11.89346914238151
 30
0.0
 11
6.529215575850301
 21
12.15049072335377
 31
0.0
  0
LINE
  5
6F7
330
1F
100
AcDbEntity
  8
OBJECT2
100
AcDbLine
 10
7.590735355098289
 20
11.89081944917582
 30
0.0
 11
7.590734966189486
 21
12.17072056208532
 31
0.0
  0
LINE
  5
6F8
330
1F
100
AcDbEntity
  8
OBJECT1
100
AcDbLine
 10
8.080243494758931
 20
12.4708632076471
 30
0.0
 11
8.080243105850243
 21
11.64452121723447
 31
0.0
  0
LINE
  5
6F9
330
1F
100
AcDbEntity
  8
OBJECT2
100
AcDbLine
 10
10.24339717539994
 20
12.03000879201609
 30
0.0
 11
10.24337967450704
 21
12.21091474342753
 31
0.0
  0
LINE
  5
6FA
330
1F
100
AcDbEntity
  8
OBJECT1
100
AcDbLine
 10
10.06042572972531
 20
12.2092350466241
 30
0.0
 11
10.06039422811814
 21
12.03014374334528
 31
0.0
  0
LINE
  5
6FB
330
1F
100
AcDbEntity
  8
OBJECT2
100
AcDbLine
 10
10.60933617766166
 20
12.03000956983358
 30
0.0
 11
10.60935251182839
 21
12.21091435451872
 31
0.0
  0
LINE
  5
6FC
330
1F
100
AcDbEntity
  8
OBJECT1
100
AcDbLine
 10
4.540738485681529
 20
12.37157008264133
 30
0.0
 11
4.540738485681529
 21
11.98102443264135
 31
0.0
  0
LINE
  5
6FD
330
1F
100
AcDbEntity
  8
OBJECT1
100
AcDbLine
 10
4.608181026101831
 20
11.98102482035451
 30
0.0
 11
4.608198076101828
 21
12.37146982035451
 31
0.0
  0
LINE
  5
6FE
330
1F
100
AcDbEntity
  8
OBJECT1
100
AcDbLine
 10
4.87861364618341
 20
12.20927936982635
 30
0.0
 11
4.878580096183625
 21
12.03011961982635
 31
0.0
  0
LINE
  5
6FF
330
1F
100
AcDbEntity
  8
OBJECT2
100
AcDbLine
 10
5.061533196183475
 20
12.03001896982637
 30
0.0
 11
5.061583796183597
 21
12.21085731982636
 31
0.0
  0
LINE
  5
700
330
1F
100
AcDbEntity
  8
OBJECT2
100
AcDbLine
 10
5.427522996183668
 20
12.03001896982637
 30
0.0
 11
5.427522996183668
 21
12.21085731982636
 31
0.0
  0
LINE
  5
701
330
1F
100
AcDbEntity
  8
OBJECT1
100
AcDbLine
 10
5.610509096183434
 20
12.03018671982638
 30
0.0
 11
5.610509096183434
 21
12.20924581982639
 31
0.0
  0
LINE
  5
702
330
1F
100
AcDbEntity
  8
OBJECT1
100
AcDbLine
 10
10.79230606770143
 20
12.2092350466241
 30
0.0
 11
10.79230490097525
 21
12.03014296552779
 31
0.0
  0
TEXT
  5
703
330
1F
100
AcDbEntity
  8
TEXT
100
AcDbText
 10
17.09019374272052
 20
7.502572808401133
 30
0.0
 40
0.6328125
  1
WILKINS MODEL 975XLSE
  7
ROMANS
 72
     1
 11
23.13204642129194
 21
7.818979058401133
 31
0.0
100
AcDbText
 73
     2
  0
ARC
  5
704
330
1F
100
AcDbEntity
  8
OBJECT1
100
AcDbCircle
 10
11.07304466543719
 20
11.98090832458122
 30
0.0
 40
0.01089275
100
AcDbArc
 50
179.5473859999996
 51
270.4448700000002
  0
ARC
  5
705
330
1F
100
AcDbEntity
  8
OBJECT1
100
AcDbCircle
 10
11.11927158401609
 20
11.98090832458122
 30
0.0
 40
0.01089275
100
AcDbArc
 50
269.5551299999997
 51
0.452614000000371
  0
LINE
  5
706
330
1F
100
AcDbEntity
  8
OBJECT1
100
AcDbLine
 10
11.11918719082184
 20
11.97001771342481
 30
0.0
 11
11.07312924075911
 21
11.97001590292315
 31
0.0
  0
LINE
  5
707
330
1F
100
AcDbEntity
  8
OBJECT1
100
AcDbLine
 10
7.54427515152777
 20
11.922979478757
 30
0.0
 11
7.046508146084377
 21
11.73582998659971
 31
0.0
  0
ARC
  5
708
330
1F
100
AcDbEntity
  8
OBJECT1
100
AcDbCircle
 10
7.556372157563671
 20
11.89081244881864
 30
0.0
 40
0.0343629
100
AcDbArc
 50
0.0111240000026271
 51
110.6098919999989
  0
LINE
  5
709
330
1F
100
AcDbEntity
  8
OBJECT1
100
AcDbLine
 10
7.024252844029959
 20
11.70365284503449
 30
0.0
 11
7.024251677303666
 21
11.49874655809875
 31
0.0
  0
LINE
  5
70A
330
1F
100
AcDbEntity
  8
OBJECT2
100
AcDbLine
 10
6.525957705245403
 20
11.80991463028393
 30
0.0
 11
6.507259362432435
 21
11.73775767131044
 31
0.0
  0
LINE
  5
70B
330
1F
100
AcDbEntity
  8
OBJECT2
100
AcDbLine
 10
6.617268383507578
 20
11.75605968453591
 30
0.0
 11
6.617265307884466
 21
11.41148771644846
 31
0.0
  0
LINE
  5
70C
330
1F
100
AcDbEntity
  8
OBJECT1
100
AcDbLine
 10
6.507259751341123
 20
11.86594082187772
 30
0.0
 11
6.507258195706143
 21
11.57645660896079
 31
0.0
  0
LINE
  5
70D
330
1F
100
AcDbEntity
  8
OBJECT1
100
AcDbLine
 10
6.782260985342489
 20
11.31313407580213
 30
0.0
 11
6.912868217131247
 21
11.31312586615776
 31
0.0
  0
LINE
  5
70E
330
1F
100
AcDbEntity
  8
OBJECT2
100
AcDbLine
 10
6.617265307884466
 20
11.63246763311413
 30
0.0
 11
6.525957316336601
 21
11.63250030144743
 31
0.0
  0
LINE
  5
70F
330
1F
100
AcDbEntity
  8
OBJECT2
100
AcDbLine
 10
6.525957316336601
 20
11.63250030144743
 30
0.0
 11
6.507259751341123
 21
11.59941778035945
 31
0.0
  0
LINE
  5
710
330
1F
100
AcDbEntity
  8
OBJECT2
100
AcDbLine
 10
6.525957316336601
 20
11.63250030144743
 30
0.0
 11
6.507259751341123
 21
11.7046238142702
 31
0.0
  0
LINE
  5
711
330
1F
100
AcDbEntity
  8
OBJECT1
100
AcDbLine
 10
6.617265307884466
 20
11.5489129260006
 30
0.0
 11
6.525957316336601
 21
11.54894559433389
 31
0.0
  0
LINE
  5
712
330
1F
100
AcDbEntity
  8
OBJECT1
100
AcDbLine
 10
6.525957316336601
 20
11.54894559433389
 30
0.0
 11
6.507258195706143
 21
11.57645660896079
 31
0.0
  0
LINE
  5
713
330
1F
100
AcDbEntity
  8
OBJECT1
100
AcDbLine
 10
6.617266845695965
 20
11.41151202324405
 30
0.0
 11
6.617233399545241
 21
11.34751242487489
 31
0.0
  0
LINE
  5
714
330
1F
100
AcDbEntity
  8
OBJECT1
100
AcDbLine
 10
6.782260596433687
 20
11.31312122591176
 30
0.0
 11
6.651641818236456
 21
11.31315929160009
 31
0.0
  0
ARC
  5
715
330
1F
100
AcDbEntity
  8
OBJECT1
100
AcDbCircle
 10
6.651616042516323
 20
11.34754198193839
 30
0.0
 40
0.0343827
100
AcDbArc
 50
180.0485229999985
 51
270.042953000006
  0
LINE
  5
716
330
1F
100
AcDbEntity
  8
OBJECT1
100
AcDbLine
 10
6.989877590324752
 20
11.46435458131812
 30
0.0
 11
6.981618335632973
 21
11.46433863606019
 31
0.0
  0
ARC
  5
717
330
1F
100
AcDbEntity
  8
OBJECT1
100
AcDbCircle
 10
6.989839088360398
 20
11.49876794807888
 30
0.0
 40
0.0344135
100
AcDbArc
 50
270.0635990000031
 51
359.9644930000005
  0
LINE
  5
718
330
1F
100
AcDbEntity
  8
OBJECT1
100
AcDbLine
 10
6.947243470836568
 20
11.42996377126368
 30
0.0
 11
6.947243081927879
 21
11.34750073095434
 31
0.0
  0
ARC
  5
719
330
1F
100
AcDbEntity
  8
OBJECT1
100
AcDbCircle
 10
6.981487662299812
 20
11.43009444459684
 30
0.0
 40
0.0342441
100
AcDbArc
 50
89.78094499999938
 51
180.2190550000006
  0
ARC
  5
71A
330
1F
100
AcDbEntity
  8
OBJECT1
100
AcDbCircle
 10
6.912945609968531
 20
11.34742333811717
 30
0.0
 40
0.03429745
100
AcDbArc
 50
269.8704989999903
 51
0.1295009999966062
  0
LINE
  5
71B
330
1F
100
AcDbEntity
  8
OBJECT2
100
AcDbLine
 10
6.617264918975777
 20
11.80993174226809
 30
0.0
 11
6.525957705245403
 21
11.80991463028393
 31
0.0
  0
LINE
  5
71C
330
1F
100
AcDbEntity
  8
OBJECT1
100
AcDbLine
 10
6.617268383507578
 20
11.89348489408805
 30
0.0
 11
6.525956927427913
 21
11.89346855957998
 31
0.0
  0
LINE
  5
71D
330
1F
100
AcDbEntity
  8
OBJECT2
100
AcDbLine
 10
6.525957705245403
 20
11.80991463028393
 30
0.0
 11
6.507259362432435
 21
11.84296292740363
 31
0.0
  0
LINE
  5
71E
330
1F
100
AcDbEntity
  8
OBJECT1
100
AcDbLine
 10
6.525956927427913
 20
11.89346855957998
 30
0.0
 11
6.507259751341123
 21
11.86594082187772
 31
0.0
  0
LINE
  5
71F
330
1F
100
AcDbEntity
  8
OBJECT2
100
AcDbLine
 10
7.024252844029959
 20
11.70365284503449
 30
0.0
 11
7.024218231152943
 21
11.8034892161149
 31
0.0
  0
ARC
  5
720
330
1F
100
AcDbEntity
  8
OBJECT1
100
AcDbCircle
 10
7.058536704183737
 20
11.70372518205814
 30
0.0
 40
0.03428425
100
AcDbArc
 50
110.5393940000015
 51
180.1214899999961
  0
ARC
  5
721
330
1F
100
AcDbEntity
  8
OBJECT1
100
AcDbCircle
 10
8.045887297581387
 20
11.64446871455592
 30
0.0
 40
0.03435575
100
AcDbArc
 50
269.9665990000019
 51
0.0878299999989286
  0
ARC
  5
722
330
1F
100
AcDbEntity
  8
OBJECT1
100
AcDbCircle
 10
7.624976824200601
 20
11.64439015499251
 30
0.0
 40
0.034243
100
AcDbArc
 50
179.7799990000004
 51
270.223099000007
  0
LINE
  5
723
330
1F
100
AcDbEntity
  8
OBJECT1
100
AcDbLine
 10
8.04586746323612
 20
11.61011290628712
 30
0.0
 11
7.625110219894921
 21
11.6101463524379
 31
0.0
  0
LINE
  5
724
330
1F
100
AcDbEntity
  8
OBJECT1
100
AcDbLine
 10
7.625110219894921
 20
11.6101463524379
 30
0.0
 11
7.633367530042804
 21
11.6101463524379
 31
0.0
  0
LINE
  5
725
330
1F
100
AcDbEntity
  8
OBJECT1
100
AcDbLine
 10
8.04586746323612
 20
11.61011290628712
 30
0.0
 11
8.037610153088238
 21
11.61011290628712
 31
0.0
  0
LINE
  5
726
330
1F
100
AcDbEntity
  8
OBJECT1
100
AcDbLine
 10
7.590733799463421
 20
11.8910045697311
 30
0.0
 11
7.59073418837211
 21
11.64452160614316
 31
0.0
  0
LINE
  5
727
330
1F
100
AcDbEntity
  8
OBJECT2
100
AcDbLine
 10
10.48393761359871
 20
11.99570198624732
 30
0.0
 11
10.60933617766166
 21
12.03000956983358
 31
0.0
  0
LINE
  5
728
330
1F
100
AcDbEntity
  8
OBJECT1
100
AcDbLine
 10
10.15160032557885
 20
11.99519718271616
 30
0.0
 11
10.06039422811814
 21
12.03014374334528
 31
0.0
  0
LINE
  5
729
330
1F
100
AcDbEntity
  8
OBJECT2
100
AcDbLine
 10
10.36881129581213
 20
11.99570043061239
 30
0.0
 11
10.24339717539994
 21
12.03000879201609
 31
0.0
  0
LINE
  5
72A
330
1F
100
AcDbEntity
  8
OBJECT2
100
AcDbLine
 10
10.15160032557885
 20
11.99519718271616
 30
0.0
 11
10.24339717539994
 21
12.03000879201609
 31
0.0
  0
ARC
  5
72B
330
1F
100
AcDbEntity
  8
OBJECT1
100
AcDbCircle
 10
4.551665335681562
 20
11.98102443264135
 30
0.0
 40
0.01092685
100
AcDbArc
 50
180.0
 51
270.5272520000058
  0
LINE
  5
72C
330
1F
100
AcDbEntity
  8
OBJECT1
100
AcDbLine
 10
4.969788246183568
 20
11.99524136982633
 30
0.0
 11
4.878580096183625
 21
12.03011961982635
 31
0.0
  0
LINE
  5
72D
330
1F
100
AcDbEntity
  8
OBJECT2
100
AcDbLine
 10
4.969788246183568
 20
11.99524136982633
 30
0.0
 11
5.061533196183475
 21
12.03001896982637
 31
0.0
  0
ARC
  5
72E
330
1F
100
AcDbEntity
  8
OBJECT1
100
AcDbCircle
 10
4.597153576462304
 20
11.98104169183377
 30
0.0
 40
0.0110275
100
AcDbArc
 50
270.0870820000058
 51
359.8255920000013
  0
LINE
  5
72F
330
1F
100
AcDbEntity
  8
OBJECT2
100
AcDbLine
 10
5.302091096183588
 20
11.99561041982635
 30
0.0
 11
5.427522996183668
 21
12.03001896982637
 31
0.0
  0
LINE
  5
730
330
1F
100
AcDbEntity
  8
OBJECT1
100
AcDbLine
 10
5.519301496183587
 20
11.99524136982633
 30
0.0
 11
5.610441996183524
 21
12.03011961982635
 31
0.0
  0
LINE
  5
731
330
1F
100
AcDbEntity
  8
OBJECT2
100
AcDbLine
 10
5.51921734618368
 20
11.99520781982638
 30
0.0
 11
5.427522996183668
 21
12.03001896982637
 31
0.0
  0
LINE
  5
732
330
1F
100
AcDbEntity
  8
OBJECT2
100
AcDbLine
 10
4.969788246183568
 20
11.99524136982633
 30
0.0
 11
5.519301496183587
 21
11.99524136982633
 31
0.0
  0
LINE
  5
733
330
1F
100
AcDbEntity
  8
OBJECT2
100
AcDbLine
 10
5.186948046183559
 20
11.99567751982637
 30
0.0
 11
5.061533196183475
 21
12.03001896982637
 31
0.0
  0
LINE
  5
734
330
1F
100
AcDbEntity
  8
OBJECT1
100
AcDbLine
 10
4.549735096183511
 20
11.97003046982634
 30
0.0
 11
4.59717033679631
 21
11.97001420457049
 31
0.0
  0
LINE
  5
735
330
1F
100
AcDbEntity
  8
OBJECT1
100
AcDbLine
 10
10.70113108293908
 20
11.99519834944239
 30
0.0
 11
10.79230490097525
 21
12.03014296552779
 31
0.0
  0
LINE
  5
736
330
1F
100
AcDbEntity
  8
OBJECT2
100
AcDbLine
 10
10.15160032557885
 20
11.99519718271616
 30
0.0
 11
10.70113108293908
 21
11.99519834944239
 31
0.0
  0
LINE
  5
737
330
1F
100
AcDbEntity
  8
OBJECT2
100
AcDbLine
 10
10.70113108293908
 20
11.99519834944239
 30
0.0
 11
10.60933617766166
 21
12.03000956983358
 31
0.0
  0
LINE
  5
738
330
1F
100
AcDbEntity
  8
OBJECT1
100
AcDbLine
 10
5.494285371183607
 20
11.99522611982634
 30
0.0
 11
4.994804371183548
 21
11.99525661982632
 31
0.0
  0
LINE
  5
739
330
1F
100
AcDbEntity
  8
OBJECT1
  6
CONTINUOUS
100
AcDbLine
 10
5.371223371183603
 20
10.68610220679394
 30
0.0
 11
5.283103871183541
 21
10.72229620679396
 31
0.0
  0
LINE
  5
73A
330
1F
100
AcDbEntity
  8
OBJECT1
  6
CONTINUOUS
100
AcDbLine
 10
5.494285371183607
 20
10.81473370679392
 30
0.0
 11
5.459342871183665
 21
10.73435070679394
 31
0.0
  0
LINE
  5
73B
330
1F
100
AcDbEntity
  8
OBJECT1
  6
CONTINUOUS
100
AcDbLine
 10
5.459342871183665
 20
10.73435070679394
 30
0.0
 11
5.371223371183603
 21
10.68610220679394
 31
0.0
  0
LINE
  5
73C
330
1F
100
AcDbEntity
  8
OBJECT1
  6
CONTINUOUS
100
AcDbLine
 10
4.994819371183623
 20
10.81473370679392
 30
0.0
 11
5.029762371183622
 21
10.73435070679394
 31
0.0
  0
LINE
  5
73D
330
1F
100
AcDbEntity
  8
OBJECT2
  6
CONTINUOUS
100
AcDbLine
 10
5.283103871183541
 20
10.72229620679396
 30
0.0
 11
5.236121871183698
 21
10.80069570679395
 31
0.0
  0
LINE
  5
73E
330
1F
100
AcDbEntity
  8
OBJECT1
  6
CONTINUOUS
100
AcDbLine
 10
5.117881871183683
 20
10.68610220679394
 30
0.0
 11
5.200874371183616
 21
10.68610220679394
 31
0.0
  0
LINE
  5
73F
330
1F
100
AcDbEntity
  8
OBJECT1
  6
CONTINUOUS
100
AcDbLine
 10
5.200874371183616
 20
10.68610220679394
 30
0.0
 11
5.283103871183541
 21
10.72229620679396
 31
0.0
  0
LINE
  5
740
330
1F
100
AcDbEntity
  8
OBJECT1
  6
CONTINUOUS
100
AcDbLine
 10
5.029762371183622
 20
10.73435070679394
 30
0.0
 11
5.117881871183683
 21
10.68610220679394
 31
0.0
  0
LINE
  5
741
330
1F
100
AcDbEntity
  8
OBJECT2
  6
CONTINUOUS
100
AcDbLine
 10
5.153877371183583
 20
10.86102870679396
 30
0.0
 11
5.089256371183594
 21
10.86102870679396
 31
0.0
  0
LINE
  5
742
330
1F
100
AcDbEntity
  8
OBJECT2
  6
CONTINUOUS
100
AcDbLine
 10
5.236121871183698
 20
10.80069570679395
 30
0.0
 11
5.153877371183583
 21
10.86102870679396
 31
0.0
  0
LINE
  5
743
330
1F
100
AcDbEntity
  8
OBJECT2
  6
CONTINUOUS
100
AcDbLine
 10
5.089256371183594
 20
10.86102870679396
 30
0.0
 11
4.994819371183623
 21
10.81473370679392
 31
0.0
  0
LINE
  5
744
330
1F
100
AcDbEntity
  8
OBJECT1
  6
CONTINUOUS
100
AcDbLine
 10
5.494285371183607
 20
11.99522611982634
 30
0.0
 11
5.494285371183607
 21
10.81473370679392
 31
0.0
  0
LINE
  5
745
330
1F
100
AcDbEntity
  8
OBJECT1
  6
CONTINUOUS
100
AcDbLine
 10
4.994804371183548
 20
11.99525661982632
 30
0.0
 11
4.994804371183548
 21
10.81473370679392
 31
0.0
  0
LINE
  5
746
330
1F
100
AcDbEntity
  8
OBJECT1
100
AcDbLine
 10
10.17662520425899
 20
11.99521301607924
 30
0.0
 11
10.67610620425905
 21
11.99518251607926
 31
0.0
  0
LINE
  5
747
330
1F
100
AcDbEntity
  8
OBJECT1
  6
CONTINUOUS
100
AcDbLine
 10
10.21158320425895
 20
10.82598149745759
 30
0.0
 11
10.29970270425901
 21
10.77773299745759
 31
0.0
  0
LINE
  5
748
330
1F
100
AcDbEntity
  8
OBJECT1
  6
CONTINUOUS
100
AcDbLine
 10
10.38269520425895
 20
10.77773299745759
 30
0.0
 11
10.46492470425899
 21
10.81392699745762
 31
0.0
  0
LINE
  5
749
330
1F
100
AcDbEntity
  8
OBJECT1
  6
CONTINUOUS
100
AcDbLine
 10
10.641163704259
 20
10.82598149745759
 30
0.0
 11
10.55304420425893
 21
10.77773299745759
 31
0.0
  0
LINE
  5
74A
330
1F
100
AcDbEntity
  8
OBJECT1
  6
CONTINUOUS
100
AcDbLine
 10
10.67610620425905
 20
10.90636449745758
 30
0.0
 11
10.641163704259
 21
10.82598149745759
 31
0.0
  0
LINE
  5
74B
330
1F
100
AcDbEntity
  8
OBJECT1
  6
CONTINUOUS
100
AcDbLine
 10
10.55304420425893
 20
10.77773299745759
 30
0.0
 11
10.46492470425899
 21
10.81392699745762
 31
0.0
  0
LINE
  5
74C
330
1F
100
AcDbEntity
  8
OBJECT1
  6
CONTINUOUS
100
AcDbLine
 10
10.17664020425907
 20
10.90636449745758
 30
0.0
 11
10.21158320425895
 21
10.82598149745759
 31
0.0
  0
LINE
  5
74D
330
1F
100
AcDbEntity
  8
OBJECT1
  6
CONTINUOUS
100
AcDbLine
 10
10.29970270425901
 20
10.77773299745759
 30
0.0
 11
10.38269520425895
 21
10.77773299745759
 31
0.0
  0
LINE
  5
74E
330
1F
100
AcDbEntity
  8
OBJECT2
  6
CONTINUOUS
100
AcDbLine
 10
10.33569820425903
 20
10.95265949745756
 30
0.0
 11
10.27107720425904
 21
10.95265949745756
 31
0.0
  0
LINE
  5
74F
330
1F
100
AcDbEntity
  8
OBJECT2
  6
CONTINUOUS
100
AcDbLine
 10
10.46492470425899
 20
10.81392699745762
 30
0.0
 11
10.41794270425892
 21
10.89232649745755
 31
0.0
  0
LINE
  5
750
330
1F
100
AcDbEntity
  8
OBJECT2
  6
CONTINUOUS
100
AcDbLine
 10
10.41794270425892
 20
10.89232649745755
 30
0.0
 11
10.33569820425903
 21
10.95265949745756
 31
0.0
  0
LINE
  5
751
330
1F
100
AcDbEntity
  8
OBJECT2
  6
CONTINUOUS
100
AcDbLine
 10
10.27107720425904
 20
10.95265949745756
 30
0.0
 11
10.17664020425907
 21
10.90636449745758
 31
0.0
  0
LINE
  5
752
330
1F
100
AcDbEntity
  8
OBJECT1
  6
CONTINUOUS
100
AcDbLine
 10
10.67610620425905
 20
11.99518251607926
 30
0.0
 11
10.67610620425905
 21
10.90636449745758
 31
0.0
  0
LINE
  5
753
330
1F
100
AcDbEntity
  8
OBJECT1
  6
CONTINUOUS
100
AcDbLine
 10
10.17662520425899
 20
11.99521301607924
 30
0.0
 11
10.17662520425899
 21
10.90636449745758
 31
0.0
  0
TEXT
  5
754
330
1F
100
AcDbEntity
  8
TEXT
100
AcDbText
 10
4.185009226631505
 20
9.200024873306709
 30
0.0
 40
0.375
  1
DIRECTION OF FLOW
  7
ROMANS
 72
     1
 11
7.068937798060076
 21
9.387524873306709
 31
0.0
100
AcDbText
 73
     2
  0
INSERT
  5
755
330
1F
100
AcDbEntity
  8
OBJECT1
100
AcDbBlockReference
  2
SPECSHEET_FLOWARROW
 10
11.51836183783366
 20
9.366560741469946
 30
0.0
 41
0.25
 42
0.25
 43
0.25
 50
270.0
  0
TEXT
  5
756
330
1F
100
AcDbEntity
  8
TEXT
100
AcDbText
 10
5.330435454099761
 20
6.853582953786904
 30
0.0
 40
0.31640625
  1
TYPICAL INSTALLATION
  7
ROMANS
 72
     1
 11
7.899352864814048
 21
7.011786078786904
 31
0.0
100
AcDbText
 73
     2
  0
TEXT
  5
757
330
1F
100
AcDbEntity
  8
TEXT
100
AcDbText
 10
1.85750018624262
 20
7.502572808401133
 30
0.0
 40
0.6328125
  1
WILKINS MODEL 975XLSE
  7
ROMANS
 72
     1
 11
7.899352864814048
 21
7.818979058401133
 31
0.0
100
AcDbText
 73
     2
  0
LINE
  5
758
330
1F
100
AcDbEntity
  8
OBJECT2
100
AcDbLine
 10
21.20378484751888
 20
11.98274558411733
 30
0.0
 11
20.44756839751865
 21
11.98264438411731
 31
0.0
  0
LINE
  5
759
330
1F
100
AcDbEntity
  8
OBJECT1
100
AcDbLine
 10
22.11033834521386
 20
11.66529030667245
 30
0.0
 11
22.11033907718554
 21
11.92231188764471
 31
0.0
  0
LINE
  5
75A
330
1F
100
AcDbEntity
  8
OBJECT2
100
AcDbLine
 10
23.17185885643353
 20
11.66264061346677
 30
0.0
 11
23.17185846752472
 21
11.94254172637627
 31
0.0
  0
LINE
  5
75B
330
1F
100
AcDbEntity
  8
OBJECT1
100
AcDbLine
 10
20.45973714751865
 20
11.98110053411729
 30
0.0
 11
20.45970359751887
 21
11.80194078411729
 31
0.0
  0
LINE
  5
75C
330
1F
100
AcDbEntity
  8
OBJECT2
100
AcDbLine
 10
20.64265669751871
 20
11.80184013411732
 30
0.0
 11
20.64270729751883
 21
11.9826784841173
 31
0.0
  0
LINE
  5
75D
330
1F
100
AcDbEntity
  8
OBJECT2
100
AcDbLine
 10
21.00864649751891
 20
11.80184013411732
 30
0.0
 11
21.00864649751891
 21
11.9826784841173
 31
0.0
  0
LINE
  5
75E
330
1F
100
AcDbEntity
  8
OBJECT1
100
AcDbLine
 10
21.19163259751867
 20
11.80200788411732
 30
0.0
 11
21.19163259751867
 21
11.98106698411734
 31
0.0
  0
LINE
  5
75F
330
1F
100
AcDbEntity
  8
OBJECT1
100
AcDbLine
 10
23.12539865286301
 20
11.69480064304794
 30
0.0
 11
22.62763164741961
 21
11.50765115089065
 31
0.0
  0
ARC
  5
760
330
1F
100
AcDbEntity
  8
OBJECT1
100
AcDbCircle
 10
23.13749565889891
 20
11.66263361310958
 30
0.0
 40
0.0343629
100
AcDbArc
 50
0.0111240000026271
 51
110.6098919999989
  0
LINE
  5
761
330
1F
100
AcDbEntity
  8
OBJECT1
100
AcDbLine
 10
22.6053763453652
 20
11.47547400932543
 30
0.0
 11
22.60537517863891
 21
11.27056772238969
 31
0.0
  0
LINE
  5
762
330
1F
100
AcDbEntity
  8
OBJECT2
100
AcDbLine
 10
22.10708120658064
 20
11.58173579457487
 30
0.0
 11
22.08838286376767
 21
11.50957883560138
 31
0.0
  0
LINE
  5
763
330
1F
100
AcDbEntity
  8
OBJECT2
100
AcDbLine
 10
22.19839188484282
 20
11.52788084882686
 30
0.0
 11
22.1983888092197
 21
11.18330888073941
 31
0.0
  0
LINE
  5
764
330
1F
100
AcDbEntity
  8
OBJECT1
100
AcDbLine
 10
22.08838325267636
 20
11.63776198616866
 30
0.0
 11
22.08838169704138
 21
11.34827777325173
 31
0.0
  0
LINE
  5
765
330
1F
100
AcDbEntity
  8
OBJECT1
100
AcDbLine
 10
22.36338448667773
 20
11.08495524009307
 30
0.0
 11
22.49399171846648
 21
11.08494703044871
 31
0.0
  0
LINE
  5
766
330
1F
100
AcDbEntity
  8
OBJECT2
100
AcDbLine
 10
22.1983888092197
 20
11.40428879740507
 30
0.0
 11
22.10708081767184
 21
11.40432146573836
 31
0.0
  0
LINE
  5
767
330
1F
100
AcDbEntity
  8
OBJECT2
100
AcDbLine
 10
22.10708081767184
 20
11.40432146573836
 30
0.0
 11
22.08838325267636
 21
11.37123894465039
 31
0.0
  0
LINE
  5
768
330
1F
100
AcDbEntity
  8
OBJECT2
100
AcDbLine
 10
22.10708081767184
 20
11.40432146573836
 30
0.0
 11
22.08838325267636
 21
11.47644497856113
 31
0.0
  0
LINE
  5
769
330
1F
100
AcDbEntity
  8
OBJECT1
100
AcDbLine
 10
22.1983888092197
 20
11.32073409029154
 30
0.0
 11
22.10708081767184
 21
11.32076675862483
 31
0.0
  0
LINE
  5
76A
330
1F
100
AcDbEntity
  8
OBJECT1
100
AcDbLine
 10
22.10708081767184
 20
11.32076675862483
 30
0.0
 11
22.08838169704138
 21
11.34827777325173
 31
0.0
  0
LINE
  5
76B
330
1F
100
AcDbEntity
  8
OBJECT1
100
AcDbLine
 10
22.1983903470312
 20
11.18333318753499
 30
0.0
 11
22.19835690088048
 21
11.11933358916584
 31
0.0
  0
LINE
  5
76C
330
1F
100
AcDbEntity
  8
OBJECT1
100
AcDbLine
 10
22.36338409776892
 20
11.0849423902027
 30
0.0
 11
22.23276531957169
 21
11.08498045589103
 31
0.0
  0
ARC
  5
76D
330
1F
100
AcDbEntity
  8
OBJECT1
100
AcDbCircle
 10
22.23273954385156
 20
11.11936314622933
 30
0.0
 40
0.0343827
100
AcDbArc
 50
180.0485229999985
 51
270.042953000006
  0
LINE
  5
76E
330
1F
100
AcDbEntity
  8
OBJECT1
100
AcDbLine
 10
22.57100109165999
 20
11.23617574560906
 30
0.0
 11
22.56274183696821
 21
11.23615980035113
 31
0.0
  0
ARC
  5
76F
330
1F
100
AcDbEntity
  8
OBJECT1
100
AcDbCircle
 10
22.57096258969564
 20
11.27058911236982
 30
0.0
 40
0.0344135
100
AcDbArc
 50
270.0635990000031
 51
359.9644930000005
  0
LINE
  5
770
330
1F
100
AcDbEntity
  8
OBJECT1
100
AcDbLine
 10
22.52836697217181
 20
11.20178493555462
 30
0.0
 11
22.52836658326312
 21
11.11932189524528
 31
0.0
  0
ARC
  5
771
330
1F
100
AcDbEntity
  8
OBJECT1
100
AcDbCircle
 10
22.56261116363505
 20
11.20191560888778
 30
0.0
 40
0.0342441
100
AcDbArc
 50
89.78094499999938
 51
180.2190550000006
  0
ARC
  5
772
330
1F
100
AcDbEntity
  8
OBJECT1
100
AcDbCircle
 10
22.49406911130377
 20
11.11924450240811
 30
0.0
 40
0.03429745
100
AcDbArc
 50
269.8704989999903
 51
0.1295009999966062
  0
LINE
  5
773
330
1F
100
AcDbEntity
  8
OBJECT2
100
AcDbLine
 10
22.19838842031101
 20
11.58175290655903
 30
0.0
 11
22.10708120658064
 21
11.58173579457487
 31
0.0
  0
LINE
  5
774
330
1F
100
AcDbEntity
  8
OBJECT1
100
AcDbLine
 10
22.19839188484282
 20
11.66530605837899
 30
0.0
 11
22.10708042876315
 21
11.66528972387091
 31
0.0
  0
LINE
  5
775
330
1F
100
AcDbEntity
  8
OBJECT2
100
AcDbLine
 10
22.10708120658064
 20
11.58173579457487
 30
0.0
 11
22.08838286376767
 21
11.61478409169458
 31
0.0
  0
LINE
  5
776
330
1F
100
AcDbEntity
  8
OBJECT1
100
AcDbLine
 10
22.10708042876315
 20
11.66528972387091
 30
0.0
 11
22.08838325267636
 21
11.63776198616866
 31
0.0
  0
LINE
  5
777
330
1F
100
AcDbEntity
  8
OBJECT2
100
AcDbLine
 10
22.6053763453652
 20
11.47547400932543
 30
0.0
 11
22.60534173248818
 21
11.57531038040584
 31
0.0
  0
ARC
  5
778
330
1F
100
AcDbEntity
  8
OBJECT1
100
AcDbCircle
 10
22.63966020551897
 20
11.47554634634908
 30
0.0
 40
0.03428425
100
AcDbArc
 50
110.5393940000015
 51
180.1214899999961
  0
ARC
  5
779
330
1F
100
AcDbEntity
  8
OBJECT1
100
AcDbCircle
 10
23.62701079891663
 20
11.41628987884686
 30
0.0
 40
0.03435575
100
AcDbArc
 50
269.9665990000019
 51
0.0878299999989286
  0
ARC
  5
77A
330
1F
100
AcDbEntity
  8
OBJECT1
100
AcDbCircle
 10
23.20610032553584
 20
11.41621131928345
 30
0.0
 40
0.034243
100
AcDbArc
 50
179.7799990000004
 51
270.223099000007
  0
LINE
  5
77B
330
1F
100
AcDbEntity
  8
OBJECT1
100
AcDbLine
 10
23.62699096457136
 20
11.38193407057806
 30
0.0
 11
23.20623372123016
 21
11.38196751672884
 31
0.0
  0
LINE
  5
77C
330
1F
100
AcDbEntity
  8
OBJECT1
100
AcDbLine
 10
23.20623372123016
 20
11.38196751672884
 30
0.0
 11
23.21449103137804
 21
11.38196751672884
 31
0.0
  0
LINE
  5
77D
330
1F
100
AcDbEntity
  8
OBJECT1
100
AcDbLine
 10
23.62699096457136
 20
11.38193407057806
 30
0.0
 11
23.61873365442348
 21
11.38193407057806
 31
0.0
  0
LINE
  5
77E
330
1F
100
AcDbEntity
  8
OBJECT1
100
AcDbLine
 10
23.17185730079866
 20
11.66282573402204
 30
0.0
 11
23.17185768970735
 21
11.4163427704341
 31
0.0
  0
ARC
  5
77F
330
1F
100
AcDbEntity
  8
OBJECT1
100
AcDbCircle
 10
20.1327888370168
 20
11.75284559693229
 30
0.0
 40
0.01092685
100
AcDbArc
 50
180.0
 51
270.5272520000058
  0
LINE
  5
780
330
1F
100
AcDbEntity
  8
OBJECT1
100
AcDbLine
 10
20.5509117475188
 20
11.76706253411728
 30
0.0
 11
20.45970359751887
 21
11.80194078411729
 31
0.0
  0
LINE
  5
781
330
1F
100
AcDbEntity
  8
OBJECT2
100
AcDbLine
 10
20.5509117475188
 20
11.76706253411728
 30
0.0
 11
20.64265669751871
 21
11.80184013411732
 31
0.0
  0
ARC
  5
782
330
1F
100
AcDbEntity
  8
OBJECT1
100
AcDbCircle
 10
20.17827707779754
 20
11.75286285612471
 30
0.0
 40
0.0110275
100
AcDbArc
 50
270.0870820000058
 51
359.8255920000013
  0
LINE
  5
783
330
1F
100
AcDbEntity
  8
OBJECT2
100
AcDbLine
 10
20.88321459751882
 20
11.76743158411729
 30
0.0
 11
21.00864649751891
 21
11.80184013411732
 31
0.0
  0
LINE
  5
784
330
1F
100
AcDbEntity
  8
OBJECT1
100
AcDbLine
 10
21.10042499751882
 20
11.76706253411728
 30
0.0
 11
21.19156549751876
 21
11.80194078411729
 31
0.0
  0
LINE
  5
785
330
1F
100
AcDbEntity
  8
OBJECT2
100
AcDbLine
 10
21.10034084751892
 20
11.76702898411732
 30
0.0
 11
21.00864649751891
 21
11.80184013411732
 31
0.0
  0
LINE
  5
786
330
1F
100
AcDbEntity
  8
OBJECT2
100
AcDbLine
 10
20.5509117475188
 20
11.76706253411728
 30
0.0
 11
21.10042499751882
 21
11.76706253411728
 31
0.0
  0
LINE
  5
787
330
1F
100
AcDbEntity
  8
OBJECT2
100
AcDbLine
 10
20.7680715475188
 20
11.76749868411732
 30
0.0
 11
20.64265669751871
 21
11.80184013411732
 31
0.0
  0
LINE
  5
788
330
1F
100
AcDbEntity
  8
OBJECT1
100
AcDbLine
 10
20.13085859751875
 20
11.74185163411728
 30
0.0
 11
20.17829383813155
 21
11.74183536886143
 31
0.0
  0
LINE
  5
789
330
1F
100
AcDbEntity
  8
OBJECT1
100
AcDbLine
 10
21.07540887251885
 20
11.76704728411728
 30
0.0
 11
20.57592787251878
 21
11.76707778411727
 31
0.0
  0
LINE
  5
78A
330
1F
100
AcDbEntity
  8
OBJECT1
  6
CONTINUOUS
100
AcDbLine
 10
20.95234687251884
 20
10.45792337108488
 30
0.0
 11
20.86422737251878
 21
10.4941173710849
 31
0.0
  0
LINE
  5
78B
330
1F
100
AcDbEntity
  8
OBJECT1
  6
CONTINUOUS
100
AcDbLine
 10
21.07540887251885
 20
10.58655487108486
 30
0.0
 11
21.0404663725189
 21
10.50617187108488
 31
0.0
  0
LINE
  5
78C
330
1F
100
AcDbEntity
  8
OBJECT1
  6
CONTINUOUS
100
AcDbLine
 10
21.0404663725189
 20
10.50617187108488
 30
0.0
 11
20.95234687251884
 21
10.45792337108488
 31
0.0
  0
LINE
  5
78D
330
1F
100
AcDbEntity
  8
OBJECT1
  6
CONTINUOUS
100
AcDbLine
 10
20.57594287251886
 20
10.58655487108486
 30
0.0
 11
20.61088587251886
 21
10.50617187108488
 31
0.0
  0
LINE
  5
78E
330
1F
100
AcDbEntity
  8
OBJECT2
  6
CONTINUOUS
100
AcDbLine
 10
20.86422737251878
 20
10.4941173710849
 30
0.0
 11
20.81724537251893
 21
10.57251687108489
 31
0.0
  0
LINE
  5
78F
330
1F
100
AcDbEntity
  8
OBJECT1
  6
CONTINUOUS
100
AcDbLine
 10
20.69900537251892
 20
10.45792337108488
 30
0.0
 11
20.78199787251886
 21
10.45792337108488
 31
0.0
  0
LINE
  5
790
330
1F
100
AcDbEntity
  8
OBJECT1
  6
CONTINUOUS
100
AcDbLine
 10
20.78199787251886
 20
10.45792337108488
 30
0.0
 11
20.86422737251878
 21
10.4941173710849
 31
0.0
  0
LINE
  5
791
330
1F
100
AcDbEntity
  8
OBJECT1
  6
CONTINUOUS
100
AcDbLine
 10
20.61088587251886
 20
10.50617187108488
 30
0.0
 11
20.69900537251892
 21
10.45792337108488
 31
0.0
  0
LINE
  5
792
330
1F
100
AcDbEntity
  8
OBJECT2
  6
CONTINUOUS
100
AcDbLine
 10
20.73500087251882
 20
10.6328498710849
 30
0.0
 11
20.67037987251883
 21
10.6328498710849
 31
0.0
  0
LINE
  5
793
330
1F
100
AcDbEntity
  8
OBJECT2
  6
CONTINUOUS
100
AcDbLine
 10
20.81724537251893
 20
10.57251687108489
 30
0.0
 11
20.73500087251882
 21
10.6328498710849
 31
0.0
  0
LINE
  5
794
330
1F
100
AcDbEntity
  8
OBJECT2
  6
CONTINUOUS
100
AcDbLine
 10
20.67037987251883
 20
10.6328498710849
 30
0.0
 11
20.57594287251886
 21
10.58655487108486
 31
0.0
  0
LINE
  5
795
330
1F
100
AcDbEntity
  8
OBJECT1
  6
CONTINUOUS
100
AcDbLine
 10
21.07540887251885
 20
11.76704728411728
 30
0.0
 11
21.07540887251885
 21
10.58655487108486
 31
0.0
  0
LINE
  5
796
330
1F
100
AcDbEntity
  8
OBJECT1
  6
CONTINUOUS
100
AcDbLine
 10
20.57592787251878
 20
11.76707778411727
 30
0.0
 11
20.57592787251878
 21
10.58655487108486
 31
0.0
  0
LINE
  5
797
330
1F
100
AcDbEntity
  8
OBJECT1
100
AcDbLine
 10
22.07599765853974
 20
11.95668675244117
 30
0.0
 11
21.79824526636157
 21
11.9567030866079
 31
0.0
  0
ARC
  5
798
330
1F
100
AcDbEntity
  8
OBJECT1
100
AcDbCircle
 10
21.79822465419881
 20
11.99105967269408
 30
0.0
 40
0.03435465
100
AcDbArc
 50
179.9672239999996
 51
270.0346369999964
  0
LINE
  5
799
330
1F
100
AcDbEntity
  8
OBJECT2
100
AcDbLine
 10
22.19835122029026
 20
12.05827182479506
 30
0.0
 11
22.1070432287424
 21
12.05830449312835
 31
0.0
  0
ARC
  5
79A
330
1F
100
AcDbEntity
  8
OBJECT1
100
AcDbCircle
 10
22.07601360379756
 20
11.92236050123593
 30
0.0
 40
0.03432605
100
AcDbArc
 50
359.9188999999963
 51
90.02631399999597
  0
LINE
  5
79B
330
1F
100
AcDbEntity
  8
OBJECT2
100
AcDbLine
 10
22.1070432287424
 20
12.05830449312835
 30
0.0
 11
22.08834410811205
 21
12.08581550775525
 31
0.0
  0
LINE
  5
79C
330
1F
100
AcDbEntity
  8
OBJECT2
100
AcDbLine
 10
22.1103469727753
 20
12.05830331110896
 30
0.0
 11
22.11033907718554
 21
11.92231188764471
 31
0.0
  0
LINE
  5
79D
330
1F
100
AcDbEntity
  8
OBJECT2
100
AcDbLine
 10
22.52836813889798
 20
12.06130939659876
 30
0.0
 11
22.60534134357949
 21
12.06132689749156
 31
0.0
  0
TEXT
  5
79E
330
1F
100
AcDbEntity
  8
TEXT
100
AcDbText
 10
20.56312901057766
 20
6.853582953786904
 30
0.0
 40
0.31640625
  1
TYPICAL INSTALLATION
  7
ROMANS
 72
     1
 11
23.13204642129194
 21
7.011786078786904
 31
0.0
100
AcDbText
 73
     2
  0
TEXT
  5
79F
330
1F
100
AcDbEntity
  8
TEXT
100
AcDbText
 10
19.5889628364004
 20
9.200024873306709
 30
0.0
 40
0.375
  1
DIRECTION OF FLOW
  7
ROMANS
 72
     1
 11
22.47289140782898
 21
9.387524873306709
 31
0.0
100
AcDbText
 73
     2
  0
INSERT
  5
7A0
330
1F
100
AcDbEntity
  8
OBJECT1
100
AcDbBlockReference
  2
SPECSHEET_FLOWARROW
 10
26.92231544760257
 20
9.366560741469946
 30
0.0
 41
0.25
 42
0.25
 43
0.25
 50
270.0
  0
LINE
  5
7A1
330
1F
100
AcDbEntity
  8
OBJECT2
100
AcDbLine
 10
8.567901984501261
 20
12.49033470101462
 30
0.0
 11
9.494484033255574
 21
13.41691363849926
 31
0.0
  0
LINE
  5
7A2
330
1F
100
AcDbEntity
  8
OBJECT2
100
AcDbLine
 10
8.27719426472079
 20
12.80439172310595
 30
0.0
 11
9.198270143680773
 21
13.72546760206594
 31
0.0
  0
LINE
  5
7A3
330
1F
100
AcDbEntity
  8
OBJECT1
100
AcDbLine
 10
6.47832492403161
 20
13.11329300882695
 30
0.0
 11
6.525085365141379
 21
12.84809497935068
 31
0.0
  0
LINE
  5
7A4
330
1F
100
AcDbEntity
  8
OBJECT2
100
AcDbLine
 10
8.277193486903414
 20
12.85101954633895
 30
0.0
 11
7.621080736546858
 21
13.50718285483017
 31
0.0
  0
LINE
  5
7A5
330
1F
100
AcDbEntity
  8
OBJECT2
100
AcDbLine
 10
7.579757239477615
 20
12.80150524251441
 30
0.0
 11
7.579758406203794
 21
13.36212923247935
 31
0.0
  0
ARC
  5
7A6
330
1F
100
AcDbEntity
  8
OBJECT2
100
AcDbCircle
 10
7.614413674194409
 20
12.95790022123949
 30
0.0
 40
0.0346566
100
AcDbArc
 50
179.9368289999995
 51
249.3921360000019
  0
LINE
  5
7A7
330
1F
100
AcDbEntity
  8
OBJECT2
100
AcDbLine
 10
8.885447128988701
 20
12.69898384556451
 30
0.0
 11
9.285828277257408
 21
13.09936810510301
 31
0.0
  0
LINE
  5
7A8
330
1F
100
AcDbEntity
  8
OBJECT1
100
AcDbLine
 10
9.461033993418325
 20
12.87555035337046
 30
0.0
 11
9.285829055074785
 21
13.05075529171389
 31
0.0
  0
LINE
  5
7A9
330
1F
100
AcDbEntity
  8
OBJECT1
100
AcDbLine
 10
10.08259819422024
 20
13.09392151356799
 30
0.0
 11
10.08259897203773
 21
12.89673623164204
 31
0.0
  0
LINE
  5
7AA
330
1F
100
AcDbEntity
  8
OBJECT1
100
AcDbLine
 10
10.77011532449621
 20
13.09392268029423
 30
0.0
 11
10.77011649122228
 21
12.89676967779282
 31
0.0
  0
ARC
  5
7AB
330
1F
100
AcDbEntity
  8
OBJECT1
100
AcDbCircle
 10
10.95852526984624
 20
12.92929994848466
 30
0.0
 40
0.01097635
100
AcDbArc
 50
359.810264999997
 51
90.09292599999564
  0
ARC
  5
7AC
330
1F
100
AcDbEntity
  8
OBJECT1
100
AcDbCircle
 10
11.11917959482612
 20
12.94348792014201
 30
0.0
 40
0.01100055
100
AcDbArc
 50
270.2105709999933
 51
0.0540920000048819
  0
ARC
  5
7AD
330
1F
100
AcDbEntity
  8
OBJECT1
100
AcDbCircle
 10
11.07315298879377
 20
12.94348792014201
 30
0.0
 40
0.01100055
100
AcDbArc
 50
179.9459079999951
 51
269.7894290000066
  0
ARC
  5
7AE
330
1F
100
AcDbEntity
  8
OBJECT1
100
AcDbCircle
 10
4.551732410093634
 20
12.94350749035859
 30
0.0
 40
0.0110275
100
AcDbArc
 50
180.1744160000012
 51
269.912917999994
  0
ARC
  5
7AF
330
1F
100
AcDbEntity
  8
OBJECT1
100
AcDbCircle
 10
4.712428946183493
 20
12.92924091982635
 30
0.0
 40
0.0110275
100
AcDbArc
 50
90.08707600000354
 51
180.0
  0
ARC
  5
7B0
330
1F
100
AcDbEntity
  8
OBJECT1
100
AcDbCircle
 10
4.597789696183397
 20
12.94344081982639
 30
0.0
 40
0.0109604
100
AcDbArc
 50
270.0
 51
0.1754760000010556
  0
LINE
  5
7B1
330
1F
100
AcDbEntity
  8
OBJECT1
100
AcDbLine
 10
4.900819896183477
 20
13.09389826982637
 30
0.0
 11
4.900819896183477
 21
12.89677936982635
 31
0.0
  0
LINE
  5
7B2
330
1F
100
AcDbEntity
  8
OBJECT1
100
AcDbLine
 10
5.588286346183579
 20
13.09389826982637
 30
0.0
 11
5.588303396183576
 21
12.8967458198264
 31
0.0
  0
LINE
  5
7B3
330
1F
100
AcDbEntity
  8
OBJECT1
100
AcDbLine
 10
10.80447463294349
 20
12.45123778164653
 30
0.0
 11
10.8044742440348
 21
12.21091435451872
 31
0.0
  0
LINE
  5
7B4
330
1F
100
AcDbEntity
  8
OBJECT2
100
AcDbLine
 10
10.80447502185218
 20
12.86373732593104
 30
0.0
 11
10.80447502185218
 21
12.86373732593104
 31
0.0
  0
LINE
  5
7B5
330
1F
100
AcDbEntity
  8
OBJECT2
100
AcDbLine
 10
10.80447502185218
 20
12.86373732593104
 30
0.0
 11
10.80447502185218
 21
12.86373732593104
 31
0.0
  0
LINE
  5
7B6
330
1F
100
AcDbEntity
  8
OBJECT1
100
AcDbLine
 10
10.77011649122228
 20
12.89676967779282
 30
0.0
 11
10.8044742440348
 21
12.89673623164204
 31
0.0
  0
LINE
  5
7B7
330
1F
100
AcDbEntity
  8
OBJECT1
100
AcDbLine
 10
10.8044742440348
 20
12.89673623164204
 30
0.0
 11
10.80447502185218
 21
12.86373732593104
 31
0.0
  0
LINE
  5
7B8
330
1F
100
AcDbEntity
  8
OBJECT1
100
AcDbLine
 10
10.86024958949788
 20
12.86373615920492
 30
0.0
 11
10.9099828489371
 21
12.935575768655
 31
0.0
  0
ARC
  5
7B9
330
1F
100
AcDbEntity
  8
OBJECT2
100
AcDbCircle
 10
10.91444868787978
 20
12.88911634290197
 30
0.0
 40
0.010945
100
AcDbArc
 50
179.4796449999994
 51
270.3456419999986
  0
ARC
  5
7BA
330
1F
100
AcDbEntity
  8
OBJECT2
100
AcDbCircle
 10
10.91446502204628
 20
12.90599731522134
 30
0.0
 40
0.0109813
100
AcDbArc
 50
89.82775900000206
 51
179.808395
  0
LINE
  5
7BB
330
1F
100
AcDbEntity
  8
OBJECT2
100
AcDbLine
 10
10.90350440731863
 20
12.88921551462814
 30
0.0
 11
10.90348573969954
 21
12.90603426155066
 31
0.0
  0
ARC
  5
7BC
330
1F
100
AcDbEntity
  8
OBJECT1
100
AcDbCircle
 10
10.91923848779408
 20
12.92889859467563
 30
0.0
 40
0.01141195
100
AcDbArc
 50
91.13781699999373
 51
144.1926269999953
  0
LINE
  5
7BD
330
1F
100
AcDbEntity
  8
OBJECT1
100
AcDbLine
 10
10.80447502185218
 20
12.86373732593104
 30
0.0
 11
10.86024958949788
 21
12.86373615920492
 31
0.0
  0
LINE
  5
7BE
330
1F
100
AcDbEntity
  8
OBJECT2
100
AcDbLine
 10
10.86030014763282
 20
12.86373615920492
 30
0.0
 11
10.93165284335346
 21
12.86373732593104
 31
0.0
  0
LINE
  5
7BF
330
1F
100
AcDbEntity
  8
OBJECT2
100
AcDbLine
 10
10.96951855290736
 20
12.51998634451333
 30
0.0
 11
10.96950182983205
 21
12.79502143139753
 31
0.0
  0
LINE
  5
7C0
330
1F
100
AcDbEntity
  8
OBJECT2
100
AcDbLine
 10
11.24618122282511
 20
12.57500837376712
 30
0.0
 11
11.25668720324786
 21
12.65748658151695
 31
0.0
  0
LINE
  5
7C1
330
1F
100
AcDbEntity
  8
OBJECT1
100
AcDbLine
 10
11.25672064939858
 20
12.7765572116398
 30
0.0
 11
11.25668642543037
 21
12.53841595139416
 31
0.0
  0
LINE
  5
7C2
330
1F
100
AcDbEntity
  8
OBJECT2
100
AcDbLine
 10
11.02739167205818
 20
12.55436159821859
 30
0.0
 11
11.03821694654807
 21
12.65748658151695
 31
0.0
  0
LINE
  5
7C3
330
1F
100
AcDbEntity
  8
OBJECT2
100
AcDbLine
 10
11.11921963457753
 20
12.65748658151695
 30
0.0
 11
11.12972794845286
 21
12.57500759594969
 31
0.0
  0
LINE
  5
7C4
330
1F
100
AcDbEntity
  8
OBJECT2
100
AcDbLine
 10
11.11921963457753
 20
12.53851628984639
 30
0.0
 11
11.11922041239502
 21
12.77645609537003
 31
0.0
  0
LINE
  5
7C5
330
1F
100
AcDbEntity
  8
OBJECT2
100
AcDbLine
 10
11.03818350039723
 20
12.57500681813225
 30
0.0
 11
11.03821733545687
 21
12.74003440392933
 31
0.0
  0
LINE
  5
7C6
330
1F
100
AcDbEntity
  8
OBJECT2
100
AcDbLine
 10
11.07319578660174
 20
12.74000017996117
 30
0.0
 11
11.07311372685974
 21
12.57500837376712
 31
0.0
  0
LINE
  5
7C7
330
1F
100
AcDbEntity
  8
OBJECT2
100
AcDbLine
 10
10.99701089991522
 20
12.79502065358004
 30
0.0
 11
10.99701051100642
 21
12.52002056848154
 31
0.0
  0
LINE
  5
7C8
330
1F
100
AcDbEntity
  8
OBJECT1
100
AcDbLine
 10
11.02735861481615
 20
12.4622473988742
 30
0.0
 11
11.03818311148855
 21
12.50830547081826
 31
0.0
  0
LINE
  5
7C9
330
1F
100
AcDbEntity
  8
OBJECT2
100
AcDbLine
 10
11.02739167205818
 20
12.55436159821859
 30
0.0
 11
11.03818311148855
 21
12.50830547081826
 31
0.0
  0
LINE
  5
7CA
330
1F
100
AcDbEntity
  8
OBJECT1
100
AcDbLine
 10
10.99701051100642
 20
12.52002056848154
 30
0.0
 11
10.96951855290736
 21
12.51998634451333
 31
0.0
  0
LINE
  5
7CB
330
1F
100
AcDbEntity
  8
OBJECT1
100
AcDbLine
 10
10.96951855290736
 20
12.51998634451333
 30
0.0
 11
10.96948432893903
 21
12.45123661492024
 31
0.0
  0
LINE
  5
7CC
330
1F
100
AcDbEntity
  8
OBJECT2
100
AcDbLine
 10
11.02739167205818
 20
12.55436159821859
 30
0.0
 11
10.99701089991522
 21
12.55436159821859
 31
0.0
  0
LINE
  5
7CD
330
1F
100
AcDbEntity
  8
OBJECT1
100
AcDbLine
 10
11.02735861481615
 20
12.4622473988742
 30
0.0
 11
10.9970284008079
 21
12.4622473988742
 31
0.0
  0
LINE
  5
7CE
330
1F
100
AcDbEntity
  8
OBJECT1
100
AcDbLine
 10
10.9970284008079
 20
12.4622473988742
 30
0.0
 11
10.99701051100642
 21
12.52002056848154
 31
0.0
  0
LINE
  5
7CF
330
1F
100
AcDbEntity
  8
OBJECT2
100
AcDbLine
 10
11.18795458563893
 20
12.57500759594969
 30
0.0
 11
11.12972794845286
 21
12.57500759594969
 31
0.0
  0
LINE
  5
7D0
330
1F
100
AcDbEntity
  8
OBJECT2
100
AcDbLine
 10
11.25668642543037
 20
12.53841595139416
 30
0.0
 11
11.24618122282511
 21
12.57500837376712
 31
0.0
  0
LINE
  5
7D1
330
1F
100
AcDbEntity
  8
OBJECT2
100
AcDbLine
 10
11.18795458563893
 20
12.57500759594969
 30
0.0
 11
11.24618122282511
 21
12.57500837376712
 31
0.0
  0
LINE
  5
7D2
330
1F
100
AcDbEntity
  8
OBJECT2
100
AcDbLine
 10
11.12972794845286
 20
12.57500759594969
 30
0.0
 11
11.11921963457753
 21
12.53851628984639
 31
0.0
  0
LINE
  5
7D3
330
1F
100
AcDbEntity
  8
OBJECT1
100
AcDbLine
 10
11.07311372685974
 20
12.57500837376712
 30
0.0
 11
11.03818350039723
 21
12.57500681813225
 31
0.0
  0
LINE
  5
7D4
330
1F
100
AcDbEntity
  8
OBJECT1
100
AcDbLine
 10
11.07311372685974
 20
12.57500837376712
 30
0.0
 11
11.03818350039723
 21
12.57500681813225
 31
0.0
  0
LINE
  5
7D5
330
1F
100
AcDbEntity
  8
OBJECT1
100
AcDbLine
 10
11.24720444169265
 20
12.50350400364194
 30
0.0
 11
11.12875450990243
 21
12.50350555927686
 31
0.0
  0
LINE
  5
7D6
330
1F
100
AcDbEntity
  8
OBJECT1
100
AcDbLine
 10
11.24720444169265
 20
12.50350400364194
 30
0.0
 11
11.25668642543037
 21
12.53841595139416
 31
0.0
  0
LINE
  5
7D7
330
1F
100
AcDbEntity
  8
OBJECT1
100
AcDbLine
 10
11.03818350039723
 20
12.57500681813225
 30
0.0
 11
11.03818311148855
 21
12.50830547081826
 31
0.0
  0
LINE
  5
7D8
330
1F
100
AcDbEntity
  8
OBJECT1
100
AcDbLine
 10
11.11921963457753
 20
12.53851628984639
 30
0.0
 11
11.12875450990243
 21
12.50350555927686
 31
0.0
  0
ARC
  5
7D9
330
1F
100
AcDbEntity
  8
OBJECT1
100
AcDbCircle
 10
11.07310183502029
 20
12.37153564191017
 30
0.0
 40
0.0109505
100
AcDbArc
 50
89.85638400000137
 51
180.1474880000013
  0
LINE
  5
7DA
330
1F
100
AcDbEntity
  8
OBJECT2
100
AcDbLine
 10
11.1191869662443
 20
12.38248610750971
 30
0.0
 11
11.07312928320898
 21
12.38248766314463
 31
0.0
  0
ARC
  5
7DB
330
1F
100
AcDbEntity
  8
OBJECT1
100
AcDbCircle
 10
11.11921441443298
 20
12.37153564191017
 30
0.0
 40
0.0109505
100
AcDbArc
 50
359.8525119999987
 51
90.1436159999986
  0
LINE
  5
7DC
330
1F
100
AcDbEntity
  8
OBJECT1
100
AcDbLine
 10
11.07312928320898
 20
12.38248766314463
 30
0.0
 11
11.07311372685974
 21
12.57500837376712
 31
0.0
  0
LINE
  5
7DD
330
1F
100
AcDbEntity
  8
OBJECT1
100
AcDbLine
 10
11.11921963457753
 20
12.53851628984639
 30
0.0
 11
11.1191869662443
 21
12.38248610750971
 31
0.0
  0
LINE
  5
7DE
330
1F
100
AcDbEntity
  8
OBJECT1
100
AcDbLine
 10
11.07311926357529
 20
12.91698363681197
 30
0.0
 11
10.96946721695504
 21
12.91701082153641
 31
0.0
  0
LINE
  5
7DF
330
1F
100
AcDbEntity
  8
OBJECT1
100
AcDbLine
 10
11.07313604502321
 20
12.87817128452345
 30
0.0
 11
10.96948510675663
 21
12.87817128452339
 31
0.0
  0
LINE
  5
7E0
330
1F
100
AcDbEntity
  8
OBJECT2
100
AcDbLine
 10
11.02739167205818
 20
12.76064578878347
 30
0.0
 11
11.03821772436556
 21
12.80670308291009
 31
0.0
  0
LINE
  5
7E1
330
1F
100
AcDbEntity
  8
OBJECT1
100
AcDbLine
 10
11.02732400193924
 20
12.85276037703666
 30
0.0
 11
11.03821772436556
 21
12.80670308291009
 31
0.0
  0
LINE
  5
7E2
330
1F
100
AcDbEntity
  8
OBJECT2
100
AcDbLine
 10
11.02739167205818
 20
12.76064578878347
 30
0.0
 11
11.03821694654807
 21
12.65748658151695
 31
0.0
  0
LINE
  5
7E3
330
1F
100
AcDbEntity
  8
OBJECT1
100
AcDbLine
 10
10.99701089991522
 20
12.79502065358004
 30
0.0
 11
10.96950182983205
 21
12.79502143139753
 31
0.0
  0
LINE
  5
7E4
330
1F
100
AcDbEntity
  8
OBJECT1
100
AcDbLine
 10
10.96948510675663
 20
12.87817128452339
 30
0.0
 11
10.96950182983205
 21
12.79502143139753
 31
0.0
  0
LINE
  5
7E5
330
1F
100
AcDbEntity
  8
OBJECT1
100
AcDbLine
 10
10.96946721695504
 20
12.91701082153641
 30
0.0
 11
10.96950144092325
 21
12.92926377997277
 31
0.0
  0
LINE
  5
7E6
330
1F
100
AcDbEntity
  8
OBJECT2
100
AcDbLine
 10
11.02739167205818
 20
12.76064578878347
 30
0.0
 11
10.9970116777326
 21
12.76064578878347
 31
0.0
  0
LINE
  5
7E7
330
1F
100
AcDbEntity
  8
OBJECT1
100
AcDbLine
 10
11.02732400193924
 20
12.85276037703666
 30
0.0
 11
10.99704551279212
 21
12.85275921031043
 31
0.0
  0
LINE
  5
7E8
330
1F
100
AcDbEntity
  8
OBJECT1
100
AcDbLine
 10
10.99704551279212
 20
12.85275921031043
 30
0.0
 11
10.99701089991522
 21
12.79502065358004
 31
0.0
  0
LINE
  5
7E9
330
1F
100
AcDbEntity
  8
OBJECT2
100
AcDbLine
 10
11.18803781210699
 20
12.74000134668735
 30
0.0
 11
11.12972755954406
 21
12.74000095777861
 31
0.0
  0
LINE
  5
7EA
330
1F
100
AcDbEntity
  8
OBJECT1
100
AcDbLine
 10
11.12877006625156
 20
12.81150260554269
 30
0.0
 11
11.24721999804189
 21
12.81150338336012
 31
0.0
  0
LINE
  5
7EB
330
1F
100
AcDbEntity
  8
OBJECT2
100
AcDbLine
 10
11.25668720324786
 20
12.77659065779058
 30
0.0
 11
11.24618005609882
 21
12.74000017996117
 31
0.0
  0
LINE
  5
7EC
330
1F
100
AcDbEntity
  8
OBJECT2
100
AcDbLine
 10
11.18803781210699
 20
12.74000134668735
 30
0.0
 11
11.24618005609882
 21
12.74000017996117
 31
0.0
  0
LINE
  5
7ED
330
1F
100
AcDbEntity
  8
OBJECT1
100
AcDbLine
 10
11.24721999804189
 20
12.81150338336012
 30
0.0
 11
11.25668720324786
 21
12.77659065779058
 31
0.0
  0
LINE
  5
7EE
330
1F
100
AcDbEntity
  8
OBJECT2
100
AcDbLine
 10
11.25668720324786
 20
12.65748658151695
 30
0.0
 11
11.24618005609882
 21
12.74000017996117
 31
0.0
  0
LINE
  5
7EF
330
1F
100
AcDbEntity
  8
OBJECT2
100
AcDbLine
 10
11.07311926357529
 20
12.91698363681197
 30
0.0
 11
11.07313604502321
 21
12.87817128452345
 31
0.0
  0
LINE
  5
7F0
330
1F
100
AcDbEntity
  8
OBJECT1
100
AcDbLine
 10
11.07313604502321
 20
12.87817128452345
 30
0.0
 11
11.07319578660174
 21
12.74000017996117
 31
0.0
  0
LINE
  5
7F1
330
1F
100
AcDbEntity
  8
OBJECT1
100
AcDbLine
 10
11.07311926357529
 20
12.91698363681197
 30
0.0
 11
11.07311256013367
 21
12.93248744443294
 31
0.0
  0
LINE
  5
7F2
330
1F
100
AcDbEntity
  8
OBJECT1
100
AcDbLine
 10
11.03821811327425
 20
12.74000095777861
 30
0.0
 11
11.03821772436556
 21
12.80670308291009
 31
0.0
  0
LINE
  5
7F3
330
1F
100
AcDbEntity
  8
OBJECT2
100
AcDbLine
 10
11.11922041239502
 20
12.77645609537003
 30
0.0
 11
11.12972755954406
 21
12.74000095777861
 31
0.0
  0
LINE
  5
7F4
330
1F
100
AcDbEntity
  8
OBJECT1
100
AcDbLine
 10
11.11922041239502
 20
12.77645609537003
 30
0.0
 11
11.11922002348622
 21
12.93248666661545
 31
0.0
  0
LINE
  5
7F5
330
1F
100
AcDbEntity
  8
OBJECT1
100
AcDbLine
 10
11.11922041239502
 20
12.77645609537003
 30
0.0
 11
11.12877006625156
 21
12.81150260554269
 31
0.0
  0
LINE
  5
7F6
330
1F
100
AcDbEntity
  8
OBJECT2
100
AcDbLine
 10
11.11922002348622
 20
12.93248666661545
 30
0.0
 11
11.07311256013367
 21
12.93248744443294
 31
0.0
  0
LINE
  5
7F7
330
1F
100
AcDbEntity
  8
OBJECT1
100
AcDbLine
 10
11.07319578660174
 20
12.74000017996117
 30
0.0
 11
11.07313604502321
 21
12.87817128452345
 31
0.0
  0
LINE
  5
7F8
330
1F
100
AcDbEntity
  8
OBJECT1
100
AcDbLine
 10
11.07311256013367
 20
12.93248744443294
 30
0.0
 11
11.07311926357529
 21
12.91698363681197
 31
0.0
  0
LINE
  5
7F9
330
1F
100
AcDbEntity
  8
OBJECT1
100
AcDbLine
 10
11.07319578660174
 20
12.74000017996117
 30
0.0
 11
11.03821733545687
 21
12.74003440392933
 31
0.0
  0
LINE
  5
7FA
330
1F
100
AcDbEntity
  8
OBJECT2
100
AcDbLine
 10
11.12972755954406
 20
12.74000095777861
 30
0.0
 11
11.11921963457753
 21
12.65748658151695
 31
0.0
  0
LINE
  5
7FB
330
1F
100
AcDbEntity
  8
OBJECT1
100
AcDbLine
 10
6.217120598300155
 20
12.68739828116692
 30
0.0
 11
6.494872990478327
 21
12.68738194700025
 31
0.0
  0
LINE
  5
7FC
330
1F
100
AcDbEntity
  8
OBJECT1
100
AcDbLine
 10
6.494874157204506
 20
12.18486558815023
 30
0.0
 11
6.217121765026334
 21
12.18488192231697
 31
0.0
  0
LINE
  5
7FD
330
1F
100
AcDbEntity
  8
OBJECT1
100
AcDbLine
 10
6.182745733503637
 20
12.65302341637035
 30
0.0
 11
6.182746511321013
 21
12.21925795383966
 31
0.0
  0
ARC
  5
7FE
330
1F
100
AcDbEntity
  8
OBJECT1
100
AcDbCircle
 10
6.217101152863577
 20
12.21923850840314
 30
0.0
 40
0.03435465
100
AcDbArc
 50
179.9672239999996
 51
270.0346369999964
  0
ARC
  5
7FF
330
1F
100
AcDbEntity
  8
OBJECT1
100
AcDbCircle
 10
6.217129154292209
 20
12.6530140825608
 30
0.0
 40
0.0343838
100
AcDbArc
 50
90.01359899999034
 51
179.985168
  0
LINE
  5
800
330
1F
100
AcDbEntity
  8
OBJECT1
100
AcDbLine
 10
10.05980580921023
 20
12.52404810728583
 30
0.0
 11
10.0598719236943
 21
12.89673467600717
 31
0.0
  0
LINE
  5
801
330
1F
100
AcDbEntity
  8
OBJECT1
100
AcDbLine
 10
9.109264102903765
 20
12.52378046285607
 30
0.0
 11
8.934058775651763
 21
12.69898501229069
 31
0.0
  0
LINE
  5
802
330
1F
100
AcDbEntity
  8
OBJECT1
100
AcDbLine
 10
9.461032826692033
 20
12.82693559543766
 30
0.0
 11
9.157876138475515
 21
12.52378201849099
 31
0.0
  0
LINE
  5
803
330
1F
100
AcDbEntity
  8
OBJECT1
100
AcDbLine
 10
8.635477598639525
 20
12.44901431521522
 30
0.0
 11
8.885447128988701
 21
12.69898384556451
 31
0.0
  0
ARC
  5
804
330
1F
100
AcDbEntity
  8
OBJECT1
100
AcDbCircle
 10
8.091507069387105
 20
12.57208759398363
 30
0.0
 40
0.0329274
100
AcDbArc
 50
134.9142060000046
 51
204.219603999999
  0
LINE
  5
805
330
1F
100
AcDbEntity
  8
OBJECT1
100
AcDbLine
 10
8.544573294353043
 20
12.4903335342885
 30
0.0
 11
8.27719426472079
 21
12.75773045372218
 31
0.0
  0
LINE
  5
806
330
1F
100
AcDbEntity
  8
OBJECT2
100
AcDbLine
 10
7.024252844029959
 20
12.7147610949091
 30
0.0
 11
7.024251288394978
 21
12.20271219418654
 31
0.0
  0
LINE
  5
807
330
1F
100
AcDbEntity
  8
OBJECT2
100
AcDbLine
 10
7.85475810239366
 20
12.33254081758902
 30
0.0
 11
7.854757713484858
 21
12.75272908745884
 31
0.0
  0
LINE
  5
808
330
1F
100
AcDbEntity
  8
OBJECT2
100
AcDbLine
 10
7.667743561565501
 20
12.22414650991262
 30
0.0
 11
7.667742394839322
 21
12.87710287701926
 31
0.0
  0
LINE
  5
809
330
1F
100
AcDbEntity
  8
OBJECT2
100
AcDbLine
 10
6.507222162411679
 20
12.60347855638112
 30
0.0
 11
6.507220606776812
 21
12.3139943434643
 31
0.0
  0
ARC
  5
80A
330
1F
100
AcDbEntity
  8
OBJECT2
100
AcDbCircle
 10
7.865792609780058
 20
12.47089237580191
 30
0.0
 40
0.21443235
100
AcDbArc
 50
24.13735999999776
 51
84.62607199999231
  0
LINE
  5
80B
330
1F
100
AcDbEntity
  8
OBJECT2
100
AcDbLine
 10
6.617227330046219
 20
12.5474694767715
 30
0.0
 11
6.525920116315958
 21
12.54745236478739
 31
0.0
  0
LINE
  5
80C
330
1F
100
AcDbEntity
  8
OBJECT2
100
AcDbLine
 10
6.525920116315958
 20
12.54745236478739
 30
0.0
 11
6.507221773502877
 21
12.5805006619071
 31
0.0
  0
LINE
  5
80D
330
1F
100
AcDbEntity
  8
OBJECT2
100
AcDbLine
 10
6.525920116315958
 20
12.54745236478739
 30
0.0
 11
6.507221773502877
 21
12.4752954058139
 31
0.0
  0
LINE
  5
80E
330
1F
100
AcDbEntity
  8
OBJECT2
100
AcDbLine
 10
6.617227718955021
 20
12.28645066050412
 30
0.0
 11
6.525919727407156
 21
12.28648332883741
 31
0.0
  0
LINE
  5
80F
330
1F
100
AcDbEntity
  8
OBJECT2
100
AcDbLine
 10
6.617227718955021
 20
12.37000536761754
 30
0.0
 11
6.525919727407156
 21
12.37003803595083
 31
0.0
  0
ARC
  5
810
330
1F
100
AcDbEntity
  8
OBJECT1
100
AcDbCircle
 10
6.494890102462321
 20
12.15053933694499
 30
0.0
 40
0.03432605
100
AcDbArc
 50
359.9188999999963
 51
90.02631399999597
  0
LINE
  5
811
330
1F
100
AcDbEntity
  8
OBJECT2
100
AcDbLine
 10
6.525919727407156
 20
12.37003803595083
 30
0.0
 11
6.507222162411679
 21
12.33695551486291
 31
0.0
  0
LINE
  5
812
330
1F
100
AcDbEntity
  8
OBJECT2
100
AcDbLine
 10
6.525919727407156
 20
12.28648332883741
 30
0.0
 11
6.507220606776812
 21
12.3139943434643
 31
0.0
  0
LINE
  5
813
330
1F
100
AcDbEntity
  8
OBJECT2
100
AcDbLine
 10
6.529223471440062
 20
12.28648214681802
 30
0.0
 11
6.529215575850301
 21
12.15049072335377
 31
0.0
  0
LINE
  5
814
330
1F
100
AcDbEntity
  8
OBJECT2
100
AcDbLine
 10
6.525919727407156
 20
12.37003803595083
 30
0.0
 11
6.507222162411679
 21
12.44216154877366
 31
0.0
  0
LINE
  5
815
330
1F
100
AcDbEntity
  8
OBJECT2
100
AcDbLine
 10
6.947244637562747
 20
12.28948823230782
 30
0.0
 11
7.024217842244254
 21
12.28950573320062
 31
0.0
  0
ARC
  5
816
330
1F
100
AcDbEntity
  8
OBJECT1
100
AcDbCircle
 10
7.866430420096733
 20
12.47098726953188
 30
0.0
 40
0.2138136
100
AcDbArc
 50
359.9669039999992
 51
24.18408999999462
  0
LINE
  5
817
330
1F
100
AcDbEntity
  8
OBJECT2
100
AcDbLine
 10
8.567901984501261
 20
12.49033470101462
 30
0.0
 11
8.544573294353043
 21
12.4903335342885
 31
0.0
  0
LINE
  5
818
330
1F
100
AcDbEntity
  8
OBJECT2
100
AcDbLine
 10
8.556722414158528
 20
12.47915668630692
 30
0.0
 11
8.556722414158528
 21
12.47915668630692
 31
0.0
  0
ARC
  5
819
330
1F
100
AcDbEntity
  8
OBJECT1
100
AcDbCircle
 10
8.611170803036159
 20
12.47332422208838
 30
0.0
 40
0.0343772
100
AcDbArc
 50
225.0035100000049
 51
314.9960629999987
  0
LINE
  5
81A
330
1F
100
AcDbEntity
  8
OBJECT1
100
AcDbLine
 10
8.556722414158528
 20
12.47915668630692
 30
0.0
 11
8.586864007432907
 21
12.44901431521522
 31
0.0
  0
ARC
  5
81B
330
1F
100
AcDbEntity
  8
OBJECT1
100
AcDbCircle
 10
9.133569342872263
 20
12.54809581445138
 30
0.0
 40
0.03437995
100
AcDbArc
 50
225.0122379999954
 51
314.9916989999975
  0
LINE
  5
81C
330
1F
100
AcDbEntity
  8
OBJECT1
100
AcDbLine
 10
10.04827427646735
 20
12.21094818957831
 30
0.0
 11
10.04824083031663
 21
12.52273942941055
 31
0.0
  0
LINE
  5
81D
330
1F
100
AcDbEntity
  8
OBJECT2
100
AcDbLine
 10
6.617230794578134
 20
12.63102262859157
 30
0.0
 11
6.525919338498468
 21
12.63100629408344
 31
0.0
  0
LINE
  5
81E
330
1F
100
AcDbEntity
  8
OBJECT2
100
AcDbLine
 10
6.529248244183648
 20
12.71316093077379
 30
0.0
 11
6.529243474363468
 21
12.63100688873091
 31
0.0
  0
ARC
  5
81F
330
1F
100
AcDbEntity
  8
OBJECT1
100
AcDbCircle
 10
6.253686963788211
 20
12.80037976730957
 30
0.0
 40
0.27556155
100
AcDbArc
 50
359.9957579999965
 51
9.971405000003036
  0
LINE
  5
820
330
1F
100
AcDbEntity
  8
OBJECT1
100
AcDbLine
 10
6.529248244183648
 20
12.80035954405561
 30
0.0
 11
6.529249022001025
 21
12.72179064685624
 31
0.0
  0
ARC
  5
821
330
1F
100
AcDbEntity
  8
OBJECT1
100
AcDbCircle
 10
6.494863656668783
 20
12.72176770124124
 30
0.0
 40
0.03438545
100
AcDbArc
 50
270.015762000003
 51
0.0386200000043527
  0
LINE
  5
822
330
1F
100
AcDbEntity
  8
OBJECT2
100
AcDbLine
 10
6.525919338498468
 20
12.63100629408344
 30
0.0
 11
6.507222162411679
 21
12.60347855638112
 31
0.0
  0
LINE
  5
823
330
1F
100
AcDbEntity
  8
OBJECT2
100
AcDbLine
 10
6.947244637562747
 20
12.61927350124371
 30
0.0
 11
7.024252455121271
 21
12.61929061322776
 31
0.0
  0
LINE
  5
824
330
1F
100
AcDbEntity
  8
OBJECT2
100
AcDbLine
 10
7.82038168196216
 20
12.78713700949739
 30
0.0
 11
7.702116870727152
 21
12.78710356334666
 31
0.0
  0
ARC
  5
825
330
1F
100
AcDbEntity
  8
OBJECT2
100
AcDbCircle
 10
7.820230396466357
 20
12.75260852575271
 30
0.0
 40
0.034529
100
AcDbArc
 50
0.2000270000043067
 51
89.74889800000187
  0
ARC
  5
826
330
1F
100
AcDbEntity
  8
OBJECT2
100
AcDbCircle
 10
7.889196359313089
 20
12.71866223837619
 30
0.0
 40
0.03444045
100
AcDbArc
 50
180.0394900000009
 51
264.4665989999988
  0
ARC
  5
827
330
1F
100
AcDbEntity
  8
OBJECT2
100
AcDbCircle
 10
7.702183374119911
 20
12.82154415371851
 30
0.0
 40
0.03444045
100
AcDbArc
 50
180.1098329999966
 51
269.8895570000004
  0
LINE
  5
828
330
1F
100
AcDbEntity
  8
OBJECT2
100
AcDbLine
 10
7.64541942266608
 20
12.90921157064806
 30
0.0
 11
7.60221477407147
 21
12.92546017737296
 31
0.0
  0
ARC
  5
829
330
1F
100
AcDbEntity
  8
OBJECT2
100
AcDbCircle
 10
7.633478757939499
 20
12.87709743229705
 30
0.0
 40
0.0342628
100
AcDbArc
 50
359.9243320000029
 51
69.60372899999796
  0
LINE
  5
82A
330
1F
100
AcDbEntity
  8
OBJECT1
100
AcDbLine
 10
8.068258883345905
 20
12.59540578359612
 30
0.0
 11
8.27719426472079
 21
12.80439172310595
 31
0.0
  0
ARC
  5
82B
330
1F
100
AcDbEntity
  8
OBJECT2
100
AcDbCircle
 10
8.253918855068675
 20
12.82770602363117
 30
0.0
 40
0.0329439
100
AcDbArc
 50
314.9525600000016
 51
45.04743999999832
  0
LINE
  5
82C
330
1F
100
AcDbEntity
  8
OBJECT2
100
AcDbLine
 10
8.27719426472079
 20
12.80439172310595
 30
0.0
 11
8.27719426472079
 21
12.80439172310595
 31
0.0
  0
ARC
  5
82D
330
1F
100
AcDbEntity
  8
OBJECT1
100
AcDbCircle
 10
8.300507398519769
 20
12.78106147732281
 30
0.0
 40
0.03298185
100
AcDbArc
 50
134.9790429999996
 51
225.0218810000037
  0
ARC
  5
82E
330
1F
100
AcDbEntity
  8
OBJECT1
100
AcDbCircle
 10
8.909753146774463
 20
12.67467549432628
 30
0.0
 40
0.0343761
100
AcDbArc
 50
45.00524100000087
 51
134.9969400000003
  0
ARC
  5
82F
330
1F
100
AcDbEntity
  8
OBJECT1
100
AcDbCircle
 10
9.436725253271291
 20
12.85124316885841
 30
0.0
 40
0.03437665
100
AcDbArc
 50
314.9999999999954
 51
44.99825299999881
  0
LINE
  5
830
330
1F
100
AcDbEntity
  8
OBJECT2
100
AcDbLine
 10
9.309454093675142
 20
12.67535997369051
 30
0.0
 11
9.085636730851277
 21
12.89917655869682
 31
0.0
  0
LINE
  5
831
330
1F
100
AcDbEntity
  8
OBJECT2
100
AcDbLine
 10
4.414232696183674
 20
12.53835976982636
 30
0.0
 11
4.424773446183465
 21
12.57505081982636
 31
0.0
  0
LINE
  5
832
330
1F
100
AcDbEntity
  8
OBJECT2
100
AcDbLine
 10
4.414182096183552
 20
12.65749691982639
 30
0.0
 11
4.424722846183684
 21
12.73997711982635
 31
0.0
  0
LINE
  5
833
330
1F
100
AcDbEntity
  8
OBJECT2
100
AcDbLine
 10
4.414232696183674
 20
12.77660106982639
 30
0.0
 11
4.424722846183684
 21
12.73997711982635
 31
0.0
  0
LINE
  5
834
330
1F
100
AcDbEntity
  8
OBJECT1
100
AcDbLine
 10
4.42374934618347
 20
12.81147986982639
 30
0.0
 11
4.414232696183674
 21
12.77660106982639
 31
0.0
  0
LINE
  5
835
330
1F
100
AcDbEntity
  8
OBJECT2
100
AcDbLine
 10
4.424773446183465
 20
12.57505081982636
 30
0.0
 11
4.414182096183552
 21
12.65749691982639
 31
0.0
  0
LINE
  5
836
330
1F
100
AcDbEntity
  8
OBJECT1
100
AcDbLine
 10
4.414148546183426
 20
12.77656751982638
 30
0.0
 11
4.414232696183674
 21
12.53835976982636
 31
0.0
  0
LINE
  5
837
330
1F
100
AcDbEntity
  8
OBJECT2
100
AcDbLine
 10
4.551682096183597
 20
12.53849396982641
 30
0.0
 11
4.551682096183597
 21
12.77643331982639
 31
0.0
  0
LINE
  5
838
330
1F
100
AcDbEntity
  8
OBJECT2
100
AcDbLine
 10
4.541174896183591
 20
12.73997711982635
 30
0.0
 11
4.551665046183487
 21
12.65749691982639
 31
0.0
  0
LINE
  5
839
330
1F
100
AcDbEntity
  8
OBJECT2
100
AcDbLine
 10
4.541141346183465
 20
12.57505081982636
 30
0.0
 11
4.551682096183597
 21
12.53849396982641
 31
0.0
  0
LINE
  5
83A
330
1F
100
AcDbEntity
  8
OBJECT2
100
AcDbLine
 10
4.551665046183487
 20
12.65749691982639
 30
0.0
 11
4.541141346183465
 21
12.57505081982636
 31
0.0
  0
LINE
  5
83B
330
1F
100
AcDbEntity
  8
OBJECT2
100
AcDbLine
 10
4.551682096183597
 20
12.77643331982639
 30
0.0
 11
4.541174896183591
 21
12.73997711982635
 31
0.0
  0
LINE
  5
83C
330
1F
100
AcDbEntity
  8
OBJECT1
100
AcDbLine
 10
4.551682096183597
 20
12.77643331982639
 30
0.0
 11
4.542148396183463
 21
12.81147986982639
 31
0.0
  0
LINE
  5
83D
330
1F
100
AcDbEntity
  8
OBJECT2
100
AcDbLine
 10
4.541141346183465
 20
12.57505081982636
 30
0.0
 11
4.424773446183465
 21
12.57505081982636
 31
0.0
  0
LINE
  5
83E
330
1F
100
AcDbEntity
  8
OBJECT2
100
AcDbLine
 10
4.541174896183591
 20
12.73997711982635
 30
0.0
 11
4.424722846183684
 21
12.73997711982635
 31
0.0
  0
LINE
  5
83F
330
1F
100
AcDbEntity
  8
OBJECT1
100
AcDbLine
 10
4.542148396183463
 20
12.81147986982639
 30
0.0
 11
4.42374934618347
 21
12.81147986982639
 31
0.0
  0
ARC
  5
840
330
1F
100
AcDbEntity
  8
OBJECT1
100
AcDbCircle
 10
4.55169888568146
 20
12.37157008264133
 30
0.0
 40
0.0109604
100
AcDbArc
 50
89.91238400000506
 51
180.0
  0
LINE
  5
841
330
1F
100
AcDbEntity
  8
OBJECT1
100
AcDbLine
 10
4.423715796183572
 20
12.50348096982636
 30
0.0
 11
4.542114846183679
 21
12.50348096982636
 31
0.0
  0
LINE
  5
842
330
1F
100
AcDbEntity
  8
OBJECT1
100
AcDbLine
 10
4.551682096183597
 20
12.53849396982641
 30
0.0
 11
4.551715646183609
 21
12.38253046982637
 31
0.0
  0
LINE
  5
843
330
1F
100
AcDbEntity
  8
OBJECT1
100
AcDbLine
 10
4.551682096183597
 20
12.53849396982641
 30
0.0
 11
4.542114846183679
 21
12.50348096982636
 31
0.0
  0
LINE
  5
844
330
1F
100
AcDbEntity
  8
OBJECT1
100
AcDbLine
 10
4.423715796183572
 20
12.50348096982636
 30
0.0
 11
4.414232696183674
 21
12.53835976982636
 31
0.0
  0
LINE
  5
845
330
1F
100
AcDbEntity
  8
OBJECT2
100
AcDbLine
 10
4.597789696183397
 20
12.57505081982636
 30
0.0
 11
4.632684996183527
 21
12.57505081982636
 31
0.0
  0
LINE
  5
846
330
1F
100
AcDbEntity
  8
OBJECT1
100
AcDbLine
 10
4.597789696183397
 20
12.57505081982636
 30
0.0
 11
4.632684996183527
 21
12.57505081982636
 31
0.0
  0
LINE
  5
847
330
1F
100
AcDbEntity
  8
OBJECT2
100
AcDbLine
 10
4.597789696183397
 20
12.73997711982635
 30
0.0
 11
4.632684996183527
 21
12.74007776982633
 31
0.0
  0
LINE
  5
848
330
1F
100
AcDbEntity
  8
OBJECT2
100
AcDbLine
 10
4.643527696183539
 20
12.55437191982635
 30
0.0
 11
4.673890996183516
 21
12.55433836982634
 31
0.0
  0
LINE
  5
849
330
1F
100
AcDbEntity
  8
OBJECT2
100
AcDbLine
 10
4.643544746183536
 20
12.76062191982637
 30
0.0
 11
4.673925096183509
 21
12.76058836982636
 31
0.0
  0
LINE
  5
84A
330
1F
100
AcDbEntity
  8
OBJECT1
100
AcDbLine
 10
4.673925096183509
 20
12.79496336982631
 30
0.0
 11
4.701367896183526
 21
12.79499691982638
 31
0.0
  0
LINE
  5
84B
330
1F
100
AcDbEntity
  8
OBJECT2
100
AcDbLine
 10
4.643544746183536
 20
12.76062191982637
 30
0.0
 11
4.632701496183543
 21
12.65749691982639
 31
0.0
  0
LINE
  5
84C
330
1F
100
AcDbEntity
  8
OBJECT2
100
AcDbLine
 10
4.643544746183536
 20
12.76062191982637
 30
0.0
 11
4.632701496183543
 21
12.80664536982637
 31
0.0
  0
LINE
  5
84D
330
1F
100
AcDbEntity
  8
OBJECT1
100
AcDbLine
 10
4.632718546183653
 20
12.73997711982635
 30
0.0
 11
4.632701496183543
 21
12.80664536982637
 31
0.0
  0
LINE
  5
84E
330
1F
100
AcDbEntity
  8
OBJECT2
100
AcDbLine
 10
4.632684996183527
 20
12.57505081982636
 30
0.0
 11
4.632684996183527
 21
12.74007776982633
 31
0.0
  0
LINE
  5
84F
330
1F
100
AcDbEntity
  8
OBJECT2
100
AcDbLine
 10
4.643527696183539
 20
12.55437191982635
 30
0.0
 11
4.632701496183543
 21
12.65749691982639
 31
0.0
  0
LINE
  5
850
330
1F
100
AcDbEntity
  8
OBJECT2
100
AcDbLine
 10
4.597789696183397
 20
12.73997711982635
 30
0.0
 11
4.597789696183397
 21
12.57505081982636
 31
0.0
  0
ARC
  5
851
330
1F
100
AcDbEntity
  8
OBJECT1
100
AcDbCircle
 10
4.597170026101778
 20
12.37150337035452
 30
0.0
 40
0.011011
100
AcDbArc
 50
359.8255920000013
 51
90.0
  0
LINE
  5
852
330
1F
100
AcDbEntity
  8
OBJECT1
100
AcDbLine
 10
4.643578296183662
 20
12.46222436982636
 30
0.0
 11
4.673890996183516
 21
12.46225791982637
 31
0.0
  0
LINE
  5
853
330
1F
100
AcDbEntity
  8
OBJECT1
100
AcDbLine
 10
4.701401446183652
 20
12.51996336982633
 30
0.0
 11
4.701451496183565
 21
12.45124691982638
 31
0.0
  0
LINE
  5
854
330
1F
100
AcDbEntity
  8
OBJECT1
100
AcDbLine
 10
4.673890996183516
 20
12.46225791982637
 30
0.0
 11
4.673908046183512
 21
12.5199969198264
 31
0.0
  0
LINE
  5
855
330
1F
100
AcDbEntity
  8
OBJECT1
100
AcDbLine
 10
4.673908046183512
 20
12.5199969198264
 30
0.0
 11
4.701401446183652
 21
12.51996336982633
 31
0.0
  0
LINE
  5
856
330
1F
100
AcDbEntity
  8
OBJECT1
100
AcDbLine
 10
4.643578296183662
 20
12.46222436982636
 30
0.0
 11
4.632684996183527
 21
12.50828136982638
 31
0.0
  0
LINE
  5
857
330
1F
100
AcDbEntity
  8
OBJECT1
100
AcDbLine
 10
4.701451496183565
 20
12.45124691982638
 30
0.0
 11
4.866411346183625
 21
12.45121336982631
 31
0.0
  0
LINE
  5
858
330
1F
100
AcDbEntity
  8
OBJECT1
100
AcDbLine
 10
4.866411346183625
 20
12.45121336982631
 30
0.0
 11
4.866444896183409
 21
12.21082321982637
 31
0.0
  0
LINE
  5
859
330
1F
100
AcDbEntity
  8
OBJECT1
100
AcDbLine
 10
5.622661346183647
 20
12.21092441982639
 30
0.0
 11
5.622661346183647
 21
12.52268256982633
 31
0.0
  0
LINE
  5
85A
330
1F
100
AcDbEntity
  8
OBJECT2
100
AcDbLine
 10
5.622661346183647
 20
12.21092441982639
 30
0.0
 11
4.866444896183409
 21
12.21082321982637
 31
0.0
  0
LINE
  5
85B
330
1F
100
AcDbEntity
  8
OBJECT2
100
AcDbLine
 10
5.622661346183647
 20
12.52268256982633
 30
0.0
 11
4.896841746183511
 21
12.52274966982636
 31
0.0
  0
LINE
  5
85C
330
1F
100
AcDbEntity
  8
OBJECT1
100
AcDbLine
 10
4.597789696183397
 20
12.57505081982636
 30
0.0
 11
4.597789696183397
 21
12.38249691982636
 31
0.0
  0
LINE
  5
85D
330
1F
100
AcDbEntity
  8
OBJECT1
100
AcDbLine
 10
4.597789696183397
 20
12.38249691982636
 30
0.0
 11
4.597789696183397
 21
12.57505081982636
 31
0.0
  0
LINE
  5
85E
330
1F
100
AcDbEntity
  8
OBJECT2
100
AcDbLine
 10
4.643527696183539
 20
12.55437191982635
 30
0.0
 11
4.632684996183527
 21
12.50828136982638
 31
0.0
  0
LINE
  5
85F
330
1F
100
AcDbEntity
  8
OBJECT1
100
AcDbLine
 10
4.632684996183527
 20
12.57505081982636
 30
0.0
 11
4.632684996183527
 21
12.50828136982638
 31
0.0
  0
LINE
  5
860
330
1F
100
AcDbEntity
  8
OBJECT2
100
AcDbLine
 10
4.701401446183652
 20
12.51996336982633
 30
0.0
 11
4.701367896183526
 21
12.79499691982638
 31
0.0
  0
LINE
  5
861
330
1F
100
AcDbEntity
  8
OBJECT2
100
AcDbLine
 10
4.673925096183509
 20
12.79496336982631
 30
0.0
 11
4.673908046183512
 21
12.5199969198264
 31
0.0
  0
LINE
  5
862
330
1F
100
AcDbEntity
  8
OBJECT2
100
AcDbLine
 10
4.551715646183609
 20
12.38253046982637
 30
0.0
 11
4.597789696183397
 21
12.38249691982636
 31
0.0
  0
LINE
  5
863
330
1F
100
AcDbEntity
  8
OBJECT1
100
AcDbLine
 10
4.643578296183662
 20
12.85270291982637
 30
0.0
 11
4.673890996183516
 21
12.85277001982634
 31
0.0
  0
LINE
  5
864
330
1F
100
AcDbEntity
  8
OBJECT1
100
AcDbLine
 10
4.598393596183498
 20
12.91702156982639
 30
0.0
 11
4.701451498661143
 21
12.91699969015765
 31
0.0
  0
LINE
  5
865
330
1F
100
AcDbEntity
  8
OBJECT1
100
AcDbLine
 10
4.598343546183585
 20
12.87821521982638
 30
0.0
 11
4.701485046183464
 21
12.87814811982635
 31
0.0
  0
LINE
  5
866
330
1F
100
AcDbEntity
  8
OBJECT1
100
AcDbLine
 10
4.597789696183397
 20
12.91702156982639
 30
0.0
 11
4.701451496183565
 21
12.91698801982638
 31
0.0
  0
LINE
  5
867
330
1F
100
AcDbEntity
  8
OBJECT1
100
AcDbLine
 10
4.701451496183565
 20
12.91698801982638
 30
0.0
 11
4.701401446183652
 21
12.92924091982635
 31
0.0
  0
LINE
  5
868
330
1F
100
AcDbEntity
  8
OBJECT2
100
AcDbLine
 10
4.598343546183585
 20
12.87821521982638
 30
0.0
 11
4.598393596183498
 21
12.91702156982639
 31
0.0
  0
LINE
  5
869
330
1F
100
AcDbEntity
  8
OBJECT1
100
AcDbLine
 10
4.597789696183397
 20
12.93249691982637
 30
0.0
 11
4.597789696183397
 21
12.91702156982639
 31
0.0
  0
LINE
  5
86A
330
1F
100
AcDbEntity
  8
OBJECT1
100
AcDbLine
 10
4.597789696183397
 20
12.91702156982639
 30
0.0
 11
4.597789696183397
 21
12.93249691982637
 31
0.0
  0
LINE
  5
86B
330
1F
100
AcDbEntity
  8
OBJECT1
100
AcDbLine
 10
4.810686446183652
 20
12.86378046982636
 30
0.0
 11
4.760936746183531
 21
12.93555161982637
 31
0.0
  0
LINE
  5
86C
330
1F
100
AcDbEntity
  8
OBJECT1
100
AcDbLine
 10
4.866444896183409
 20
12.8967458198264
 30
0.0
 11
4.866444896183409
 21
12.8637469198264
 31
0.0
  0
LINE
  5
86D
330
1F
100
AcDbEntity
  8
OBJECT2
100
AcDbLine
 10
4.810686446183652
 20
12.86378046982636
 30
0.0
 11
4.739300846183553
 21
12.86378046982636
 31
0.0
  0
LINE
  5
86E
330
1F
100
AcDbEntity
  8
OBJECT2
100
AcDbLine
 10
4.866444896183409
 20
12.8637469198264
 30
0.0
 11
4.866444896183409
 21
12.8637469198264
 31
0.0
  0
LINE
  5
86F
330
1F
100
AcDbEntity
  8
OBJECT2
100
AcDbLine
 10
4.866444896183409
 20
12.8637469198264
 30
0.0
 11
4.866444896183409
 21
12.8637469198264
 31
0.0
  0
LINE
  5
870
330
1F
100
AcDbEntity
  8
OBJECT1
100
AcDbLine
 10
4.866444896183409
 20
12.8637469198264
 30
0.0
 11
4.810686446183652
 21
12.86378046982636
 31
0.0
  0
LINE
  5
871
330
1F
100
AcDbEntity
  8
OBJECT2
100
AcDbLine
 10
4.767415196183449
 20
12.88919266982642
 30
0.0
 11
4.76743224618356
 21
12.90601111982638
 31
0.0
  0
ARC
  5
872
330
1F
100
AcDbEntity
  8
OBJECT2
100
AcDbCircle
 10
4.756354146183596
 20
12.90590991982642
 30
0.0
 40
0.0110781
100
AcDbArc
 50
0.5208439999955246
 51
89.65277099999786
  0
ARC
  5
873
330
1F
100
AcDbEntity
  8
OBJECT1
100
AcDbCircle
 10
4.751704996183619
 20
12.92883776982633
 30
0.0
 40
0.01141635
100
AcDbArc
 50
36.0273740000008
 51
88.73632800000152
  0
ARC
  5
874
330
1F
100
AcDbEntity
  8
OBJECT2
100
AcDbCircle
 10
4.756337646183467
 20
12.88919266982642
 30
0.0
 40
0.0110781
100
AcDbArc
 50
270.3482970000037
 51
0.0
  0
LINE
  5
875
330
1F
100
AcDbEntity
  8
OBJECT2
100
AcDbLine
 10
4.756404746183491
 20
12.87814811982635
 30
0.0
 11
4.701485046183464
 21
12.87814811982635
 31
0.0
  0
LINE
  5
876
330
1F
100
AcDbEntity
  8
OBJECT1
100
AcDbLine
 10
4.751956896183585
 20
12.94025136982636
 30
0.0
 11
4.712411896183382
 21
12.94028491982643
 31
0.0
  0
LINE
  5
877
330
1F
100
AcDbEntity
  8
OBJECT2
100
AcDbLine
 10
4.701451498661143
 20
12.91699969015765
 30
0.0
 11
4.756421246183506
 21
12.91698801982638
 31
0.0
  0
LINE
  5
878
330
1F
100
AcDbEntity
  8
OBJECT1
100
AcDbLine
 10
4.900819896183477
 20
12.89677936982635
 30
0.0
 11
4.866444896183409
 21
12.8967458198264
 31
0.0
  0
LINE
  5
879
330
1F
100
AcDbEntity
  8
OBJECT2
100
AcDbLine
 10
4.900819896183477
 20
12.89677936982635
 30
0.0
 11
5.611079996183619
 21
12.8967458198264
 31
0.0
  0
LINE
  5
87A
330
1F
100
AcDbEntity
  8
OBJECT2
100
AcDbLine
 10
4.551715646183609
 20
12.93246336982635
 30
0.0
 11
4.597789696183397
 21
12.93249691982637
 31
0.0
  0
LINE
  5
87B
330
1F
100
AcDbEntity
  8
OBJECT1
100
AcDbLine
 10
4.551682096183597
 20
12.77643331982639
 30
0.0
 11
4.551715646183609
 21
12.93246336982635
 31
0.0
  0
LINE
  5
87C
330
1F
100
AcDbEntity
  8
OBJECT1
100
AcDbLine
 10
4.597789696183397
 20
12.73997711982635
 30
0.0
 11
4.598343546183585
 21
12.87821521982638
 31
0.0
  0
LINE
  5
87D
330
1F
100
AcDbEntity
  8
OBJECT1
100
AcDbLine
 10
4.701485046183464
 20
12.87814811982635
 30
0.0
 11
4.701367896183526
 21
12.79499691982638
 31
0.0
  0
LINE
  5
87E
330
1F
100
AcDbEntity
  8
OBJECT1
100
AcDbLine
 10
4.643578296183662
 20
12.85270291982637
 30
0.0
 11
4.632701496183543
 21
12.80664536982637
 31
0.0
  0
LINE
  5
87F
330
1F
100
AcDbEntity
  8
OBJECT1
100
AcDbLine
 10
4.673890996183516
 20
12.85277001982634
 30
0.0
 11
4.673925096183509
 21
12.79496336982631
 31
0.0
  0
LINE
  5
880
330
1F
100
AcDbEntity
  8
OBJECT1
100
AcDbLine
 10
5.611130596183514
 20
12.52399156982638
 30
0.0
 11
5.611079996183619
 21
12.8967458198264
 31
0.0
  0
ARC
  5
881
330
1F
100
AcDbEntity
  8
OBJECT2
100
AcDbCircle
 10
4.273660946183511
 20
12.65753046982634
 30
0.0
 40
0.6276303000000001
100
AcDbArc
 50
340.8086549999984
 51
19.18164099999965
  0
LINE
  5
882
330
1F
100
AcDbEntity
  8
OBJECT1
100
AcDbLine
 10
10.96948432893903
 20
12.45123661492024
 30
0.0
 11
10.80447463294349
 21
12.45123778164653
 31
0.0
  0
LINE
  5
883
330
1F
100
AcDbEntity
  8
OBJECT1
100
AcDbLine
 10
10.91901214291347
 20
12.94030839898621
 30
0.0
 11
10.95850738004465
 21
12.94027573065292
 31
0.0
  0
LINE
  5
884
330
1F
100
AcDbEntity
  8
OBJECT2
100
AcDbLine
 10
10.91451441345516
 20
12.87817284015837
 30
0.0
 11
10.96948510675663
 21
12.87817128452339
 31
0.0
  0
LINE
  5
885
330
1F
100
AcDbEntity
  8
OBJECT2
100
AcDbLine
 10
10.96946721695504
 20
12.91701082153641
 30
0.0
 11
10.91449807928843
 21
12.91697815320306
 31
0.0
  0
ARC
  5
886
330
1F
100
AcDbEntity
  8
OBJECT2
100
AcDbCircle
 10
11.3977490663977
 20
12.65748502588203
 30
0.0
 40
0.6281027500000001
100
AcDbArc
 50
160.8299260000026
 51
199.1696009999976
  0
LINE
  5
887
330
1F
100
AcDbEntity
  8
OBJECT2
100
AcDbLine
 10
10.04824083031663
 20
12.52273942941055
 30
0.0
 11
10.77407869335998
 21
12.52274059613673
 31
0.0
  0
LINE
  5
888
330
1F
100
AcDbEntity
  8
OBJECT2
100
AcDbLine
 10
10.04827427646735
 20
12.21094818957831
 30
0.0
 11
10.8044742440348
 21
12.21091435451872
 31
0.0
  0
LINE
  5
889
330
1F
100
AcDbEntity
  8
OBJECT2
100
AcDbLine
 10
10.7701332142977
 20
12.89673506491592
 30
0.0
 11
10.0598719236943
 21
12.89673467600717
 31
0.0
  0
LINE
  5
88A
330
1F
100
AcDbEntity
  8
OBJECT1
100
AcDbLine
 10
10.65721999350712
 20
13.40918235423983
 30
0.0
 11
10.65721999350712
 21
13.66963466606969
 31
0.0
  0
LINE
  5
88B
330
1F
100
AcDbEntity
  8
OBJECT2
100
AcDbLine
 10
10.65721999350712
 20
13.40918235423983
 30
0.0
 11
10.70111437296471
 21
13.40918232603413
 31
0.0
  0
LINE
  5
88C
330
1F
100
AcDbEntity
  8
OBJECT1
100
AcDbLine
 10
10.80445829877699
 20
13.27858743457769
 30
0.0
 11
10.70111397095497
 21
13.31618518601683
 31
0.0
  0
LINE
  5
88D
330
1F
100
AcDbEntity
  8
OBJECT1
100
AcDbLine
 10
10.80445829877699
 20
13.27858743457769
 30
0.0
 11
10.80449057820142
 21
13.10641015069469
 31
0.0
  0
LINE
  5
88E
330
1F
100
AcDbEntity
  8
OBJECT1
100
AcDbLine
 10
10.77011532449621
 20
13.09392268029423
 30
0.0
 11
10.80449057820142
 21
13.10641015069469
 31
0.0
  0
LINE
  5
88F
330
1F
100
AcDbEntity
  8
OBJECT1
100
AcDbLine
 10
10.70111397095497
 20
13.31618518601683
 30
0.0
 11
10.70111397095497
 21
13.31618518601683
 31
0.0
  0
LINE
  5
890
330
1F
100
AcDbEntity
  8
OBJECT1
100
AcDbLine
 10
10.70111406665496
 20
13.31618515120023
 30
0.0
 11
10.70111437296471
 21
13.40918232603413
 31
0.0
  0
LINE
  5
891
330
1F
100
AcDbEntity
  8
OBJECT1
100
AcDbLine
 10
11.1301635440778
 20
13.30044040838779
 30
0.0
 11
11.13017987824441
 21
12.94349842067762
 31
0.0
  0
LINE
  5
892
330
1F
100
AcDbEntity
  8
OBJECT1
100
AcDbLine
 10
11.06216903954221
 20
13.30044040838779
 30
0.0
 11
11.06215270537548
 21
12.94349842067762
 31
0.0
  0
ARC
  5
893
330
1F
100
AcDbEntity
  8
OBJECT1
100
AcDbCircle
 10
11.11924478463511
 20
13.30053276075161
 30
0.0
 40
0.01091915
100
AcDbArc
 50
359.5153959999965
 51
90.48657200000043
  0
ARC
  5
894
330
1F
100
AcDbEntity
  8
OBJECT1
100
AcDbCircle
 10
11.07308779898467
 20
13.30053276075161
 30
0.0
 40
0.01091915
100
AcDbArc
 50
89.51342799999956
 51
180.4846039999969
  0
LINE
  5
895
330
1F
100
AcDbEntity
  8
OBJECT1
100
AcDbLine
 10
11.11915205723296
 20
13.31145151701556
 30
0.0
 11
11.07318035926239
 21
13.31145098442785
 31
0.0
  0
LINE
  5
896
330
1F
100
AcDbEntity
  8
OBJECT1
100
AcDbLine
 10
7.416106390583493
 20
15.7668856925243
 30
0.0
 11
7.148726194225062
 21
15.49952338596752
 31
0.0
  0
ARC
  5
897
330
1F
100
AcDbEntity
  8
OBJECT1
100
AcDbCircle
 10
7.172027271853451
 20
15.47620130726769
 30
0.0
 40
0.032967
100
AcDbArc
 50
134.9735640000043
 51
225.029174999996
  0
LINE
  5
898
330
1F
100
AcDbEntity
  8
OBJECT1
100
AcDbLine
 10
7.148727360951355
 20
15.45287806184168
 30
0.0
 11
7.148727360951355
 21
15.45287806184168
 31
0.0
  0
ARC
  5
899
330
1F
100
AcDbEntity
  8
OBJECT1
100
AcDbCircle
 10
7.125350446120549
 20
15.42952214808243
 30
0.0
 40
0.03304455
100
AcDbArc
 50
315.0263669999981
 51
44.97453299999698
  0
LINE
  5
89A
330
1F
100
AcDbEntity
  8
OBJECT2
100
AcDbLine
 10
8.180906102435372
 20
15.58180811162426
 30
0.0
 11
7.957089906337913
 21
15.35799191552668
 31
0.0
  0
LINE
  5
89B
330
1F
100
AcDbEntity
  8
OBJECT1
100
AcDbLine
 10
8.029330869596904
 20
15.73338645573263
 30
0.0
 11
8.332483279817509
 21
15.43023093424223
 31
0.0
  0
LINE
  5
89C
330
1F
100
AcDbEntity
  8
OBJECT2
100
AcDbLine
 10
8.157281841652618
 20
15.1578007580293
 30
0.0
 11
7.756897582114177
 21
15.55818268411538
 31
0.0
  0
LINE
  5
89D
330
1F
100
AcDbEntity
  8
OBJECT2
100
AcDbLine
 10
7.428172089466627
 20
15.77801684373005
 30
0.0
 11
8.377111334362624
 21
14.82907759883411
 31
0.0
  0
ARC
  5
89E
330
1F
100
AcDbEntity
  8
OBJECT1
100
AcDbCircle
 10
8.308169872765873
 20
15.40592374973018
 30
0.0
 40
0.03437995
100
AcDbArc
 50
315.012238
 51
44.99213399999552
  0
LINE
  5
89F
330
1F
100
AcDbEntity
  8
OBJECT1
100
AcDbLine
 10
8.40725098309322
 20
14.90783161658876
 30
0.0
 11
8.157281841652618
 21
15.1578007580293
 31
0.0
  0
LINE
  5
8A0
330
1F
100
AcDbEntity
  8
OBJECT1
100
AcDbLine
 10
8.377111334362624
 20
14.82907759883411
 30
0.0
 11
8.40725098309322
 21
14.85921802538214
 31
0.0
  0
ARC
  5
8A1
330
1F
100
AcDbEntity
  8
OBJECT1
100
AcDbCircle
 10
8.382943020763789
 20
14.88352520989419
 30
0.0
 40
0.0343761
100
AcDbArc
 50
315.0017550000039
 51
44.99825299999881
  0
LINE
  5
8A2
330
1F
100
AcDbEntity
  8
OBJECT2
100
AcDbLine
 10
8.365984461152905
 20
14.84033981228176
 30
0.0
 11
8.36598562787897
 21
14.81892066399611
 31
0.0
  0
LINE
  5
8A3
330
1F
100
AcDbEntity
  8
OBJECT2
100
AcDbLine
 10
8.377111334362624
 20
14.82907759883411
 30
0.0
 11
8.377111334362624
 21
14.82907759883411
 31
0.0
  0
ARC
  5
8A4
330
1F
100
AcDbEntity
  8
OBJECT1
100
AcDbCircle
 10
8.181590192890851
 20
15.18210755363255
 30
0.0
 40
0.0343761
100
AcDbArc
 50
135.0052490000036
 51
224.9978030000032
  0
LINE
  5
8A5
330
1F
100
AcDbEntity
  8
OBJECT1
100
AcDbLine
 10
8.332485224361292
 20
15.3816185097618
 30
0.0
 11
8.157280674926553
 21
15.20641318250968
 31
0.0
  0
LINE
  5
8A6
330
1F
100
AcDbEntity
  8
OBJECT1
100
AcDbLine
 10
7.980715333846731
 20
15.73338840027624
 30
0.0
 11
7.805510784411993
 21
15.55818307302407
 31
0.0
  0
ARC
  5
8A7
330
1F
100
AcDbEntity
  8
OBJECT1
100
AcDbCircle
 10
7.482618144891787
 20
15.7838345294169
 30
0.0
 40
0.03438545
100
AcDbArc
 50
45.01311500000307
 51
134.9842680000039
  0
LINE
  5
8A8
330
1F
100
AcDbEntity
  8
OBJECT1
100
AcDbLine
 10
7.506926107221218
 20
15.80815415900834
 30
0.0
 11
7.756897582114177
 21
15.55818268411538
 31
0.0
  0
ARC
  5
8A9
330
1F
100
AcDbEntity
  8
OBJECT1
100
AcDbCircle
 10
7.781203988808741
 20
15.58249531334959
 30
0.0
 40
0.0343794
100
AcDbArc
 50
225.0074160000006
 51
314.9930109999982
  0
LINE
  5
8AA
330
1F
100
AcDbEntity
  8
OBJECT2
100
AcDbLine
 10
7.439102563767917
 20
15.76688647034179
 30
0.0
 11
7.416106390583493
 21
15.7668856925243
 31
0.0
  0
LINE
  5
8AB
330
1F
100
AcDbEntity
  8
OBJECT1
100
AcDbLine
 10
7.428172089466627
 20
15.77801684373005
 30
0.0
 11
7.458310960379733
 21
15.80815571464327
 31
0.0
  0
ARC
  5
8AC
330
1F
100
AcDbEntity
  8
OBJECT1
100
AcDbCircle
 10
8.005021740541295
 20
15.70907732667697
 30
0.0
 40
0.03437775
100
AcDbArc
 50
45.00065599999906
 51
134.9947549999977
  0
LINE
  5
8AD
330
1F
100
AcDbEntity
  8
OBJECT2
100
AcDbLine
 10
6.424737203282418
 20
13.82110648122718
 30
0.0
 11
6.215734929605972
 21
13.82110687013598
 31
0.0
  0
LINE
  5
8AE
330
1F
100
AcDbEntity
  8
OBJECT2
100
AcDbLine
 10
6.424737981099795
 20
14.26111626232121
 30
0.0
 11
6.215734151788595
 21
14.26110031706328
 31
0.0
  0
LINE
  5
8AF
330
1F
100
AcDbEntity
  8
OBJECT1
100
AcDbLine
 10
6.78362762372815
 20
13.62861999457296
 30
0.0
 11
6.213485481513615
 21
13.62863671764832
 31
0.0
  0
ARC
  5
8B0
330
1F
100
AcDbEntity
  8
OBJECT1
100
AcDbCircle
 10
6.325946218867287
 20
14.50865161293168
 30
0.0
 40
0.0550473
100
AcDbArc
 50
270.1022949999984
 51
44.93230399999946
  0
LINE
  5
8B1
330
1F
100
AcDbEntity
  8
OBJECT2
100
AcDbLine
 10
7.118000034387549
 20
13.79444798500232
 30
0.0
 11
6.364916429213351
 21
14.54753004081757
 31
0.0
  0
LINE
  5
8B2
330
1F
100
AcDbEntity
  8
OBJECT2
100
AcDbLine
 10
5.519319049122898
 20
13.40919162402675
 30
0.0
 11
5.475399298445907
 21
13.40919159580473
 31
0.0
  0
LINE
  5
8B3
330
1F
100
AcDbEntity
  8
OBJECT1
100
AcDbLine
 10
5.475399298445907
 20
13.40919159580473
 30
0.0
 11
5.475399298445907
 21
13.45008108261063
 31
0.0
  0
LINE
  5
8B4
330
1F
100
AcDbEntity
  8
OBJECT1
100
AcDbLine
 10
5.519310368851122
 20
13.31618741407216
 30
0.0
 11
5.519319049122898
 21
13.40919162402675
 31
0.0
  0
LINE
  5
8B5
330
1F
100
AcDbEntity
  8
OBJECT1
100
AcDbLine
 10
5.89768657650525
 20
13.70445608261061
 30
0.0
 11
5.820400983160268
 21
13.70445608261061
 31
0.0
  0
LINE
  5
8B6
330
1F
100
AcDbEntity
  8
OBJECT1
100
AcDbLine
 10
5.89768657650525
 20
14.37776861097042
 30
0.0
 11
5.820400983160268
 21
14.37776861097042
 31
0.0
  0
LINE
  5
8B7
330
1F
100
AcDbEntity
  8
OBJECT2
100
AcDbLine
 10
5.820400983160268
 20
14.35714361097049
 30
0.0
 11
5.820400983160268
 21
13.7250810826106
 31
0.0
  0
LINE
  5
8B8
330
1F
100
AcDbEntity
  8
OBJECT1
100
AcDbLine
 10
5.820400983160268
 20
13.70445608261061
 30
0.0
 11
5.820400983160268
 21
13.7250810826106
 31
0.0
  0
LINE
  5
8B9
330
1F
100
AcDbEntity
  8
OBJECT1
100
AcDbLine
 10
5.820400983160268
 20
13.7250810826106
 30
0.0
 11
5.750399298445884
 21
13.7250810826106
 31
0.0
  0
LINE
  5
8BA
330
1F
100
AcDbEntity
  8
OBJECT1
100
AcDbLine
 10
5.820400983160268
 20
14.37776861097042
 30
0.0
 11
5.820400983160268
 21
14.35714361097049
 31
0.0
  0
LINE
  5
8BB
330
1F
100
AcDbEntity
  8
OBJECT1
100
AcDbLine
 10
5.820400983160268
 20
14.35714361097049
 30
0.0
 11
5.701223854564389
 21
14.35714361097049
 31
0.0
  0
LINE
  5
8BC
330
1F
100
AcDbEntity
  8
OBJECT1
100
AcDbLine
 10
6.213484703696238
 20
14.45363736185245
 30
0.0
 11
6.326044612775902
 21
14.45360274897549
 31
0.0
  0
ARC
  5
8BD
330
1F
100
AcDbEntity
  8
OBJECT1
100
AcDbCircle
 10
6.213422089390704
 20
14.41943478362312
 30
0.0
 40
0.03420285
100
AcDbArc
 50
89.89499700000331
 51
135.2099909999989
  0
LINE
  5
8BE
330
1F
100
AcDbEntity
  8
OBJECT2
100
AcDbLine
 10
5.990683716501578
 20
14.31589370667065
 30
0.0
 11
5.990684069587658
 21
13.76641311853611
 31
0.0
  0
LINE
  5
8BF
330
1F
100
AcDbEntity
  8
OBJECT2
100
AcDbLine
 10
6.037182308477852
 20
14.2300743480824
 30
0.0
 11
6.037182405263209
 21
13.85215034549869
 31
0.0
  0
LINE
  5
8C0
330
1F
100
AcDbEntity
  8
OBJECT2
100
AcDbLine
 10
6.083707027337325
 20
14.31588511199199
 30
0.0
 11
6.083706249519835
 21
13.7664045238579
 31
0.0
  0
LINE
  5
8C1
330
1F
100
AcDbEntity
  8
OBJECT2
100
AcDbLine
 10
6.182735246077484
 20
13.85410499802954
 30
0.0
 11
6.182735246077484
 21
14.228068743019
 31
0.0
  0
LINE
  5
8C2
330
1F
100
AcDbEntity
  8
OBJECT2
100
AcDbLine
 10
5.944185477611384
 20
14.2300743480824
 30
0.0
 11
5.944185380826141
 21
13.85215034549869
 31
0.0
  0
ARC
  5
8C3
330
1F
100
AcDbEntity
  8
OBJECT1
100
AcDbCircle
 10
6.096880143828073
 20
13.68205138712246
 30
0.0
 40
0.0345708
100
AcDbArc
 50
45.12865399999368
 51
89.80207099999105
  0
LINE
  5
8C4
330
1F
100
AcDbEntity
  8
OBJECT1
100
AcDbLine
 10
6.083707027337325
 20
13.71660514993461
 30
0.0
 11
6.096999538808134
 21
13.71662265082741
 31
0.0
  0
LINE
  5
8C5
330
1F
100
AcDbEntity
  8
OBJECT1
100
AcDbLine
 10
6.083707027337325
 20
13.76640569058414
 30
0.0
 11
6.083707027337325
 21
13.71660514993461
 31
0.0
  0
ARC
  5
8C6
330
1F
100
AcDbEntity
  8
OBJECT1
100
AcDbCircle
 10
6.213448146275666
 20
13.66303025006387
 30
0.0
 40
0.0343937
100
AcDbArc
 50
225.1258240000022
 51
270.0617830000021
  0
LINE
  5
8C7
330
1F
100
AcDbEntity
  8
OBJECT2
100
AcDbLine
 10
6.200327143554503
 20
13.66262656280255
 30
0.0
 11
6.200325587919635
 21
13.82493373203569
 31
0.0
  0
LINE
  5
8C8
330
1F
100
AcDbEntity
  8
OBJECT1
100
AcDbLine
 10
6.189181797180211
 20
13.63865733997655
 30
0.0
 11
6.121269776990814
 21
13.70655147036435
 31
0.0
  0
ARC
  5
8C9
330
1F
100
AcDbEntity
  8
OBJECT2
100
AcDbCircle
 10
6.215773820478901
 20
13.85414622235483
 30
0.0
 40
0.0330385
100
AcDbArc
 50
180.0713809999991
 51
269.9324649999982
  0
ARC
  5
8CA
330
1F
100
AcDbEntity
  8
OBJECT2
100
AcDbCircle
 10
6.215718984348043
 20
14.22811657879278
 30
0.0
 40
0.0329835
100
AcDbArc
 50
89.97294199999954
 51
180.0837399999982
  0
ARC
  5
8CB
330
1F
100
AcDbEntity
  8
OBJECT1
100
AcDbCircle
 10
6.096993705177126
 20
14.40002279329129
 30
0.0
 40
0.0344212
100
AcDbArc
 50
270.0104979999923
 51
314.9336399999989
  0
LINE
  5
8CC
330
1F
100
AcDbEntity
  8
OBJECT1
100
AcDbLine
 10
6.083707027337325
 20
14.36560125944716
 30
0.0
 11
6.096999927716822
 21
14.36560125944716
 31
0.0
  0
LINE
  5
8CD
330
1F
100
AcDbEntity
  8
OBJECT1
100
AcDbLine
 10
6.083706249519835
 20
14.31591894705158
 30
0.0
 11
6.083707027337325
 21
14.36560125944716
 31
0.0
  0
LINE
  5
8CE
330
1F
100
AcDbEntity
  8
OBJECT2
100
AcDbLine
 10
6.200359422979161
 20
14.41958179112301
 30
0.0
 11
6.200292141768912
 21
14.25732479111589
 31
0.0
  0
LINE
  5
8CF
330
1F
100
AcDbEntity
  8
OBJECT1
100
AcDbLine
 10
6.189148351029487
 20
14.44353117960374
 30
0.0
 11
6.121304778776519
 21
14.37565493901742
 31
0.0
  0
LINE
  5
8D0
330
1F
100
AcDbEntity
  8
OBJECT2
100
AcDbLine
 10
5.897661536569401
 20
13.7664134687587
 30
0.0
 11
5.897660758751911
 21
14.31587616709125
 31
0.0
  0
LINE
  5
8D1
330
1F
100
AcDbEntity
  8
OBJECT1
100
AcDbLine
 10
5.89768657650525
 20
13.76633108261065
 30
0.0
 11
5.89768657650525
 21
13.70445608261061
 31
0.0
  0
LINE
  5
8D2
330
1F
100
AcDbEntity
  8
OBJECT1
100
AcDbLine
 10
5.89768657650525
 20
14.31589361097049
 30
0.0
 11
5.89768657650525
 21
14.37776861097042
 31
0.0
  0
LINE
  5
8D3
330
1F
100
AcDbEntity
  8
OBJECT1
100
AcDbLine
 10
5.897687291150489
 20
13.76640513655856
 30
0.0
 11
6.083706249519835
 21
13.7664045238579
 31
0.0
  0
LINE
  5
8D4
330
1F
100
AcDbEntity
  8
OBJECT1
100
AcDbLine
 10
5.897686545026161
 20
14.31586775032277
 30
0.0
 11
6.083707027337325
 21
14.31588511199199
 31
0.0
  0
LINE
  5
8D5
330
1F
100
AcDbEntity
  8
OBJECT1
100
AcDbLine
 10
6.350818487763561
 20
14.5616287600849
 30
0.0
 11
6.364916429213351
 21
14.54753004081757
 31
0.0
  0
ARC
  5
8D6
330
1F
100
AcDbEntity
  8
OBJECT1
100
AcDbCircle
 10
6.374151844816381
 20
14.58496833967759
 30
0.0
 40
0.03300275
100
AcDbArc
 50
134.9936260000023
 51
225.0072939999969
  0
LINE
  5
8D7
330
1F
100
AcDbEntity
  8
OBJECT2
100
AcDbLine
 10
10.48992914148773
 20
13.31618401929071
 30
0.0
 11
10.6153098157492
 21
13.28190988185516
 31
0.0
  0
LINE
  5
8D8
330
1F
100
AcDbEntity
  8
OBJECT2
100
AcDbLine
 10
10.48991086277744
 20
13.06881123252926
 30
0.0
 11
10.61534442862621
 21
13.10308692559979
 31
0.0
  0
LINE
  5
8D9
330
1F
100
AcDbEntity
  8
OBJECT2
100
AcDbLine
 10
10.23745274140885
 20
13.36268399035881
 30
0.0
 11
10.61537674399262
 21
13.36268408714416
 31
0.0
  0
LINE
  5
8DA
330
1F
100
AcDbEntity
  8
OBJECT2
100
AcDbLine
 10
8.173430693288494
 20
13.53014480404632
 30
0.0
 11
8.51019842955641
 21
13.53012769206227
 31
0.0
  0
LINE
  5
8DB
330
1F
100
AcDbEntity
  8
OBJECT2
100
AcDbLine
 10
8.173431471105757
 20
13.36503360287232
 30
0.0
 11
8.510198040647722
 21
13.36506821574928
 31
0.0
  0
LINE
  5
8DC
330
1F
100
AcDbEntity
  8
OBJECT1
100
AcDbLine
 10
9.457491812708511
 20
14.45360352679298
 30
0.0
 11
8.42073619883952
 21
14.45360469351916
 31
0.0
  0
LINE
  5
8DD
330
1F
100
AcDbEntity
  8
OBJECT1
100
AcDbLine
 10
8.206732169991099
 20
14.61067403998142
 30
0.0
 11
8.323520294779612
 21
14.49388591519296
 31
0.0
  0
ARC
  5
8DE
330
1F
100
AcDbEntity
  8
OBJECT2
100
AcDbCircle
 10
7.574107951270732
 20
13.48735045416159
 30
0.0
 40
0.5498575500000001
100
AcDbArc
 50
134.9923479999994
 51
180.0041809999958
  0
ARC
  5
8DF
330
1F
100
AcDbEntity
  8
OBJECT1
100
AcDbCircle
 10
6.783619067735983
 20
13.59150098977996
 30
0.0
 40
0.0343838
100
AcDbArc
 50
270.0142209999957
 51
359.9864040000009
  0
ARC
  5
8E0
330
1F
100
AcDbEntity
  8
OBJECT1
100
AcDbCircle
 10
6.508585912285823
 20
13.52278745535752
 30
0.0
 40
0.03432495
100
AcDbArc
 50
89.91394399999961
 51
180.1101989999994
  0
LINE
  5
8E1
330
1F
100
AcDbEntity
  8
OBJECT1
100
AcDbLine
 10
6.782261374251064
 20
13.55713004072949
 30
0.0
 11
6.508637637146946
 21
13.5571121509279
 31
0.0
  0
LINE
  5
8E2
330
1F
100
AcDbEntity
  8
OBJECT1
100
AcDbLine
 10
6.782261374251064
 20
13.55713004072949
 30
0.0
 11
6.782261374251064
 21
13.55713004072949
 31
0.0
  0
LINE
  5
8E3
330
1F
100
AcDbEntity
  8
OBJECT2
100
AcDbLine
 10
6.525957510791002
 20
13.02082529144725
 30
0.0
 11
6.507258390160544
 21
13.04833630607421
 31
0.0
  0
LINE
  5
8E4
330
1F
100
AcDbEntity
  8
OBJECT2
100
AcDbLine
 10
6.617265502338753
 20
13.02079262311397
 30
0.0
 11
6.525957510791002
 21
13.02082529144725
 31
0.0
  0
ARC
  5
8E5
330
1F
100
AcDbEntity
  8
OBJECT1
100
AcDbCircle
 10
6.748886004889826
 20
13.16030390715862
 30
0.0
 40
0.2746238
100
AcDbArc
 50
179.9784240000009
 51
189.98822
  0
LINE
  5
8E6
330
1F
100
AcDbEntity
  8
OBJECT2
100
AcDbLine
 10
6.617265502338753
 20
13.10434733022744
 30
0.0
 11
6.525957510791002
 21
13.10437999856073
 31
0.0
  0
LINE
  5
8E7
330
1F
100
AcDbEntity
  8
OBJECT2
100
AcDbLine
 10
6.617265113430065
 20
13.2818114393814
 30
0.0
 11
6.525957899699804
 21
13.2817943273973
 31
0.0
  0
LINE
  5
8E8
330
1F
100
AcDbEntity
  8
OBJECT2
100
AcDbLine
 10
6.617268577961979
 20
13.36536459120147
 30
0.0
 11
6.5259571218822
 21
13.36534825669328
 31
0.0
  0
LINE
  5
8E9
330
1F
100
AcDbEntity
  8
OBJECT2
100
AcDbLine
 10
6.525957899699804
 20
13.2817943273973
 30
0.0
 11
6.507259556886722
 21
13.31484262451706
 31
0.0
  0
LINE
  5
8EA
330
1F
100
AcDbEntity
  8
OBJECT2
100
AcDbLine
 10
6.507259945795411
 20
13.33782051899108
 30
0.0
 11
6.507258390160544
 21
13.04833630607421
 31
0.0
  0
LINE
  5
8EB
330
1F
100
AcDbEntity
  8
OBJECT2
100
AcDbLine
 10
6.525957510791002
 20
13.10437999856073
 30
0.0
 11
6.507259945795411
 21
13.1765035113835
 31
0.0
  0
LINE
  5
8EC
330
1F
100
AcDbEntity
  8
OBJECT2
100
AcDbLine
 10
6.525957899699804
 20
13.2817943273973
 30
0.0
 11
6.507259556886722
 21
13.20963736842375
 31
0.0
  0
LINE
  5
8ED
330
1F
100
AcDbEntity
  8
OBJECT2
100
AcDbLine
 10
6.525957510791002
 20
13.10437999856073
 30
0.0
 11
6.507259945795411
 21
13.07129747747287
 31
0.0
  0
LINE
  5
8EE
330
1F
100
AcDbEntity
  8
OBJECT2
100
AcDbLine
 10
6.5259571218822
 20
13.36534825669328
 30
0.0
 11
6.507259945795411
 21
13.33782051899108
 31
0.0
  0
LINE
  5
8EF
330
1F
100
AcDbEntity
  8
OBJECT1
100
AcDbLine
 10
6.474261994532938
 20
13.16040735688076
 30
0.0
 11
6.474261605624135
 21
13.52272134087351
 31
0.0
  0
LINE
  5
8F0
330
1F
100
AcDbEntity
  8
OBJECT2
100
AcDbLine
 10
7.024252844029959
 20
13.00112548199674
 30
0.0
 11
7.024251288394978
 21
13.48731039656237
 31
0.0
  0
ARC
  5
8F1
330
1F
100
AcDbEntity
  8
OBJECT2
100
AcDbCircle
 10
6.857391164663752
 20
13.9720691828165
 30
0.0
 40
0.3434321
100
AcDbArc
 50
269.9755550000029
 51
307.6321560000022
  0
LINE
  5
8F2
330
1F
100
AcDbEntity
  8
OBJECT2
100
AcDbLine
 10
6.457735331175925
 20
14.22810102244354
 30
0.0
 11
6.457736886811019
 21
13.85413883308901
 31
0.0
  0
LINE
  5
8F3
330
1F
100
AcDbEntity
  8
OBJECT2
100
AcDbLine
 10
6.78362762372815
 20
13.62861999457296
 30
0.0
 11
6.857244546072777
 21
13.62863671764832
 31
0.0
  0
ARC
  5
8F4
330
1F
100
AcDbEntity
  8
OBJECT1
100
AcDbCircle
 10
6.78353311890676
 20
13.5941537362249
 30
0.0
 40
0.0344663
100
AcDbArc
 50
0.1522829999956388
 51
89.84215900000046
  0
LINE
  5
8F5
330
1F
100
AcDbEntity
  8
OBJECT1
100
AcDbLine
 10
6.818001710707065
 20
13.59424512977638
 30
0.0
 11
6.818002877433244
 21
13.59149282269665
 31
0.0
  0
LINE
  5
8F6
330
1F
100
AcDbEntity
  8
OBJECT2
100
AcDbLine
 10
6.457735720084727
 20
14.04110320469092
 30
0.0
 11
6.457735720084727
 21
14.04110320469092
 31
0.0
  0
ARC
  5
8F7
330
1F
100
AcDbEntity
  8
OBJECT2
100
AcDbCircle
 10
6.42469636786582
 20
13.85414622235483
 30
0.0
 40
0.0330396
100
AcDbArc
 50
270.0707550000004
 51
359.9871370000004
  0
ARC
  5
8F8
330
1F
100
AcDbEntity
  8
OBJECT2
100
AcDbCircle
 10
6.424729425107855
 20
14.22810724498329
 30
0.0
 40
0.0330088
100
AcDbArc
 50
359.989058999997
 51
89.98519499999973
  0
LINE
  5
8F9
330
1F
100
AcDbEntity
  8
OBJECT2
100
AcDbLine
 10
7.227715112852436
 20
13.91860939992968
 30
0.0
 11
7.185352062748918
 21
13.87621057022297
 31
0.0
  0
LINE
  5
8FA
330
1F
100
AcDbEntity
  8
OBJECT2
100
AcDbLine
 10
7.702386773385526
 20
13.59869307891747
 30
0.0
 11
7.660290514670421
 21
13.55659682020242
 31
0.0
  0
ARC
  5
8FB
330
1F
100
AcDbEntity
  8
OBJECT2
100
AcDbCircle
 10
7.854118347533429
 20
13.3624205251178
 30
0.0
 40
0.27436035
100
AcDbArc
 50
134.9485170000005
 51
180.0608829999951
  0
LINE
  5
8FC
330
1F
100
AcDbEntity
  8
OBJECT2
100
AcDbLine
 10
8.173430693288494
 20
13.53014480404632
 30
0.0
 11
8.173431471105757
 21
13.36503360287232
 31
0.0
  0
LINE
  5
8FD
330
1F
100
AcDbEntity
  8
OBJECT2
100
AcDbLine
 10
8.366494115449498
 20
14.46480214829554
 30
0.0
 11
7.633388142205447
 21
13.73169986445864
 31
0.0
  0
ARC
  5
8FE
330
1F
100
AcDbEntity
  8
OBJECT1
100
AcDbCircle
 10
8.420932597748063
 20
14.59153000776429
 30
0.0
 40
0.1379257
100
AcDbArc
 50
225.0679930000007
 51
269.9183349999948
  0
ARC
  5
8FF
330
1F
100
AcDbEntity
  8
OBJECT1
100
AcDbCircle
 10
8.231255976665536
 20
14.63517140086227
 30
0.0
 40
0.03466265
100
AcDbArc
 50
135.0312189999992
 51
224.9687810000007
  0
ARC
  5
900
330
1F
100
AcDbEntity
  8
OBJECT1
100
AcDbCircle
 10
9.457482478899081
 20
14.41917577040916
 30
0.0
 40
0.0344278
100
AcDbArc
 50
44.99301100000283
 51
89.98518799999619
  0
ARC
  5
901
330
1F
100
AcDbEntity
  8
OBJECT2
100
AcDbCircle
 10
9.456372922293397
 20
13.85413222164057
 30
0.0
 40
0.03300825
100
AcDbArc
 50
270.0173800000094
 51
359.983902000001
  0
ARC
  5
902
330
1F
100
AcDbEntity
  8
OBJECT1
100
AcDbCircle
 10
9.457564927549654
 20
13.66306797421068
 30
0.0
 40
0.03443165
100
AcDbArc
 50
269.8796540000011
 51
314.8079829999976
  0
ARC
  5
903
330
1F
100
AcDbEntity
  8
OBJECT2
100
AcDbCircle
 10
9.456319641797406
 20
14.22805668684835
 30
0.0
 40
0.03305995
100
AcDbArc
 50
0.0790559999979922
 51
89.88687100000332
  0
LINE
  5
904
330
1F
100
AcDbEntity
  8
OBJECT1
100
AcDbLine
 10
9.535800141058942
 20
13.3493399689046
 30
0.0
 11
9.285828277257408
 21
13.09936810510301
 31
0.0
  0
LINE
  5
905
330
1F
100
AcDbEntity
  8
OBJECT1
100
AcDbLine
 10
9.494485199981866
 20
13.43829856281669
 30
0.0
 11
9.362859040430933
 21
13.56994105653424
 31
0.0
  0
LINE
  5
906
330
1F
100
AcDbEntity
  8
OBJECT2
100
AcDbLine
 10
8.51019842955641
 20
13.53012769206227
 30
0.0
 11
8.51019842955641
 21
13.59887897729029
 31
0.0
  0
LINE
  5
907
330
1F
100
AcDbEntity
  8
OBJECT2
100
AcDbLine
 10
8.661530205530155
 20
13.44758064746732
 30
0.0
 11
8.51019842955641
 21
13.59887897729029
 31
0.0
  0
LINE
  5
908
330
1F
100
AcDbEntity
  8
OBJECT2
100
AcDbLine
 10
8.510198040647722
 20
13.36506821574928
 30
0.0
 11
8.51019842955641
 21
13.29631731943001
 31
0.0
  0
LINE
  5
909
330
1F
100
AcDbEntity
  8
OBJECT2
100
AcDbLine
 10
8.661530205530155
 20
13.44758064746732
 30
0.0
 11
8.51019842955641
 21
13.29631731943001
 31
0.0
  0
ARC
  5
90A
330
1F
100
AcDbEntity
  8
OBJECT1
100
AcDbCircle
 10
9.310141295400356
 20
13.07506208731714
 30
0.0
 40
0.0343794
100
AcDbArc
 50
135.0087279999979
 51
224.9930110000028
  0
LINE
  5
90B
330
1F
100
AcDbEntity
  8
OBJECT2
100
AcDbLine
 10
9.47065170630249
 20
13.66262461825882
 30
0.0
 11
9.470650928485113
 21
13.82438031491343
 31
0.0
  0
LINE
  5
90C
330
1F
100
AcDbEntity
  8
OBJECT2
100
AcDbLine
 10
9.470650150667623
 20
14.4196144594563
 30
0.0
 11
9.470651317393802
 21
14.25785915171038
 31
0.0
  0
LINE
  5
90D
330
1F
100
AcDbEntity
  8
OBJECT2
100
AcDbLine
 10
9.214383021259052
 20
13.85413922199776
 30
0.0
 11
9.214383021259052
 21
14.22813485750307
 31
0.0
  0
ARC
  5
90E
330
1F
100
AcDbEntity
  8
OBJECT1
100
AcDbCircle
 10
9.387188781649186
 20
13.59423812941926
 30
0.0
 40
0.0343827
100
AcDbArc
 50
90.04512000000705
 51
224.961548000005
  0
ARC
  5
90F
330
1F
100
AcDbEntity
  8
OBJECT2
100
AcDbCircle
 10
9.247388927327236
 20
13.85411199838662
 30
0.0
 40
0.03300605
100
AcDbArc
 50
179.953002999996
 51
269.9826199999904
  0
ARC
  5
910
330
1F
100
AcDbEntity
  8
OBJECT2
100
AcDbCircle
 10
9.247360148081227
 20
14.22815585857451
 30
0.0
 40
0.03297745
100
AcDbArc
 50
89.96262400000231
 51
180.0367429999996
  0
LINE
  5
911
330
1F
100
AcDbEntity
  8
OBJECT2
100
AcDbLine
 10
9.456383033920204
 20
13.82112398212003
 30
0.0
 11
9.247379204609117
 21
13.82110725904467
 31
0.0
  0
LINE
  5
912
330
1F
100
AcDbEntity
  8
OBJECT1
100
AcDbLine
 10
9.457492590526115
 20
13.62863632873958
 30
0.0
 11
9.387161558038158
 21
13.62862077239039
 31
0.0
  0
LINE
  5
913
330
1F
100
AcDbEntity
  8
OBJECT2
100
AcDbLine
 10
9.456384589555185
 20
14.26111665123001
 30
0.0
 11
9.247381538061361
 21
14.26113337430538
 31
0.0
  0
ARC
  5
914
330
1F
100
AcDbEntity
  8
OBJECT1
100
AcDbCircle
 10
9.920544549625745
 20
13.45007213770988
 30
0.0
 40
0.275
100
AcDbArc
 50
0.0
 51
90.0
  0
LINE
  5
915
330
1F
100
AcDbEntity
  8
OBJECT2
100
AcDbLine
 10
9.494484033255574
 20
13.41694941810239
 30
0.0
 11
9.494485199981866
 21
13.43829856281669
 31
0.0
  0
ARC
  5
916
330
1F
100
AcDbEntity
  8
OBJECT1
100
AcDbCircle
 10
9.511477400197875
 20
13.37364870905158
 30
0.0
 40
0.03438655
100
AcDbArc
 50
315.0157320000051
 51
44.97902699999769
  0
LINE
  5
917
330
1F
100
AcDbEntity
  8
OBJECT1
100
AcDbLine
 10
9.50566204796344
 20
13.42809320884182
 30
0.0
 11
9.535801307785234
 21
13.39795472683746
 31
0.0
  0
LINE
  5
918
330
1F
100
AcDbEntity
  8
OBJECT2
100
AcDbLine
 10
10.15162479894873
 20
13.40918267912601
 30
0.0
 11
10.19554454962572
 21
13.40918265090399
 31
0.0
  0
LINE
  5
919
330
1F
100
AcDbEntity
  8
OBJECT1
100
AcDbLine
 10
10.19554454962572
 20
13.40918265090399
 30
0.0
 11
10.19554454962572
 21
13.45007213770988
 31
0.0
  0
LINE
  5
91A
330
1F
100
AcDbEntity
  8
OBJECT2
100
AcDbLine
 10
10.3628022670302
 20
13.31618440819939
 30
0.0
 11
10.23738697989183
 21
13.28191065967259
 31
0.0
  0
LINE
  5
91B
330
1F
100
AcDbEntity
  8
OBJECT2
100
AcDbLine
 10
10.23738697989183
 20
13.28191065967259
 30
0.0
 11
10.15165088371368
 21
13.3161847971082
 31
0.0
  0
LINE
  5
91C
330
1F
100
AcDbEntity
  8
OBJECT1
100
AcDbLine
 10
10.04824121922531
 20
13.27858704566895
 30
0.0
 11
10.15165088371368
 21
13.3161847971082
 31
0.0
  0
LINE
  5
91D
330
1F
100
AcDbEntity
  8
OBJECT2
100
AcDbLine
 10
10.36278554395489
 20
13.06881239925544
 30
0.0
 11
10.23740331405845
 21
13.10308575887349
 31
0.0
  0
LINE
  5
91E
330
1F
100
AcDbEntity
  8
OBJECT2
100
AcDbLine
 10
10.23740331405845
 20
13.10308575887349
 30
0.0
 11
10.23738697989183
 21
13.28191065967259
 31
0.0
  0
LINE
  5
91F
330
1F
100
AcDbEntity
  8
OBJECT2
100
AcDbLine
 10
10.23740331405845
 20
13.10308575887349
 30
0.0
 11
10.15161743756296
 21
13.06881239925544
 31
0.0
  0
LINE
  5
920
330
1F
100
AcDbEntity
  8
OBJECT1
100
AcDbLine
 10
10.04827466537604
 20
13.1064093728772
 30
0.0
 11
10.04824121922531
 21
13.27858704566895
 31
0.0
  0
LINE
  5
921
330
1F
100
AcDbEntity
  8
OBJECT1
100
AcDbLine
 10
10.04824121922531
 20
13.27858704566895
 30
0.0
 11
10.04827466537604
 21
13.1064093728772
 31
0.0
  0
LINE
  5
922
330
1F
100
AcDbEntity
  8
OBJECT1
100
AcDbLine
 10
10.08259819422024
 20
13.09392151356799
 30
0.0
 11
10.04827466537604
 21
13.1064093728772
 31
0.0
  0
LINE
  5
923
330
1F
100
AcDbEntity
  8
OBJECT1
100
AcDbLine
 10
10.15163347922039
 20
13.31617846917136
 30
0.0
 11
10.15162479894873
 21
13.40918267912601
 31
0.0
  0
LINE
  5
924
330
1F
100
AcDbEntity
  8
OBJECT2
100
AcDbLine
 10
9.850542864911361
 20
14.35713466606969
 30
0.0
 11
9.850542864911361
 21
13.72507213770986
 31
0.0
  0
LINE
  5
925
330
1F
100
AcDbEntity
  8
OBJECT2
100
AcDbLine
 10
9.680260131570051
 20
14.31588476176991
 30
0.0
 11
9.680259778483858
 21
13.76640417363537
 31
0.0
  0
LINE
  5
926
330
1F
100
AcDbEntity
  8
OBJECT2
100
AcDbLine
 10
9.773282311502114
 20
13.7664045238579
 30
0.0
 11
9.773283089319605
 21
14.31586722219051
 31
0.0
  0
LINE
  5
927
330
1F
100
AcDbEntity
  8
OBJECT2
100
AcDbLine
 10
9.63376153959355
 20
14.23006540318166
 30
0.0
 11
9.633761442808307
 21
13.85214140059783
 31
0.0
  0
LINE
  5
928
330
1F
100
AcDbEntity
  8
OBJECT2
100
AcDbLine
 10
9.726758370460245
 20
14.23006540318166
 30
0.0
 11
9.726758467245375
 21
13.85214140059783
 31
0.0
  0
LINE
  5
929
330
1F
100
AcDbEntity
  8
OBJECT2
100
AcDbLine
 10
9.587237598551567
 20
13.7664045238579
 30
0.0
 11
9.58723682073419
 21
14.31586722219051
 31
0.0
  0
LINE
  5
92A
330
1F
100
AcDbEntity
  8
OBJECT2
100
AcDbLine
 10
9.489380383996447
 20
14.22810218916978
 30
0.0
 11
9.489381939631428
 21
13.85412288783103
 31
0.0
  0
LINE
  5
92B
330
1F
100
AcDbEntity
  8
OBJECT1
100
AcDbLine
 10
9.481830109918931
 20
13.63863945017501
 30
0.0
 11
9.549673682171899
 21
13.70653358056286
 31
0.0
  0
LINE
  5
92C
330
1F
100
AcDbEntity
  8
OBJECT1
100
AcDbLine
 10
9.587237535379543
 20
13.76640469063621
 30
0.0
 11
9.773256493748775
 21
13.76640407793555
 31
0.0
  0
LINE
  5
92D
330
1F
100
AcDbEntity
  8
OBJECT1
100
AcDbLine
 10
9.773257271566379
 20
13.70444713770987
 30
0.0
 11
9.850542864911361
 21
13.70444713770987
 31
0.0
  0
LINE
  5
92E
330
1F
100
AcDbEntity
  8
OBJECT1
100
AcDbLine
 10
9.850542864911361
 20
13.72507213770986
 30
0.0
 11
9.920544549625745
 21
13.72507213770986
 31
0.0
  0
LINE
  5
92F
330
1F
100
AcDbEntity
  8
OBJECT1
100
AcDbLine
 10
9.850542864911361
 20
13.70444713770987
 30
0.0
 11
9.850542864911361
 21
13.72507213770986
 31
0.0
  0
LINE
  5
930
330
1F
100
AcDbEntity
  8
OBJECT1
100
AcDbLine
 10
9.773257271566379
 20
13.76632213770991
 30
0.0
 11
9.773257271566379
 21
13.70444713770987
 31
0.0
  0
ARC
  5
931
330
1F
100
AcDbEntity
  8
OBJECT1
100
AcDbCircle
 10
9.574048925711693
 20
13.68206966583275
 30
0.0
 40
0.03453505
100
AcDbArc
 50
90.11753099999442
 51
134.8955730000032
  0
LINE
  5
932
330
1F
100
AcDbEntity
  8
OBJECT1
100
AcDbLine
 10
9.587236431825502
 20
13.7166059277521
 30
0.0
 11
9.573978144322907
 21
13.71660476102592
 31
0.0
  0
LINE
  5
933
330
1F
100
AcDbEntity
  8
OBJECT1
100
AcDbLine
 10
9.587236431825502
 20
13.7166059277521
 30
0.0
 11
9.587237598551567
 21
13.7664045238579
 31
0.0
  0
LINE
  5
934
330
1F
100
AcDbEntity
  8
OBJECT1
100
AcDbLine
 10
9.587236789255214
 20
14.31586730440042
 30
0.0
 11
9.773257271566379
 21
14.31588466606964
 31
0.0
  0
LINE
  5
935
330
1F
100
AcDbEntity
  8
OBJECT1
100
AcDbLine
 10
9.773257271566379
 20
14.37775966606962
 30
0.0
 11
9.850542864911361
 21
14.37775966606962
 31
0.0
  0
LINE
  5
936
330
1F
100
AcDbEntity
  8
OBJECT1
100
AcDbLine
 10
9.850542864911361
 20
14.37775966606962
 30
0.0
 11
9.850542864911361
 21
14.35713466606969
 31
0.0
  0
LINE
  5
937
330
1F
100
AcDbEntity
  8
OBJECT1
100
AcDbLine
 10
9.773257271566379
 20
14.31588466606964
 30
0.0
 11
9.773257271566379
 21
14.37775966606962
 31
0.0
  0
LINE
  5
938
330
1F
100
AcDbEntity
  8
OBJECT2
100
AcDbLine
 10
9.489382328540003
 20
14.04110281578217
 30
0.0
 11
9.489382328540003
 21
14.04110281578217
 31
0.0
  0
ARC
  5
939
330
1F
100
AcDbEntity
  8
OBJECT1
100
AcDbCircle
 10
9.573955198707906
 20
14.39986645198197
 30
0.0
 40
0.03426555
100
AcDbArc
 50
224.8771969999947
 51
270.0378269999916
  0
LINE
  5
93A
330
1F
100
AcDbEntity
  8
OBJECT1
100
AcDbLine
 10
9.587235265099209
 20
14.36561876034001
 30
0.0
 11
9.573978144322907
 21
14.36560087053842
 31
0.0
  0
LINE
  5
93B
330
1F
100
AcDbEntity
  8
OBJECT1
100
AcDbLine
 10
9.587235265099209
 20
14.36561876034001
 30
0.0
 11
9.58723682073419
 21
14.31588511199199
 31
0.0
  0
LINE
  5
93C
330
1F
100
AcDbEntity
  8
OBJECT1
100
AcDbLine
 10
9.481829332101554
 20
14.44351640107194
 30
0.0
 11
9.549674071080701
 21
14.3756887740769
 31
0.0
  0
LINE
  5
93D
330
1F
100
AcDbEntity
  8
OBJECT1
100
AcDbLine
 10
9.850542864911361
 20
14.35713466606969
 30
0.0
 11
9.969719993507126
 21
14.35713466606969
 31
0.0
  0
LINE
  5
93E
330
1F
100
AcDbEntity
  8
OBJECT2
100
AcDbLine
 10
10.61534442862621
 20
13.10308692559979
 30
0.0
 11
10.6153098157492
 21
13.28190988185516
 31
0.0
  0
LINE
  5
93F
330
1F
100
AcDbEntity
  8
OBJECT1
100
AcDbLine
 10
6.350851933914285
 20
14.60829080728611
 30
0.0
 11
7.148727749860043
 21
15.40616662323193
 31
0.0
  0
LINE
  5
940
330
1F
100
AcDbEntity
  8
OBJECT2
100
AcDbLine
 10
8.07430135827856
 20
14.52725428419707
 30
0.0
 11
7.148727360951355
 21
15.45287806184168
 31
0.0
  0
LINE
  5
941
330
1F
100
AcDbEntity
  8
OBJECT1
100
AcDbLine
 10
8.36598562787897
 20
14.81892066399611
 30
0.0
 11
8.206732558899901
 21
14.65966759501682
 31
0.0
  0
LINE
  5
942
330
1F
100
AcDbEntity
  8
OBJECT1
100
AcDbLine
 10
5.013723854564389
 20
13.40919129914058
 30
0.0
 11
5.013723854564389
 21
13.66964361097048
 31
0.0
  0
LINE
  5
943
330
1F
100
AcDbEntity
  8
OBJECT2
100
AcDbLine
 10
5.013723854564389
 20
13.40919129914058
 30
0.0
 11
4.969826230238325
 21
13.40919127093288
 31
0.0
  0
LINE
  5
944
330
1F
100
AcDbEntity
  8
OBJECT1
100
AcDbLine
 10
4.96983882201728
 20
13.31619413091763
 30
0.0
 11
4.96983882201728
 21
13.31619413091763
 31
0.0
  0
LINE
  5
945
330
1F
100
AcDbEntity
  8
OBJECT1
100
AcDbLine
 10
4.969829781416663
 20
13.31619409610109
 30
0.0
 11
4.969829475106919
 21
13.40919127093487
 31
0.0
  0
LINE
  5
946
330
1F
100
AcDbEntity
  8
OBJECT2
100
AcDbLine
 10
5.475399298445907
 20
13.40919159580473
 30
0.0
 11
5.013723854564389
 21
13.40919129914058
 31
0.0
  0
LINE
  5
947
330
1F
100
AcDbEntity
  8
OBJECT2
100
AcDbLine
 10
5.51931046525074
 20
13.31619434328333
 30
0.0
 11
4.96982987711631
 21
13.31619469636947
 31
0.0
  0
LINE
  5
948
330
1F
100
AcDbEntity
  8
OBJECT2
100
AcDbLine
 10
5.433491106662543
 20
13.36269293525966
 30
0.0
 11
5.055567104078775
 21
13.3626930320449
 31
0.0
  0
ARC
  5
949
330
1F
100
AcDbEntity
  8
OBJECT1
100
AcDbCircle
 10
5.701223854564389
 20
13.66964361097048
 30
0.0
 40
0.6875
100
AcDbArc
 50
90.0
 51
180.0
  0
ARC
  5
94A
330
1F
100
AcDbEntity
  8
OBJECT1
100
AcDbCircle
 10
5.750399298445884
 20
13.45008108261063
 30
0.0
 40
0.275
100
AcDbArc
 50
90.0
 51
180.0
  0
ARC
  5
94B
330
1F
100
AcDbEntity
  8
OBJECT1
100
AcDbCircle
 10
4.551715360093638
 20
13.30041679035857
 30
0.0
 40
0.011011
100
AcDbArc
 50
90.17468200000001
 51
180.0
  0
LINE
  5
94C
330
1F
100
AcDbEntity
  8
OBJECT1
100
AcDbLine
 10
4.540704360093698
 20
13.30041679035857
 30
0.0
 11
4.540704910093907
 21
12.94347394035858
 31
0.0
  0
ARC
  5
94D
330
1F
100
AcDbEntity
  8
OBJECT1
100
AcDbCircle
 10
4.597873846183645
 20
13.30058496982635
 30
0.0
 40
0.01086085
100
AcDbArc
 50
359.1145020000004
 51
90.53214399999808
  0
LINE
  5
94E
330
1F
100
AcDbEntity
  8
OBJECT1
100
AcDbLine
 10
4.866411346183625
 20
13.27859706982641
 30
0.0
 11
4.866444896183409
 21
13.10638601982636
 31
0.0
  0
LINE
  5
94F
330
1F
100
AcDbEntity
  8
OBJECT2
100
AcDbLine
 10
5.055608046183536
 20
13.10302936982631
 30
0.0
 11
5.055608046183536
 21
13.28185306982637
 31
0.0
  0
LINE
  5
950
330
1F
100
AcDbEntity
  8
OBJECT2
100
AcDbLine
 10
5.055608046183536
 20
13.28185306982637
 30
0.0
 11
4.969821796183467
 21
13.31619451982637
 31
0.0
  0
LINE
  5
951
330
1F
100
AcDbEntity
  8
OBJECT1
100
AcDbLine
 10
4.969807325150966
 20
13.31621915039002
 30
0.0
 11
4.969826230238325
 21
13.40919127093288
 31
0.0
  0
LINE
  5
952
330
1F
100
AcDbEntity
  8
OBJECT1
100
AcDbLine
 10
4.866411346183625
 20
13.27859706982641
 30
0.0
 11
4.969821796183467
 21
13.31619451982637
 31
0.0
  0
LINE
  5
953
330
1F
100
AcDbEntity
  8
OBJECT2
100
AcDbLine
 10
5.055608046183536
 20
13.10302936982631
 30
0.0
 11
4.969821796183467
 21
13.06882211982635
 31
0.0
  0
LINE
  5
954
330
1F
100
AcDbEntity
  8
OBJECT1
100
AcDbLine
 10
4.900819896183477
 20
13.09389826982637
 30
0.0
 11
4.866444896183409
 21
13.10638601982636
 31
0.0
  0
LINE
  5
955
330
1F
100
AcDbEntity
  8
OBJECT1
100
AcDbLine
 10
4.608733046183559
 20
13.3004172198264
 30
0.0
 11
4.608750096183555
 21
12.94347436982635
 31
0.0
  0
LINE
  5
956
330
1F
100
AcDbEntity
  8
OBJECT2
100
AcDbLine
 10
5.433481146183524
 20
13.28185306982637
 30
0.0
 11
5.519335046183485
 21
13.31619451982637
 31
0.0
  0
LINE
  5
957
330
1F
100
AcDbEntity
  8
OBJECT2
100
AcDbLine
 10
5.433481146183524
 20
13.10306291982637
 30
0.0
 11
5.433481146183524
 21
13.28185306982637
 31
0.0
  0
LINE
  5
958
330
1F
100
AcDbEntity
  8
OBJECT1
100
AcDbLine
 10
5.622661346183647
 20
13.27856351982634
 30
0.0
 11
5.622661346183647
 21
13.10638601982636
 31
0.0
  0
LINE
  5
959
330
1F
100
AcDbEntity
  8
OBJECT1
100
AcDbLine
 10
5.622661346183647
 20
13.10638601982636
 30
0.0
 11
5.622711946183429
 21
13.27863061982636
 31
0.0
  0
LINE
  5
95A
330
1F
100
AcDbEntity
  8
OBJECT1
100
AcDbLine
 10
5.622661346183647
 20
13.27856351982634
 30
0.0
 11
5.519335046183485
 21
13.31619451982637
 31
0.0
  0
LINE
  5
95B
330
1F
100
AcDbEntity
  8
OBJECT1
100
AcDbLine
 10
5.519310021183471
 20
13.40919162402095
 30
0.0
 11
5.519310021183471
 21
13.31619451982637
 31
0.0
  0
LINE
  5
95C
330
1F
100
AcDbEntity
  8
OBJECT2
100
AcDbLine
 10
5.308150446183688
 20
13.31619451982637
 30
0.0
 11
5.433481146183524
 21
13.28185306982637
 31
0.0
  0
LINE
  5
95D
330
1F
100
AcDbEntity
  8
OBJECT2
100
AcDbLine
 10
5.433481146183524
 20
13.10306291982637
 30
0.0
 11
5.519335046183485
 21
13.06882211982635
 31
0.0
  0
LINE
  5
95E
330
1F
100
AcDbEntity
  8
OBJECT1
100
AcDbLine
 10
5.588286346183579
 20
13.09389826982637
 30
0.0
 11
5.622661346183647
 21
13.10638601982636
 31
0.0
  0
LINE
  5
95F
330
1F
100
AcDbEntity
  8
OBJECT2
100
AcDbLine
 10
5.308099846183566
 20
13.06878856982634
 30
0.0
 11
5.433481146183524
 21
13.10306291982637
 31
0.0
  0
LINE
  5
960
330
1F
100
AcDbEntity
  8
OBJECT2
100
AcDbLine
 10
5.519310021183471
 20
13.31619451982637
 30
0.0
 11
4.969830321183579
 21
13.31619451982637
 31
0.0
  0
LINE
  5
961
330
1F
100
AcDbEntity
  8
OBJECT2
100
AcDbLine
 10
5.180972846183593
 20
13.31619451982637
 30
0.0
 11
5.055608046183536
 21
13.28185306982637
 31
0.0
  0
LINE
  5
962
330
1F
100
AcDbEntity
  8
OBJECT2
100
AcDbLine
 10
5.181006396183491
 20
13.06878856982634
 30
0.0
 11
5.055608046183536
 21
13.10302936982631
 31
0.0
  0
LINE
  5
963
330
1F
100
AcDbEntity
  8
OBJECT1
100
AcDbLine
 10
4.551681790072692
 20
13.31142773918482
 30
0.0
 11
4.597772975698447
 21
13.31144535139733
 31
0.0
  0
ARC
  5
964
330
1F
100
AcDbEntity
  8
OBJECT1
100
AcDbCircle
 10
9.969719993507126
 20
13.66963466606969
 30
0.0
 40
0.6875
100
AcDbArc
 50
0.0
 51
90.0
  0
LINE
  5
965
330
1F
100
AcDbEntity
  8
OBJECT2
100
AcDbLine
 10
10.19554454962572
 20
13.40918265090399
 30
0.0
 11
10.65721999350712
 21
13.40918235423983
 31
0.0
  0
LINE
  5
966
330
1F
100
AcDbEntity
  8
OBJECT2
100
AcDbLine
 10
10.15163338282066
 20
13.31618539838248
 30
0.0
 11
10.7011139709552
 21
13.31618575146861
 31
0.0
  0
LINE
  5
967
330
1F
100
AcDbEntity
  8
OBJECT2
100
AcDbLine
 10
10.6153098157492
 20
13.28190988185516
 30
0.0
 11
10.70111397095497
 21
13.31618518601683
 31
0.0
  0
LINE
  5
968
330
1F
100
AcDbEntity
  8
OBJECT2
100
AcDbLine
 10
10.61534442862621
 20
13.10308692559979
 30
0.0
 11
10.70113108293908
 21
13.06884545649747
 31
0.0
  0
LINE
  5
969
330
1F
100
AcDbEntity
  8
OBJECT2
100
AcDbLine
 10
22.19835429591337
 20
12.40284379288251
 30
0.0
 11
22.10704283983371
 21
12.40282745837438
 31
0.0
  0
LINE
  5
96A
330
1F
100
AcDbEntity
  8
OBJECT2
100
AcDbLine
 10
22.11037174551889
 20
12.48498209506473
 30
0.0
 11
22.11036697569871
 21
12.40282805302185
 31
0.0
  0
ARC
  5
96B
330
1F
100
AcDbEntity
  8
OBJECT1
100
AcDbCircle
 10
21.83481046512345
 20
12.57220093160051
 30
0.0
 40
0.27556155
100
AcDbArc
 50
359.9957579999965
 51
9.971405000003036
  0
LINE
  5
96C
330
1F
100
AcDbEntity
  8
OBJECT1
100
AcDbLine
 10
22.11037174551889
 20
12.57218070834655
 30
0.0
 11
22.11037252333626
 21
12.49361181114718
 31
0.0
  0
ARC
  5
96D
330
1F
100
AcDbEntity
  8
OBJECT1
100
AcDbCircle
 10
22.07598715800402
 20
12.49358886553218
 30
0.0
 40
0.03438545
100
AcDbArc
 50
270.015762000003
 51
0.0386200000043527
  0
LINE
  5
96E
330
1F
100
AcDbEntity
  8
OBJECT2
100
AcDbLine
 10
22.10704283983371
 20
12.40282745837438
 30
0.0
 11
22.08834566374691
 21
12.37529972067206
 31
0.0
  0
LINE
  5
96F
330
1F
100
AcDbEntity
  8
OBJECT2
100
AcDbLine
 10
22.52836813889798
 20
12.39109466553466
 30
0.0
 11
22.60537595645651
 21
12.39111177751871
 31
0.0
  0
LINE
  5
970
330
1F
100
AcDbEntity
  8
OBJECT2
100
AcDbLine
 10
23.4015051832974
 20
12.55895817378833
 30
0.0
 11
23.28324037206239
 21
12.55892472763761
 31
0.0
  0
ARC
  5
971
330
1F
100
AcDbEntity
  8
OBJECT2
100
AcDbCircle
 10
23.40135389780159
 20
12.52442969004365
 30
0.0
 40
0.034529
100
AcDbArc
 50
0.2000270000043067
 51
89.74889800000187
  0
ARC
  5
972
330
1F
100
AcDbEntity
  8
OBJECT2
100
AcDbCircle
 10
23.47031986064833
 20
12.49048340266713
 30
0.0
 40
0.03444045
100
AcDbArc
 50
180.0394900000009
 51
264.4665989999988
  0
ARC
  5
973
330
1F
100
AcDbEntity
  8
OBJECT2
100
AcDbCircle
 10
23.28330687545515
 20
12.59336531800945
 30
0.0
 40
0.03444045
100
AcDbArc
 50
180.1098329999966
 51
269.8895570000004
  0
LINE
  5
974
330
1F
100
AcDbEntity
  8
OBJECT2
100
AcDbLine
 10
23.22654292400132
 20
12.681032734939
 30
0.0
 11
23.18333827540671
 21
12.6972813416639
 31
0.0
  0
ARC
  5
975
330
1F
100
AcDbEntity
  8
OBJECT2
100
AcDbCircle
 10
23.21460225927474
 20
12.64891859658799
 30
0.0
 40
0.0342628
100
AcDbArc
 50
359.9243320000029
 51
69.60372899999796
  0
LINE
  5
976
330
1F
100
AcDbEntity
  8
OBJECT1
100
AcDbLine
 10
23.64938238468114
 20
12.36722694788706
 30
0.0
 11
23.85831776605603
 21
12.5762128873969
 31
0.0
  0
ARC
  5
977
330
1F
100
AcDbEntity
  8
OBJECT2
100
AcDbCircle
 10
23.83504235640391
 20
12.59952718792211
 30
0.0
 40
0.0329439
100
AcDbArc
 50
314.9525600000016
 51
45.04743999999832
  0
LINE
  5
978
330
1F
100
AcDbEntity
  8
OBJECT2
100
AcDbLine
 10
23.85831776605603
 20
12.5762128873969
 30
0.0
 11
23.85831776605603
 21
12.5762128873969
 31
0.0
  0
ARC
  5
979
330
1F
100
AcDbEntity
  8
OBJECT1
100
AcDbCircle
 10
23.88163089985501
 20
12.55288264161375
 30
0.0
 40
0.03298185
100
AcDbArc
 50
134.9790429999996
 51
225.0218810000037
  0
ARC
  5
97A
330
1F
100
AcDbEntity
  8
OBJECT1
100
AcDbCircle
 10
24.4908766481097
 20
12.44649665861722
 30
0.0
 40
0.0343761
100
AcDbArc
 50
45.00524100000087
 51
134.9969400000003
  0
ARC
  5
97B
330
1F
100
AcDbEntity
  8
OBJECT1
100
AcDbCircle
 10
25.01784875460653
 20
12.62306433314935
 30
0.0
 40
0.03437665
100
AcDbArc
 50
314.9999999999954
 51
44.99825299999881
  0
LINE
  5
97C
330
1F
100
AcDbEntity
  8
OBJECT2
100
AcDbLine
 10
24.89057759501038
 20
12.44718113798145
 30
0.0
 11
24.66676023218651
 21
12.67099772298777
 31
0.0
  0
LINE
  5
97D
330
1F
100
AcDbEntity
  8
OBJECT2
100
AcDbLine
 10
19.99535619751891
 20
12.3101809341173
 30
0.0
 11
20.0058969475187
 21
12.3468719841173
 31
0.0
  0
LINE
  5
97E
330
1F
100
AcDbEntity
  8
OBJECT2
100
AcDbLine
 10
19.99530559751879
 20
12.42931808411733
 30
0.0
 11
20.00584634751892
 21
12.51179828411729
 31
0.0
  0
LINE
  5
97F
330
1F
100
AcDbEntity
  8
OBJECT2
100
AcDbLine
 10
19.99535619751891
 20
12.54842223411733
 30
0.0
 11
20.00584634751892
 21
12.51179828411729
 31
0.0
  0
LINE
  5
980
330
1F
100
AcDbEntity
  8
OBJECT1
100
AcDbLine
 10
20.00487284751871
 20
12.58330103411733
 30
0.0
 11
19.99535619751891
 21
12.54842223411733
 31
0.0
  0
LINE
  5
981
330
1F
100
AcDbEntity
  8
OBJECT2
100
AcDbLine
 10
20.0058969475187
 20
12.3468719841173
 30
0.0
 11
19.99530559751879
 21
12.42931808411733
 31
0.0
  0
LINE
  5
982
330
1F
100
AcDbEntity
  8
OBJECT1
100
AcDbLine
 10
19.99527204751866
 20
12.54838868411732
 30
0.0
 11
19.99535619751891
 21
12.3101809341173
 31
0.0
  0
LINE
  5
983
330
1F
100
AcDbEntity
  8
OBJECT2
100
AcDbLine
 10
20.13280559751883
 20
12.31031513411735
 30
0.0
 11
20.13280559751883
 21
12.54825448411732
 31
0.0
  0
LINE
  5
984
330
1F
100
AcDbEntity
  8
OBJECT2
100
AcDbLine
 10
20.12229839751883
 20
12.51179828411729
 30
0.0
 11
20.13278854751872
 21
12.42931808411733
 31
0.0
  0
LINE
  5
985
330
1F
100
AcDbEntity
  8
OBJECT2
100
AcDbLine
 10
20.1222648475187
 20
12.3468719841173
 30
0.0
 11
20.13280559751883
 21
12.31031513411735
 31
0.0
  0
LINE
  5
986
330
1F
100
AcDbEntity
  8
OBJECT2
100
AcDbLine
 10
20.13278854751872
 20
12.42931808411733
 30
0.0
 11
20.1222648475187
 21
12.3468719841173
 31
0.0
  0
LINE
  5
987
330
1F
100
AcDbEntity
  8
OBJECT2
100
AcDbLine
 10
20.13280559751883
 20
12.54825448411732
 30
0.0
 11
20.12229839751883
 21
12.51179828411729
 31
0.0
  0
LINE
  5
988
330
1F
100
AcDbEntity
  8
OBJECT1
100
AcDbLine
 10
20.13280559751883
 20
12.54825448411732
 30
0.0
 11
20.1232718975187
 21
12.58330103411733
 31
0.0
  0
LINE
  5
989
330
1F
100
AcDbEntity
  8
OBJECT2
100
AcDbLine
 10
20.1222648475187
 20
12.3468719841173
 30
0.0
 11
20.0058969475187
 21
12.3468719841173
 31
0.0
  0
LINE
  5
98A
330
1F
100
AcDbEntity
  8
OBJECT2
100
AcDbLine
 10
20.12229839751883
 20
12.51179828411729
 30
0.0
 11
20.00584634751892
 21
12.51179828411729
 31
0.0
  0
LINE
  5
98B
330
1F
100
AcDbEntity
  8
OBJECT1
100
AcDbLine
 10
20.1232718975187
 20
12.58330103411733
 30
0.0
 11
20.00487284751871
 21
12.58330103411733
 31
0.0
  0
ARC
  5
98C
330
1F
100
AcDbEntity
  8
OBJECT1
100
AcDbCircle
 10
20.1328223870167
 20
12.14339124693227
 30
0.0
 40
0.0109604
100
AcDbArc
 50
89.91238400000506
 51
180.0
  0
LINE
  5
98D
330
1F
100
AcDbEntity
  8
OBJECT1
100
AcDbLine
 10
20.00483929751881
 20
12.2753021341173
 30
0.0
 11
20.12323834751892
 21
12.2753021341173
 31
0.0
  0
LINE
  5
98E
330
1F
100
AcDbEntity
  8
OBJECT1
100
AcDbLine
 10
20.13280559751883
 20
12.31031513411735
 30
0.0
 11
20.13283914751885
 21
12.15435163411731
 31
0.0
  0
LINE
  5
98F
330
1F
100
AcDbEntity
  8
OBJECT1
100
AcDbLine
 10
20.13280559751883
 20
12.31031513411735
 30
0.0
 11
20.12323834751892
 21
12.2753021341173
 31
0.0
  0
LINE
  5
990
330
1F
100
AcDbEntity
  8
OBJECT1
100
AcDbLine
 10
20.00483929751881
 20
12.2753021341173
 30
0.0
 11
19.99535619751891
 21
12.3101809341173
 31
0.0
  0
LINE
  5
991
330
1F
100
AcDbEntity
  8
OBJECT2
100
AcDbLine
 10
20.17891319751864
 20
12.3468719841173
 30
0.0
 11
20.21380849751877
 21
12.3468719841173
 31
0.0
  0
LINE
  5
992
330
1F
100
AcDbEntity
  8
OBJECT1
100
AcDbLine
 10
20.17891319751864
 20
12.3468719841173
 30
0.0
 11
20.21380849751877
 21
12.3468719841173
 31
0.0
  0
LINE
  5
993
330
1F
100
AcDbEntity
  8
OBJECT2
100
AcDbLine
 10
20.17891319751864
 20
12.51179828411729
 30
0.0
 11
20.21380849751877
 21
12.51189893411727
 31
0.0
  0
LINE
  5
994
330
1F
100
AcDbEntity
  8
OBJECT2
100
AcDbLine
 10
20.22465119751878
 20
12.3261930841173
 30
0.0
 11
20.25501449751875
 21
12.32615953411728
 31
0.0
  0
LINE
  5
995
330
1F
100
AcDbEntity
  8
OBJECT2
100
AcDbLine
 10
20.22466824751878
 20
12.53244308411731
 30
0.0
 11
20.25504859751875
 21
12.53240953411729
 31
0.0
  0
LINE
  5
996
330
1F
100
AcDbEntity
  8
OBJECT1
100
AcDbLine
 10
20.25504859751875
 20
12.56678453411725
 30
0.0
 11
20.28249139751876
 21
12.56681808411732
 31
0.0
  0
LINE
  5
997
330
1F
100
AcDbEntity
  8
OBJECT2
100
AcDbLine
 10
20.22466824751878
 20
12.53244308411731
 30
0.0
 11
20.21382499751878
 21
12.42931808411733
 31
0.0
  0
LINE
  5
998
330
1F
100
AcDbEntity
  8
OBJECT2
100
AcDbLine
 10
20.22466824751878
 20
12.53244308411731
 30
0.0
 11
20.21382499751878
 21
12.57846653411731
 31
0.0
  0
LINE
  5
999
330
1F
100
AcDbEntity
  8
OBJECT1
100
AcDbLine
 10
20.21384204751889
 20
12.51179828411729
 30
0.0
 11
20.21382499751878
 21
12.57846653411731
 31
0.0
  0
LINE
  5
99A
330
1F
100
AcDbEntity
  8
OBJECT2
100
AcDbLine
 10
20.21380849751877
 20
12.3468719841173
 30
0.0
 11
20.21380849751877
 21
12.51189893411727
 31
0.0
  0
LINE
  5
99B
330
1F
100
AcDbEntity
  8
OBJECT2
100
AcDbLine
 10
20.22465119751878
 20
12.3261930841173
 30
0.0
 11
20.21382499751878
 21
12.42931808411733
 31
0.0
  0
LINE
  5
99C
330
1F
100
AcDbEntity
  8
OBJECT2
100
AcDbLine
 10
20.17891319751864
 20
12.51179828411729
 30
0.0
 11
20.17891319751864
 21
12.3468719841173
 31
0.0
  0
ARC
  5
99D
330
1F
100
AcDbEntity
  8
OBJECT1
100
AcDbCircle
 10
20.17829352743702
 20
12.14332453464546
 30
0.0
 40
0.011011
100
AcDbArc
 50
359.8255920000013
 51
90.0
  0
LINE
  5
99E
330
1F
100
AcDbEntity
  8
OBJECT1
100
AcDbLine
 10
20.2247017975189
 20
12.2340455341173
 30
0.0
 11
20.25501449751875
 21
12.23407908411731
 31
0.0
  0
LINE
  5
99F
330
1F
100
AcDbEntity
  8
OBJECT1
100
AcDbLine
 10
20.28252494751889
 20
12.29178453411727
 30
0.0
 11
20.2825749975188
 21
12.22306808411732
 31
0.0
  0
LINE
  5
9A0
330
1F
100
AcDbEntity
  8
OBJECT1
100
AcDbLine
 10
20.25501449751875
 20
12.23407908411731
 30
0.0
 11
20.25503154751875
 21
12.29181808411734
 31
0.0
  0
LINE
  5
9A1
330
1F
100
AcDbEntity
  8
OBJECT1
100
AcDbLine
 10
20.25503154751875
 20
12.29181808411734
 30
0.0
 11
20.28252494751889
 21
12.29178453411727
 31
0.0
  0
LINE
  5
9A2
330
1F
100
AcDbEntity
  8
OBJECT1
100
AcDbLine
 10
20.2247017975189
 20
12.2340455341173
 30
0.0
 11
20.21380849751877
 21
12.28010253411732
 31
0.0
  0
LINE
  5
9A3
330
1F
100
AcDbEntity
  8
OBJECT1
100
AcDbLine
 10
20.2825749975188
 20
12.22306808411732
 30
0.0
 11
20.44753484751886
 21
12.22303453411725
 31
0.0
  0
LINE
  5
9A4
330
1F
100
AcDbEntity
  8
OBJECT2
100
AcDbLine
 10
21.20378484751888
 20
12.29450373411727
 30
0.0
 11
20.47796524751875
 21
12.2945708341173
 31
0.0
  0
LINE
  5
9A5
330
1F
100
AcDbEntity
  8
OBJECT1
100
AcDbLine
 10
20.17891319751864
 20
12.3468719841173
 30
0.0
 11
20.17891319751864
 21
12.1543180841173
 31
0.0
  0
LINE
  5
9A6
330
1F
100
AcDbEntity
  8
OBJECT1
100
AcDbLine
 10
20.17891319751864
 20
12.1543180841173
 30
0.0
 11
20.17891319751864
 21
12.3468719841173
 31
0.0
  0
LINE
  5
9A7
330
1F
100
AcDbEntity
  8
OBJECT2
100
AcDbLine
 10
20.22465119751878
 20
12.3261930841173
 30
0.0
 11
20.21380849751877
 21
12.28010253411732
 31
0.0
  0
LINE
  5
9A8
330
1F
100
AcDbEntity
  8
OBJECT1
100
AcDbLine
 10
20.21380849751877
 20
12.3468719841173
 30
0.0
 11
20.21380849751877
 21
12.28010253411732
 31
0.0
  0
LINE
  5
9A9
330
1F
100
AcDbEntity
  8
OBJECT2
100
AcDbLine
 10
20.28252494751889
 20
12.29178453411727
 30
0.0
 11
20.28249139751876
 21
12.56681808411732
 31
0.0
  0
LINE
  5
9AA
330
1F
100
AcDbEntity
  8
OBJECT2
100
AcDbLine
 10
20.25504859751875
 20
12.56678453411725
 30
0.0
 11
20.25503154751875
 21
12.29181808411734
 31
0.0
  0
LINE
  5
9AB
330
1F
100
AcDbEntity
  8
OBJECT2
100
AcDbLine
 10
20.13283914751885
 20
12.15435163411731
 30
0.0
 11
20.17891319751864
 21
12.1543180841173
 31
0.0
  0
LINE
  5
9AC
330
1F
100
AcDbEntity
  8
OBJECT1
100
AcDbLine
 10
20.2247017975189
 20
12.62452408411731
 30
0.0
 11
20.25501449751875
 21
12.62459118411728
 31
0.0
  0
LINE
  5
9AD
330
1F
100
AcDbEntity
  8
OBJECT1
100
AcDbLine
 10
20.17951709751874
 20
12.68884273411733
 30
0.0
 11
20.28257499999638
 21
12.6888208544486
 31
0.0
  0
LINE
  5
9AE
330
1F
100
AcDbEntity
  8
OBJECT1
100
AcDbLine
 10
20.17946704751882
 20
12.65003638411732
 30
0.0
 11
20.2826085475187
 21
12.64996928411729
 31
0.0
  0
LINE
  5
9AF
330
1F
100
AcDbEntity
  8
OBJECT1
100
AcDbLine
 10
20.17891319751864
 20
12.68884273411733
 30
0.0
 11
20.2825749975188
 21
12.68880918411732
 31
0.0
  0
LINE
  5
9B0
330
1F
100
AcDbEntity
  8
OBJECT1
100
AcDbLine
 10
20.2825749975188
 20
12.68880918411732
 30
0.0
 11
20.28252494751889
 21
12.70106208411728
 31
0.0
  0
LINE
  5
9B1
330
1F
100
AcDbEntity
  8
OBJECT2
100
AcDbLine
 10
20.17946704751882
 20
12.65003638411732
 30
0.0
 11
20.17951709751874
 21
12.68884273411733
 31
0.0
  0
LINE
  5
9B2
330
1F
100
AcDbEntity
  8
OBJECT1
100
AcDbLine
 10
20.17891319751864
 20
12.70431808411731
 30
0.0
 11
20.17891319751864
 21
12.68884273411733
 31
0.0
  0
LINE
  5
9B3
330
1F
100
AcDbEntity
  8
OBJECT1
100
AcDbLine
 10
20.17891319751864
 20
12.68884273411733
 30
0.0
 11
20.17891319751864
 21
12.70431808411731
 31
0.0
  0
LINE
  5
9B4
330
1F
100
AcDbEntity
  8
OBJECT1
100
AcDbLine
 10
20.39180994751889
 20
12.6356016341173
 30
0.0
 11
20.34206024751877
 21
12.70737278411731
 31
0.0
  0
LINE
  5
9B5
330
1F
100
AcDbEntity
  8
OBJECT1
100
AcDbLine
 10
20.44756839751865
 20
12.66856698411734
 30
0.0
 11
20.44756839751865
 21
12.63556808411734
 31
0.0
  0
LINE
  5
9B6
330
1F
100
AcDbEntity
  8
OBJECT2
100
AcDbLine
 10
20.39180994751889
 20
12.6356016341173
 30
0.0
 11
20.32042434751879
 21
12.6356016341173
 31
0.0
  0
LINE
  5
9B7
330
1F
100
AcDbEntity
  8
OBJECT2
100
AcDbLine
 10
20.44756839751865
 20
12.63556808411734
 30
0.0
 11
20.44756839751865
 21
12.63556808411734
 31
0.0
  0
LINE
  5
9B8
330
1F
100
AcDbEntity
  8
OBJECT2
100
AcDbLine
 10
20.44756839751865
 20
12.63556808411734
 30
0.0
 11
20.44756839751865
 21
12.63556808411734
 31
0.0
  0
LINE
  5
9B9
330
1F
100
AcDbEntity
  8
OBJECT1
100
AcDbLine
 10
20.44756839751865
 20
12.63556808411734
 30
0.0
 11
20.39180994751889
 21
12.6356016341173
 31
0.0
  0
LINE
  5
9BA
330
1F
100
AcDbEntity
  8
OBJECT2
100
AcDbLine
 10
20.34853869751869
 20
12.66101383411736
 30
0.0
 11
20.3485557475188
 21
12.67783228411732
 31
0.0
  0
ARC
  5
9BB
330
1F
100
AcDbEntity
  8
OBJECT2
100
AcDbCircle
 10
20.33747764751884
 20
12.67773108411736
 30
0.0
 40
0.0110781
100
AcDbArc
 50
0.5208439999955246
 51
89.65277099999786
  0
ARC
  5
9BC
330
1F
100
AcDbEntity
  8
OBJECT1
100
AcDbCircle
 10
20.33282849751886
 20
12.70065893411727
 30
0.0
 40
0.01141635
100
AcDbArc
 50
36.0273740000008
 51
88.73632800000152
  0
ARC
  5
9BD
330
1F
100
AcDbEntity
  8
OBJECT2
100
AcDbCircle
 10
20.3374611475187
 20
12.66101383411736
 30
0.0
 40
0.0110781
100
AcDbArc
 50
270.3482970000037
 51
0.0
  0
LINE
  5
9BE
330
1F
100
AcDbEntity
  8
OBJECT2
100
AcDbLine
 10
20.33752824751873
 20
12.64996928411729
 30
0.0
 11
20.2826085475187
 21
12.64996928411729
 31
0.0
  0
LINE
  5
9BF
330
1F
100
AcDbEntity
  8
OBJECT1
100
AcDbLine
 10
20.33308039751883
 20
12.7120725341173
 30
0.0
 11
20.29353539751862
 21
12.71210608411737
 31
0.0
  0
LINE
  5
9C0
330
1F
100
AcDbEntity
  8
OBJECT2
100
AcDbLine
 10
20.28257499999638
 20
12.6888208544486
 30
0.0
 11
20.33754474751874
 21
12.68880918411732
 31
0.0
  0
LINE
  5
9C1
330
1F
100
AcDbEntity
  8
OBJECT1
100
AcDbLine
 10
20.48194339751872
 20
12.66860053411729
 30
0.0
 11
20.44756839751865
 21
12.66856698411734
 31
0.0
  0
LINE
  5
9C2
330
1F
100
AcDbEntity
  8
OBJECT2
100
AcDbLine
 10
20.48194339751872
 20
12.66860053411729
 30
0.0
 11
21.19220349751886
 21
12.66856698411734
 31
0.0
  0
LINE
  5
9C3
330
1F
100
AcDbEntity
  8
OBJECT2
100
AcDbLine
 10
20.13283914751885
 20
12.7042845341173
 30
0.0
 11
20.17891319751864
 21
12.70431808411731
 31
0.0
  0
LINE
  5
9C4
330
1F
100
AcDbEntity
  8
OBJECT1
100
AcDbLine
 10
20.13280559751883
 20
12.54825448411732
 30
0.0
 11
20.13283914751885
 21
12.7042845341173
 31
0.0
  0
LINE
  5
9C5
330
1F
100
AcDbEntity
  8
OBJECT1
100
AcDbLine
 10
20.17891319751864
 20
12.51179828411729
 30
0.0
 11
20.17946704751882
 21
12.65003638411732
 31
0.0
  0
LINE
  5
9C6
330
1F
100
AcDbEntity
  8
OBJECT1
100
AcDbLine
 10
20.2826085475187
 20
12.64996928411729
 30
0.0
 11
20.28249139751876
 21
12.56681808411732
 31
0.0
  0
LINE
  5
9C7
330
1F
100
AcDbEntity
  8
OBJECT1
100
AcDbLine
 10
20.2247017975189
 20
12.62452408411731
 30
0.0
 11
20.21382499751878
 21
12.57846653411731
 31
0.0
  0
LINE
  5
9C8
330
1F
100
AcDbEntity
  8
OBJECT1
100
AcDbLine
 10
20.25501449751875
 20
12.62459118411728
 30
0.0
 11
20.25504859751875
 21
12.56678453411725
 31
0.0
  0
LINE
  5
9C9
330
1F
100
AcDbEntity
  8
OBJECT1
100
AcDbLine
 10
21.19225409751875
 20
12.29581273411732
 30
0.0
 11
21.19220349751886
 21
12.66856698411734
 31
0.0
  0
ARC
  5
9CA
330
1F
100
AcDbEntity
  8
OBJECT2
100
AcDbCircle
 10
19.85478444751875
 20
12.42935163411728
 30
0.0
 40
0.6276303000000001
100
AcDbArc
 50
340.8086549999984
 51
19.18164099999965
  0
LINE
  5
9CB
330
1F
100
AcDbEntity
  8
OBJECT1
100
AcDbLine
 10
22.99722989191873
 20
15.53870685681524
 30
0.0
 11
22.7298496955603
 21
15.27134455025846
 31
0.0
  0
ARC
  5
9CC
330
1F
100
AcDbEntity
  8
OBJECT1
100
AcDbCircle
 10
22.75315077318869
 20
15.24802247155863
 30
0.0
 40
0.032967
100
AcDbArc
 50
134.9735640000043
 51
225.029174999996
  0
LINE
  5
9CD
330
1F
100
AcDbEntity
  8
OBJECT1
100
AcDbLine
 10
22.72985086228659
 20
15.22469922613262
 30
0.0
 11
22.72985086228659
 21
15.22469922613262
 31
0.0
  0
ARC
  5
9CE
330
1F
100
AcDbEntity
  8
OBJECT1
100
AcDbCircle
 10
22.70647394745579
 20
15.20134331237337
 30
0.0
 40
0.03304455
100
AcDbArc
 50
315.0263669999981
 51
44.97453299999698
  0
LINE
  5
9CF
330
1F
100
AcDbEntity
  8
OBJECT2
100
AcDbLine
 10
23.76202960377061
 20
15.3536292759152
 30
0.0
 11
23.53821340767315
 21
15.12981307981763
 31
0.0
  0
LINE
  5
9D0
330
1F
100
AcDbEntity
  8
OBJECT1
100
AcDbLine
 10
23.61045437093214
 20
15.50520762002357
 30
0.0
 11
23.91360678115275
 21
15.20205209853318
 31
0.0
  0
LINE
  5
9D1
330
1F
100
AcDbEntity
  8
OBJECT2
100
AcDbLine
 10
23.73840534298786
 20
14.92962192232024
 30
0.0
 11
23.33802108344941
 21
15.33000384840632
 31
0.0
  0
LINE
  5
9D2
330
1F
100
AcDbEntity
  8
OBJECT2
100
AcDbLine
 10
23.00929559080187
 20
15.54983800802099
 30
0.0
 11
23.95823483569786
 21
14.60089876312505
 31
0.0
  0
ARC
  5
9D3
330
1F
100
AcDbEntity
  8
OBJECT1
100
AcDbCircle
 10
23.88929337410111
 20
15.17774491402112
 30
0.0
 40
0.03437995
100
AcDbArc
 50
315.012238
 51
44.99213399999552
  0
LINE
  5
9D4
330
1F
100
AcDbEntity
  8
OBJECT1
100
AcDbLine
 10
23.98837448442846
 20
14.67965278087969
 30
0.0
 11
23.73840534298786
 21
14.92962192232024
 31
0.0
  0
LINE
  5
9D5
330
1F
100
AcDbEntity
  8
OBJECT1
100
AcDbLine
 10
23.95823483569786
 20
14.60089876312505
 30
0.0
 11
23.98837448442846
 21
14.63103918967308
 31
0.0
  0
ARC
  5
9D6
330
1F
100
AcDbEntity
  8
OBJECT1
100
AcDbCircle
 10
23.96406652209903
 20
14.65534637418513
 30
0.0
 40
0.0343761
100
AcDbArc
 50
315.0017550000039
 51
44.99825299999881
  0
LINE
  5
9D7
330
1F
100
AcDbEntity
  8
OBJECT2
100
AcDbLine
 10
23.94710796248814
 20
14.6121609765727
 30
0.0
 11
23.94710912921421
 21
14.59074182828705
 31
0.0
  0
LINE
  5
9D8
330
1F
100
AcDbEntity
  8
OBJECT2
100
AcDbLine
 10
23.95823483569786
 20
14.60089876312505
 30
0.0
 11
23.95823483569786
 21
14.60089876312505
 31
0.0
  0
ARC
  5
9D9
330
1F
100
AcDbEntity
  8
OBJECT1
100
AcDbCircle
 10
23.76271369422609
 20
14.95392871792349
 30
0.0
 40
0.0343761
100
AcDbArc
 50
135.0052490000036
 51
224.9978030000032
  0
LINE
  5
9DA
330
1F
100
AcDbEntity
  8
OBJECT1
100
AcDbLine
 10
23.91360872569653
 20
15.15343967405274
 30
0.0
 11
23.73840417626179
 21
14.97823434680062
 31
0.0
  0
LINE
  5
9DB
330
1F
100
AcDbEntity
  8
OBJECT1
100
AcDbLine
 10
23.56183883518197
 20
15.50520956456718
 30
0.0
 11
23.38663428574723
 21
15.33000423731501
 31
0.0
  0
ARC
  5
9DC
330
1F
100
AcDbEntity
  8
OBJECT1
100
AcDbCircle
 10
23.06374164622702
 20
15.55565569370784
 30
0.0
 40
0.03438545
100
AcDbArc
 50
45.01311500000307
 51
134.9842680000039
  0
LINE
  5
9DD
330
1F
100
AcDbEntity
  8
OBJECT1
100
AcDbLine
 10
23.08804960855646
 20
15.57997532329928
 30
0.0
 11
23.33802108344941
 21
15.33000384840632
 31
0.0
  0
ARC
  5
9DE
330
1F
100
AcDbEntity
  8
OBJECT1
100
AcDbCircle
 10
23.36232749014398
 20
15.35431647764053
 30
0.0
 40
0.0343794
100
AcDbArc
 50
225.0074160000006
 51
314.9930109999982
  0
LINE
  5
9DF
330
1F
100
AcDbEntity
  8
OBJECT2
100
AcDbLine
 10
23.02022606510316
 20
15.53870763463273
 30
0.0
 11
22.99722989191873
 21
15.53870685681524
 31
0.0
  0
LINE
  5
9E0
330
1F
100
AcDbEntity
  8
OBJECT1
100
AcDbLine
 10
23.00929559080187
 20
15.54983800802099
 30
0.0
 11
23.03943446171497
 21
15.57997687893421
 31
0.0
  0
ARC
  5
9E1
330
1F
100
AcDbEntity
  8
OBJECT1
100
AcDbCircle
 10
23.58614524187653
 20
15.48089849096791
 30
0.0
 40
0.03437775
100
AcDbArc
 50
45.00065599999906
 51
134.9947549999977
  0
LINE
  5
9E2
330
1F
100
AcDbEntity
  8
OBJECT2
100
AcDbLine
 10
22.00586070461766
 20
13.59292764551812
 30
0.0
 11
21.79685843094121
 21
13.59292803442692
 31
0.0
  0
LINE
  5
9E3
330
1F
100
AcDbEntity
  8
OBJECT2
100
AcDbLine
 10
22.00586148243503
 20
14.03293742661215
 30
0.0
 11
21.79685765312383
 21
14.03292148135423
 31
0.0
  0
LINE
  5
9E4
330
1F
100
AcDbEntity
  8
OBJECT1
100
AcDbLine
 10
22.36475112506339
 20
13.4004411588639
 30
0.0
 11
21.79460898284885
 21
13.40045788193926
 31
0.0
  0
ARC
  5
9E5
330
1F
100
AcDbEntity
  8
OBJECT1
100
AcDbCircle
 10
21.90706972020252
 20
14.28047277722262
 30
0.0
 40
0.0550473
100
AcDbArc
 50
270.1022949999984
 51
44.93230399999946
  0
LINE
  5
9E6
330
1F
100
AcDbEntity
  8
OBJECT2
100
AcDbLine
 10
22.69912353572279
 20
13.56626914929327
 30
0.0
 11
21.94603993054859
 21
14.31935120510851
 31
0.0
  0
LINE
  5
9E7
330
1F
100
AcDbEntity
  8
OBJECT2
100
AcDbLine
 10
21.10044255045814
 20
13.18101278831769
 30
0.0
 11
21.05652279978114
 21
13.18101276009567
 31
0.0
  0
LINE
  5
9E8
330
1F
100
AcDbEntity
  8
OBJECT1
100
AcDbLine
 10
21.05652279978114
 20
13.18101276009567
 30
0.0
 11
21.05652279978114
 21
13.22190224690157
 31
0.0
  0
LINE
  5
9E9
330
1F
100
AcDbEntity
  8
OBJECT1
100
AcDbLine
 10
21.10043387018636
 20
13.08800857836311
 30
0.0
 11
21.10044255045814
 21
13.18101278831769
 31
0.0
  0
LINE
  5
9EA
330
1F
100
AcDbEntity
  8
OBJECT1
100
AcDbLine
 10
21.47881007784049
 20
13.47627724690155
 30
0.0
 11
21.40152448449551
 21
13.47627724690155
 31
0.0
  0
LINE
  5
9EB
330
1F
100
AcDbEntity
  8
OBJECT1
100
AcDbLine
 10
21.47881007784049
 20
14.14958977526136
 30
0.0
 11
21.40152448449551
 21
14.14958977526136
 31
0.0
  0
LINE
  5
9EC
330
1F
100
AcDbEntity
  8
OBJECT2
100
AcDbLine
 10
21.40152448449551
 20
14.12896477526143
 30
0.0
 11
21.40152448449551
 21
13.49690224690154
 31
0.0
  0
LINE
  5
9ED
330
1F
100
AcDbEntity
  8
OBJECT1
100
AcDbLine
 10
21.40152448449551
 20
13.47627724690155
 30
0.0
 11
21.40152448449551
 21
13.49690224690154
 31
0.0
  0
LINE
  5
9EE
330
1F
100
AcDbEntity
  8
OBJECT1
100
AcDbLine
 10
21.40152448449551
 20
13.49690224690154
 30
0.0
 11
21.33152279978112
 21
13.49690224690154
 31
0.0
  0
LINE
  5
9EF
330
1F
100
AcDbEntity
  8
OBJECT1
100
AcDbLine
 10
21.40152448449551
 20
14.14958977526136
 30
0.0
 11
21.40152448449551
 21
14.12896477526143
 31
0.0
  0
LINE
  5
9F0
330
1F
100
AcDbEntity
  8
OBJECT1
100
AcDbLine
 10
21.40152448449551
 20
14.12896477526143
 30
0.0
 11
21.28234735589963
 21
14.12896477526143
 31
0.0
  0
LINE
  5
9F1
330
1F
100
AcDbEntity
  8
OBJECT1
100
AcDbLine
 10
21.79460820503148
 20
14.22545852614339
 30
0.0
 11
21.90716811411114
 21
14.22542391326643
 31
0.0
  0
ARC
  5
9F2
330
1F
100
AcDbEntity
  8
OBJECT1
100
AcDbCircle
 10
21.79454559072594
 20
14.19125594791406
 30
0.0
 40
0.03420285
100
AcDbArc
 50
89.89499700000331
 51
135.2099909999989
  0
LINE
  5
9F3
330
1F
100
AcDbEntity
  8
OBJECT2
100
AcDbLine
 10
21.57180721783682
 20
14.08771487096159
 30
0.0
 11
21.5718075709229
 21
13.53823428282705
 31
0.0
  0
LINE
  5
9F4
330
1F
100
AcDbEntity
  8
OBJECT2
100
AcDbLine
 10
21.61830580981309
 20
14.00189551237334
 30
0.0
 11
21.61830590659845
 21
13.62397150978963
 31
0.0
  0
LINE
  5
9F5
330
1F
100
AcDbEntity
  8
OBJECT2
100
AcDbLine
 10
21.66483052867256
 20
14.08770627628293
 30
0.0
 11
21.66482975085507
 21
13.53822568814885
 31
0.0
  0
LINE
  5
9F6
330
1F
100
AcDbEntity
  8
OBJECT2
100
AcDbLine
 10
21.76385874741272
 20
13.62592616232048
 30
0.0
 11
21.76385874741272
 21
13.99988990730994
 31
0.0
  0
LINE
  5
9F7
330
1F
100
AcDbEntity
  8
OBJECT2
100
AcDbLine
 10
21.52530897894662
 20
14.00189551237334
 30
0.0
 11
21.52530888216138
 21
13.62397150978963
 31
0.0
  0
ARC
  5
9F8
330
1F
100
AcDbEntity
  8
OBJECT1
100
AcDbCircle
 10
21.67800364516331
 20
13.4538725514134
 30
0.0
 40
0.0345708
100
AcDbArc
 50
45.12865399999368
 51
89.80207099999105
  0
LINE
  5
9F9
330
1F
100
AcDbEntity
  8
OBJECT1
100
AcDbLine
 10
21.66483052867256
 20
13.48842631422555
 30
0.0
 11
21.67812304014337
 21
13.48844381511835
 31
0.0
  0
LINE
  5
9FA
330
1F
100
AcDbEntity
  8
OBJECT1
100
AcDbLine
 10
21.66483052867256
 20
13.53822685487508
 30
0.0
 11
21.66483052867256
 21
13.48842631422555
 31
0.0
  0
ARC
  5
9FB
330
1F
100
AcDbEntity
  8
OBJECT1
100
AcDbCircle
 10
21.7945716476109
 20
13.43485141435481
 30
0.0
 40
0.0343937
100
AcDbArc
 50
225.1258240000022
 51
270.0617830000021
  0
LINE
  5
9FC
330
1F
100
AcDbEntity
  8
OBJECT2
100
AcDbLine
 10
21.78145064488974
 20
13.43444772709349
 30
0.0
 11
21.78144908925487
 21
13.59675489632663
 31
0.0
  0
LINE
  5
9FD
330
1F
100
AcDbEntity
  8
OBJECT1
100
AcDbLine
 10
21.77030529851545
 20
13.41047850426749
 30
0.0
 11
21.70239327832605
 21
13.47837263465529
 31
0.0
  0
ARC
  5
9FE
330
1F
100
AcDbEntity
  8
OBJECT2
100
AcDbCircle
 10
21.79689732181414
 20
13.62596738664577
 30
0.0
 40
0.0330385
100
AcDbArc
 50
180.0713809999991
 51
269.9324649999982
  0
ARC
  5
9FF
330
1F
100
AcDbEntity
  8
OBJECT2
100
AcDbCircle
 10
21.79684248568328
 20
13.99993774308372
 30
0.0
 40
0.0329835
100
AcDbArc
 50
89.97294199999954
 51
180.0837399999982
  0
ARC
  5
A00
330
1F
100
AcDbEntity
  8
OBJECT1
100
AcDbCircle
 10
21.67811720651236
 20
14.17184395758223
 30
0.0
 40
0.0344212
100
AcDbArc
 50
270.0104979999923
 51
314.9336399999989
  0
LINE
  5
A01
330
1F
100
AcDbEntity
  8
OBJECT1
100
AcDbLine
 10
21.66483052867256
 20
14.1374224237381
 30
0.0
 11
21.67812342905206
 21
14.1374224237381
 31
0.0
  0
LINE
  5
A02
330
1F
100
AcDbEntity
  8
OBJECT1
100
AcDbLine
 10
21.66482975085507
 20
14.08774011134251
 30
0.0
 11
21.66483052867256
 21
14.1374224237381
 31
0.0
  0
LINE
  5
A03
330
1F
100
AcDbEntity
  8
OBJECT2
100
AcDbLine
 10
21.7814829243144
 20
14.19140295541395
 30
0.0
 11
21.78141564310415
 21
14.02914595540684
 31
0.0
  0
LINE
  5
A04
330
1F
100
AcDbEntity
  8
OBJECT1
100
AcDbLine
 10
21.77027185236473
 20
14.21535234389468
 30
0.0
 11
21.70242828011176
 21
14.14747610330837
 31
0.0
  0
LINE
  5
A05
330
1F
100
AcDbEntity
  8
OBJECT2
100
AcDbLine
 10
21.47878503790464
 20
13.53823463304964
 30
0.0
 11
21.47878426008715
 21
14.08769733138219
 31
0.0
  0
LINE
  5
A06
330
1F
100
AcDbEntity
  8
OBJECT1
100
AcDbLine
 10
21.47881007784049
 20
13.53815224690159
 30
0.0
 11
21.47881007784049
 21
13.47627724690155
 31
0.0
  0
LINE
  5
A07
330
1F
100
AcDbEntity
  8
OBJECT1
100
AcDbLine
 10
21.47881007784049
 20
14.08771477526143
 30
0.0
 11
21.47881007784049
 21
14.14958977526136
 31
0.0
  0
LINE
  5
A08
330
1F
100
AcDbEntity
  8
OBJECT1
100
AcDbLine
 10
21.47881079248573
 20
13.5382263008495
 30
0.0
 11
21.66482975085507
 21
13.53822568814885
 31
0.0
  0
LINE
  5
A09
330
1F
100
AcDbEntity
  8
OBJECT1
100
AcDbLine
 10
21.4788100463614
 20
14.08768891461371
 30
0.0
 11
21.66483052867256
 21
14.08770627628293
 31
0.0
  0
LINE
  5
A0A
330
1F
100
AcDbEntity
  8
OBJECT1
100
AcDbLine
 10
21.9319419890988
 20
14.33344992437584
 30
0.0
 11
21.94603993054859
 21
14.31935120510851
 31
0.0
  0
ARC
  5
A0B
330
1F
100
AcDbEntity
  8
OBJECT1
100
AcDbCircle
 10
21.95527534615162
 20
14.35678950396853
 30
0.0
 40
0.03300275
100
AcDbArc
 50
134.9936260000023
 51
225.0072939999969
  0
LINE
  5
A0C
330
1F
100
AcDbEntity
  8
OBJECT2
100
AcDbLine
 10
23.75455419462373
 20
13.30196596833726
 30
0.0
 11
24.09132193089165
 21
13.30194885635321
 31
0.0
  0
LINE
  5
A0D
330
1F
100
AcDbEntity
  8
OBJECT2
100
AcDbLine
 10
23.754554972441
 20
13.13685476716326
 30
0.0
 11
24.09132154198296
 21
13.13688938004022
 31
0.0
  0
LINE
  5
A0E
330
1F
100
AcDbEntity
  8
OBJECT1
100
AcDbLine
 10
25.03861531404375
 20
14.22542469108392
 30
0.0
 11
24.00185970017476
 21
14.2254258578101
 31
0.0
  0
LINE
  5
A0F
330
1F
100
AcDbEntity
  8
OBJECT1
100
AcDbLine
 10
23.78785567132634
 20
14.38249520427236
 30
0.0
 11
23.90464379611485
 21
14.26570707948391
 31
0.0
  0
ARC
  5
A10
330
1F
100
AcDbEntity
  8
OBJECT2
100
AcDbCircle
 10
23.15523145260597
 20
13.25917161845253
 30
0.0
 40
0.5498575500000001
100
AcDbArc
 50
134.9923479999994
 51
180.0041809999958
  0
ARC
  5
A11
330
1F
100
AcDbEntity
  8
OBJECT1
100
AcDbCircle
 10
22.36474256907122
 20
13.3633221540709
 30
0.0
 40
0.0343838
100
AcDbArc
 50
270.0142209999957
 51
359.9864040000009
  0
ARC
  5
A12
330
1F
100
AcDbEntity
  8
OBJECT1
100
AcDbCircle
 10
22.08970941362106
 20
13.29460861964846
 30
0.0
 40
0.03432495
100
AcDbArc
 50
89.91394399999961
 51
180.1101989999994
  0
LINE
  5
A13
330
1F
100
AcDbEntity
  8
OBJECT1
100
AcDbLine
 10
22.3633848755863
 20
13.32895120502043
 30
0.0
 11
22.08976113848219
 21
13.32893331521884
 31
0.0
  0
LINE
  5
A14
330
1F
100
AcDbEntity
  8
OBJECT1
100
AcDbLine
 10
22.3633848755863
 20
13.32895120502043
 30
0.0
 11
22.3633848755863
 21
13.32895120502043
 31
0.0
  0
LINE
  5
A15
330
1F
100
AcDbEntity
  8
OBJECT2
100
AcDbLine
 10
22.10708101212624
 20
12.7926464557382
 30
0.0
 11
22.08838189149578
 21
12.82015747036515
 31
0.0
  0
LINE
  5
A16
330
1F
100
AcDbEntity
  8
OBJECT2
100
AcDbLine
 10
22.19838900367399
 20
12.79261378740491
 30
0.0
 11
22.10708101212624
 21
12.7926464557382
 31
0.0
  0
ARC
  5
A17
330
1F
100
AcDbEntity
  8
OBJECT1
100
AcDbCircle
 10
22.33000950622507
 20
12.93212507144956
 30
0.0
 40
0.2746238
100
AcDbArc
 50
179.9784240000009
 51
189.98822
  0
LINE
  5
A18
330
1F
100
AcDbEntity
  8
OBJECT2
100
AcDbLine
 10
22.19838900367399
 20
12.87616849451838
 30
0.0
 11
22.10708101212624
 21
12.87620116285167
 31
0.0
  0
LINE
  5
A19
330
1F
100
AcDbEntity
  8
OBJECT2
100
AcDbLine
 10
22.1983886147653
 20
13.05363260367234
 30
0.0
 11
22.10708140103504
 21
13.05361549168824
 31
0.0
  0
LINE
  5
A1A
330
1F
100
AcDbEntity
  8
OBJECT2
100
AcDbLine
 10
22.19839207929722
 20
13.13718575549241
 30
0.0
 11
22.10708062321744
 21
13.13716942098422
 31
0.0
  0
LINE
  5
A1B
330
1F
100
AcDbEntity
  8
OBJECT2
100
AcDbLine
 10
22.10708140103504
 20
13.05361549168824
 30
0.0
 11
22.08838305822196
 21
13.086663788808
 31
0.0
  0
LINE
  5
A1C
330
1F
100
AcDbEntity
  8
OBJECT2
100
AcDbLine
 10
22.08838344713065
 20
13.10964168328202
 30
0.0
 11
22.08838189149578
 21
12.82015747036515
 31
0.0
  0
LINE
  5
A1D
330
1F
100
AcDbEntity
  8
OBJECT2
100
AcDbLine
 10
22.10708101212624
 20
12.87620116285167
 30
0.0
 11
22.08838344713065
 21
12.94832467567444
 31
0.0
  0
LINE
  5
A1E
330
1F
100
AcDbEntity
  8
OBJECT2
100
AcDbLine
 10
22.10708140103504
 20
13.05361549168824
 30
0.0
 11
22.08838305822196
 21
12.98145853271469
 31
0.0
  0
LINE
  5
A1F
330
1F
100
AcDbEntity
  8
OBJECT2
100
AcDbLine
 10
22.10708101212624
 20
12.87620116285167
 30
0.0
 11
22.08838344713065
 21
12.84311864176381
 31
0.0
  0
LINE
  5
A20
330
1F
100
AcDbEntity
  8
OBJECT2
100
AcDbLine
 10
22.10708062321744
 20
13.13716942098422
 30
0.0
 11
22.08838344713065
 21
13.10964168328202
 31
0.0
  0
LINE
  5
A21
330
1F
100
AcDbEntity
  8
OBJECT1
100
AcDbLine
 10
22.05538549586818
 20
12.9322285211717
 30
0.0
 11
22.05538510695937
 21
13.29454250516445
 31
0.0
  0
LINE
  5
A22
330
1F
100
AcDbEntity
  8
OBJECT2
100
AcDbLine
 10
22.6053763453652
 20
12.77294664628768
 30
0.0
 11
22.60537478973021
 21
13.25913156085331
 31
0.0
  0
ARC
  5
A23
330
1F
100
AcDbEntity
  8
OBJECT2
100
AcDbCircle
 10
22.43851466599899
 20
13.74389034710744
 30
0.0
 40
0.3434321
100
AcDbArc
 50
269.9755550000029
 51
307.6321560000022
  0
LINE
  5
A24
330
1F
100
AcDbEntity
  8
OBJECT2
100
AcDbLine
 10
22.03885883251116
 20
13.99992218673448
 30
0.0
 11
22.03886038814626
 21
13.62595999737995
 31
0.0
  0
LINE
  5
A25
330
1F
100
AcDbEntity
  8
OBJECT2
100
AcDbLine
 10
22.36475112506339
 20
13.4004411588639
 30
0.0
 11
22.43836804740801
 21
13.40045788193926
 31
0.0
  0
ARC
  5
A26
330
1F
100
AcDbEntity
  8
OBJECT1
100
AcDbCircle
 10
22.364656620242
 20
13.36597490051584
 30
0.0
 40
0.0344663
100
AcDbArc
 50
0.1522829999956388
 51
89.84215900000046
  0
LINE
  5
A27
330
1F
100
AcDbEntity
  8
OBJECT1
100
AcDbLine
 10
22.3991252120423
 20
13.36606629406733
 30
0.0
 11
22.39912637876848
 21
13.36331398698759
 31
0.0
  0
LINE
  5
A28
330
1F
100
AcDbEntity
  8
OBJECT2
100
AcDbLine
 10
22.03885922141997
 20
13.81292436898186
 30
0.0
 11
22.03885922141997
 21
13.81292436898186
 31
0.0
  0
ARC
  5
A29
330
1F
100
AcDbEntity
  8
OBJECT2
100
AcDbCircle
 10
22.00581986920106
 20
13.62596738664577
 30
0.0
 40
0.0330396
100
AcDbArc
 50
270.0707550000004
 51
359.9871370000004
  0
ARC
  5
A2A
330
1F
100
AcDbEntity
  8
OBJECT2
100
AcDbCircle
 10
22.00585292644309
 20
13.99992840927424
 30
0.0
 40
0.0330088
100
AcDbArc
 50
359.989058999997
 51
89.98519499999973
  0
LINE
  5
A2B
330
1F
100
AcDbEntity
  8
OBJECT2
100
AcDbLine
 10
22.80883861418768
 20
13.69043056422062
 30
0.0
 11
22.76647556408416
 21
13.64803173451391
 31
0.0
  0
LINE
  5
A2C
330
1F
100
AcDbEntity
  8
OBJECT2
100
AcDbLine
 10
23.28351027472077
 20
13.37051424320841
 30
0.0
 11
23.24141401600566
 21
13.32841798449336
 31
0.0
  0
ARC
  5
A2D
330
1F
100
AcDbEntity
  8
OBJECT2
100
AcDbCircle
 10
23.43524184886867
 20
13.13424168940874
 30
0.0
 40
0.27436035
100
AcDbArc
 50
134.9485170000005
 51
180.0608829999951
  0
LINE
  5
A2E
330
1F
100
AcDbEntity
  8
OBJECT2
100
AcDbLine
 10
23.75455419462373
 20
13.30196596833726
 30
0.0
 11
23.754554972441
 21
13.13685476716326
 31
0.0
  0
LINE
  5
A2F
330
1F
100
AcDbEntity
  8
OBJECT2
100
AcDbLine
 10
23.94761761678473
 20
14.23662331258648
 30
0.0
 11
23.21451164354069
 21
13.50352102874958
 31
0.0
  0
ARC
  5
A30
330
1F
100
AcDbEntity
  8
OBJECT1
100
AcDbCircle
 10
24.0020560990833
 20
14.36335117205524
 30
0.0
 40
0.1379257
100
AcDbArc
 50
225.0679930000007
 51
269.9183349999948
  0
ARC
  5
A31
330
1F
100
AcDbEntity
  8
OBJECT1
100
AcDbCircle
 10
23.81237947800078
 20
14.40699256515321
 30
0.0
 40
0.03466265
100
AcDbArc
 50
135.0312189999992
 51
224.9687810000007
  0
ARC
  5
A32
330
1F
100
AcDbEntity
  8
OBJECT1
100
AcDbCircle
 10
25.03860598023432
 20
14.1909969347001
 30
0.0
 40
0.0344278
100
AcDbArc
 50
44.99301100000283
 51
89.98518799999619
  0
ARC
  5
A33
330
1F
100
AcDbEntity
  8
OBJECT2
100
AcDbCircle
 10
25.03749642362864
 20
13.62595338593151
 30
0.0
 40
0.03300825
100
AcDbArc
 50
270.0173800000094
 51
359.983902000001
  0
ARC
  5
A34
330
1F
100
AcDbEntity
  8
OBJECT1
100
AcDbCircle
 10
25.03868842888489
 20
13.43488913850162
 30
0.0
 40
0.03443165
100
AcDbArc
 50
269.8796540000011
 51
314.8079829999976
  0
ARC
  5
A35
330
1F
100
AcDbEntity
  8
OBJECT2
100
AcDbCircle
 10
25.03744314313264
 20
13.99987785113929
 30
0.0
 40
0.03305995
100
AcDbArc
 50
0.0790559999979922
 51
89.88687100000332
  0
LINE
  5
A36
330
1F
100
AcDbEntity
  8
OBJECT1
100
AcDbLine
 10
25.11692364239418
 20
13.12116113319555
 30
0.0
 11
24.86695177859265
 21
12.87118926939395
 31
0.0
  0
LINE
  5
A37
330
1F
100
AcDbEntity
  8
OBJECT1
100
AcDbLine
 10
25.0756087013171
 20
13.21011972710763
 30
0.0
 11
24.94398254176617
 21
13.34176222082518
 31
0.0
  0
LINE
  5
A38
330
1F
100
AcDbEntity
  8
OBJECT2
100
AcDbLine
 10
24.09132193089165
 20
13.30194885635321
 30
0.0
 11
24.09132193089165
 21
13.37070014158123
 31
0.0
  0
LINE
  5
A39
330
1F
100
AcDbEntity
  8
OBJECT2
100
AcDbLine
 10
24.24265370686539
 20
13.21940181175826
 30
0.0
 11
24.09132193089165
 21
13.37070014158123
 31
0.0
  0
LINE
  5
A3A
330
1F
100
AcDbEntity
  8
OBJECT2
100
AcDbLine
 10
24.09132154198296
 20
13.13688938004022
 30
0.0
 11
24.09132193089165
 21
13.06813848372095
 31
0.0
  0
LINE
  5
A3B
330
1F
100
AcDbEntity
  8
OBJECT2
100
AcDbLine
 10
24.24265370686539
 20
13.21940181175826
 30
0.0
 11
24.09132193089165
 21
13.06813848372095
 31
0.0
  0
ARC
  5
A3C
330
1F
100
AcDbEntity
  8
OBJECT1
100
AcDbCircle
 10
24.8912647967356
 20
12.84688325160808
 30
0.0
 40
0.0343794
100
AcDbArc
 50
135.0087279999979
 51
224.9930110000028
  0
LINE
  5
A3D
330
1F
100
AcDbEntity
  8
OBJECT2
100
AcDbLine
 10
25.05177520763773
 20
13.43444578254976
 30
0.0
 11
25.05177442982035
 21
13.59620147920437
 31
0.0
  0
LINE
  5
A3E
330
1F
100
AcDbEntity
  8
OBJECT2
100
AcDbLine
 10
25.05177365200286
 20
14.19143562374724
 30
0.0
 11
25.05177481872904
 21
14.02968031600132
 31
0.0
  0
LINE
  5
A3F
330
1F
100
AcDbEntity
  8
OBJECT2
100
AcDbLine
 10
24.79550652259429
 20
13.6259603862887
 30
0.0
 11
24.79550652259429
 21
13.99995602179401
 31
0.0
  0
ARC
  5
A40
330
1F
100
AcDbEntity
  8
OBJECT1
100
AcDbCircle
 10
24.96831228298443
 20
13.3660592937102
 30
0.0
 40
0.0343827
100
AcDbArc
 50
90.04512000000705
 51
224.961548000005
  0
ARC
  5
A41
330
1F
100
AcDbEntity
  8
OBJECT2
100
AcDbCircle
 10
24.82851242866248
 20
13.62593316267756
 30
0.0
 40
0.03300605
100
AcDbArc
 50
179.953002999996
 51
269.9826199999904
  0
ARC
  5
A42
330
1F
100
AcDbEntity
  8
OBJECT2
100
AcDbCircle
 10
24.82848364941647
 20
13.99997702286545
 30
0.0
 40
0.03297745
100
AcDbArc
 50
89.96262400000231
 51
180.0367429999996
  0
LINE
  5
A43
330
1F
100
AcDbEntity
  8
OBJECT2
100
AcDbLine
 10
25.03750653525544
 20
13.59294514641097
 30
0.0
 11
24.82850270594436
 21
13.59292842333561
 31
0.0
  0
LINE
  5
A44
330
1F
100
AcDbEntity
  8
OBJECT1
100
AcDbLine
 10
25.03861609186135
 20
13.40045749303052
 30
0.0
 11
24.9682850593734
 21
13.40044193668133
 31
0.0
  0
LINE
  5
A45
330
1F
100
AcDbEntity
  8
OBJECT2
100
AcDbLine
 10
25.03750809089043
 20
14.03293781552096
 30
0.0
 11
24.8285050393966
 21
14.03295453859632
 31
0.0
  0
LINE
  5
A46
330
1F
100
AcDbEntity
  8
OBJECT2
100
AcDbLine
 10
25.07560753459081
 20
13.18877058239333
 30
0.0
 11
25.0756087013171
 21
13.21011972710763
 31
0.0
  0
ARC
  5
A47
330
1F
100
AcDbEntity
  8
OBJECT1
100
AcDbCircle
 10
25.09260090153311
 20
13.14546987334252
 30
0.0
 40
0.03438655
100
AcDbArc
 50
315.0157320000051
 51
44.97902699999769
  0
LINE
  5
A48
330
1F
100
AcDbEntity
  8
OBJECT1
100
AcDbLine
 10
25.08678554929868
 20
13.19991437313276
 30
0.0
 11
25.11692480912047
 21
13.1697758911284
 31
0.0
  0
LINE
  5
A49
330
1F
100
AcDbEntity
  8
OBJECT2
100
AcDbLine
 10
25.4316663662466
 20
14.12895583036063
 30
0.0
 11
25.4316663662466
 21
13.4968933020008
 31
0.0
  0
LINE
  5
A4A
330
1F
100
AcDbEntity
  8
OBJECT2
100
AcDbLine
 10
25.26138363290529
 20
14.08770592606085
 30
0.0
 11
25.2613832798191
 21
13.53822533792631
 31
0.0
  0
LINE
  5
A4B
330
1F
100
AcDbEntity
  8
OBJECT2
100
AcDbLine
 10
25.35440581283735
 20
13.53822568814885
 30
0.0
 11
25.35440659065484
 21
14.08768838648145
 31
0.0
  0
LINE
  5
A4C
330
1F
100
AcDbEntity
  8
OBJECT2
100
AcDbLine
 10
25.21488504092879
 20
14.0018865674726
 30
0.0
 11
25.21488494414354
 21
13.62396256488877
 31
0.0
  0
LINE
  5
A4D
330
1F
100
AcDbEntity
  8
OBJECT2
100
AcDbLine
 10
25.30788187179549
 20
14.0018865674726
 30
0.0
 11
25.30788196858061
 21
13.62396256488877
 31
0.0
  0
LINE
  5
A4E
330
1F
100
AcDbEntity
  8
OBJECT2
100
AcDbLine
 10
25.1683610998868
 20
13.53822568814885
 30
0.0
 11
25.16836032206943
 21
14.08768838648145
 31
0.0
  0
LINE
  5
A4F
330
1F
100
AcDbEntity
  8
OBJECT2
100
AcDbLine
 10
25.07050388533169
 20
13.99992335346072
 30
0.0
 11
25.07050544096667
 21
13.62594405212197
 31
0.0
  0
LINE
  5
A50
330
1F
100
AcDbEntity
  8
OBJECT1
100
AcDbLine
 10
25.06295361125417
 20
13.41046061446595
 30
0.0
 11
25.13079718350714
 21
13.47835474485381
 31
0.0
  0
LINE
  5
A51
330
1F
100
AcDbEntity
  8
OBJECT1
100
AcDbLine
 10
25.16836103671478
 20
13.53822585492715
 30
0.0
 11
25.35437999508401
 21
13.53822524222649
 31
0.0
  0
LINE
  5
A52
330
1F
100
AcDbEntity
  8
OBJECT1
100
AcDbLine
 10
25.35438077290162
 20
13.47626830200081
 30
0.0
 11
25.4316663662466
 21
13.47626830200081
 31
0.0
  0
LINE
  5
A53
330
1F
100
AcDbEntity
  8
OBJECT1
100
AcDbLine
 10
25.4316663662466
 20
13.47626830200081
 30
0.0
 11
25.4316663662466
 21
13.4968933020008
 31
0.0
  0
LINE
  5
A54
330
1F
100
AcDbEntity
  8
OBJECT1
100
AcDbLine
 10
25.35438077290162
 20
13.53814330200085
 30
0.0
 11
25.35438077290162
 21
13.47626830200081
 31
0.0
  0
ARC
  5
A55
330
1F
100
AcDbEntity
  8
OBJECT1
100
AcDbCircle
 10
25.15517242704693
 20
13.45389083012369
 30
0.0
 40
0.03453505
100
AcDbArc
 50
90.11753099999442
 51
134.8955730000032
  0
LINE
  5
A56
330
1F
100
AcDbEntity
  8
OBJECT1
100
AcDbLine
 10
25.16835993316074
 20
13.48842709204304
 30
0.0
 11
25.15510164565815
 21
13.48842592531686
 31
0.0
  0
LINE
  5
A57
330
1F
100
AcDbEntity
  8
OBJECT1
100
AcDbLine
 10
25.16835993316074
 20
13.48842709204304
 30
0.0
 11
25.1683610998868
 21
13.53822568814885
 31
0.0
  0
LINE
  5
A58
330
1F
100
AcDbEntity
  8
OBJECT1
100
AcDbLine
 10
25.16836029059045
 20
14.08768846869136
 30
0.0
 11
25.35438077290162
 21
14.08770583036058
 31
0.0
  0
LINE
  5
A59
330
1F
100
AcDbEntity
  8
OBJECT1
100
AcDbLine
 10
25.35438077290162
 20
14.14958083036057
 30
0.0
 11
25.4316663662466
 21
14.14958083036057
 31
0.0
  0
LINE
  5
A5A
330
1F
100
AcDbEntity
  8
OBJECT1
100
AcDbLine
 10
25.4316663662466
 20
14.14958083036057
 30
0.0
 11
25.4316663662466
 21
14.12895583036063
 31
0.0
  0
LINE
  5
A5B
330
1F
100
AcDbEntity
  8
OBJECT1
100
AcDbLine
 10
25.35438077290162
 20
14.08770583036058
 30
0.0
 11
25.35438077290162
 21
14.14958083036057
 31
0.0
  0
LINE
  5
A5C
330
1F
100
AcDbEntity
  8
OBJECT2
100
AcDbLine
 10
25.07050582987524
 20
13.81292398007311
 30
0.0
 11
25.07050582987524
 21
13.81292398007311
 31
0.0
  0
ARC
  5
A5D
330
1F
100
AcDbEntity
  8
OBJECT1
100
AcDbCircle
 10
25.15507870004315
 20
14.17168761627291
 30
0.0
 40
0.03426555
100
AcDbArc
 50
224.8771969999947
 51
270.0378269999916
  0
LINE
  5
A5E
330
1F
100
AcDbEntity
  8
OBJECT1
100
AcDbLine
 10
25.16835876643445
 20
14.13743992463096
 30
0.0
 11
25.15510164565815
 21
14.13742203482936
 31
0.0
  0
LINE
  5
A5F
330
1F
100
AcDbEntity
  8
OBJECT1
100
AcDbLine
 10
25.16835876643445
 20
14.13743992463096
 30
0.0
 11
25.16836032206943
 21
14.08770627628293
 31
0.0
  0
LINE
  5
A60
330
1F
100
AcDbEntity
  8
OBJECT1
100
AcDbLine
 10
25.06295283343679
 20
14.21533756536287
 30
0.0
 11
25.13079757241594
 21
14.14750993836784
 31
0.0
  0
LINE
  5
A61
330
1F
100
AcDbEntity
  8
OBJECT1
100
AcDbLine
 10
21.93197543524952
 20
14.38011197157705
 30
0.0
 11
22.72985125119528
 21
15.17798778752287
 31
0.0
  0
LINE
  5
A62
330
1F
100
AcDbEntity
  8
OBJECT2
100
AcDbLine
 10
23.6554248596138
 20
14.29907544848801
 30
0.0
 11
22.72985086228659
 21
15.22469922613262
 31
0.0
  0
LINE
  5
A63
330
1F
100
AcDbEntity
  8
OBJECT1
100
AcDbLine
 10
23.94710912921421
 20
14.59074182828705
 30
0.0
 11
23.78785606023514
 21
14.43148875930776
 31
0.0
  0
LINE
  5
A64
330
1F
100
AcDbEntity
  8
OBJECT1
100
AcDbLine
 10
20.59484735589963
 20
13.18101246343152
 30
0.0
 11
20.59484735589963
 21
13.44146477526143
 31
0.0
  0
LINE
  5
A65
330
1F
100
AcDbEntity
  8
OBJECT2
100
AcDbLine
 10
20.59484735589963
 20
13.18101246343152
 30
0.0
 11
20.55094973157356
 21
13.18101243522382
 31
0.0
  0
LINE
  5
A66
330
1F
100
AcDbEntity
  8
OBJECT1
100
AcDbLine
 10
20.55096232335252
 20
13.08801529520857
 30
0.0
 11
20.55096232335252
 21
13.08801529520857
 31
0.0
  0
LINE
  5
A67
330
1F
100
AcDbEntity
  8
OBJECT1
100
AcDbLine
 10
20.5509532827519
 20
13.08801526039203
 30
0.0
 11
20.55095297644216
 21
13.18101243522581
 31
0.0
  0
LINE
  5
A68
330
1F
100
AcDbEntity
  8
OBJECT2
100
AcDbLine
 10
21.05652279978114
 20
13.18101276009567
 30
0.0
 11
20.59484735589963
 21
13.18101246343152
 31
0.0
  0
LINE
  5
A69
330
1F
100
AcDbEntity
  8
OBJECT2
100
AcDbLine
 10
21.10043396658598
 20
13.08801550757427
 30
0.0
 11
20.55095337845155
 21
13.08801586066041
 31
0.0
  0
LINE
  5
A6A
330
1F
100
AcDbEntity
  8
OBJECT2
100
AcDbLine
 10
21.01461460799778
 20
13.1345140995506
 30
0.0
 11
20.63669060541401
 21
13.13451419633585
 31
0.0
  0
ARC
  5
A6B
330
1F
100
AcDbEntity
  8
OBJECT1
100
AcDbCircle
 10
21.28234735589963
 20
13.44146477526143
 30
0.0
 40
0.6875
100
AcDbArc
 50
90.0
 51
180.0
  0
ARC
  5
A6C
330
1F
100
AcDbEntity
  8
OBJECT1
100
AcDbCircle
 10
21.33152279978112
 20
13.22190224690157
 30
0.0
 40
0.275
100
AcDbArc
 50
90.0
 51
180.0
  0
ARC
  5
A6D
330
1F
100
AcDbEntity
  8
OBJECT1
100
AcDbCircle
 10
20.13283886142887
 20
13.07223795464951
 30
0.0
 40
0.011011
100
AcDbArc
 50
90.17468200000001
 51
180.0
  0
LINE
  5
A6E
330
1F
100
AcDbEntity
  8
OBJECT1
100
AcDbLine
 10
20.12182786142894
 20
13.07223795464951
 30
0.0
 11
20.12182841142915
 21
12.71529510464952
 31
0.0
  0
ARC
  5
A6F
330
1F
100
AcDbEntity
  8
OBJECT1
100
AcDbCircle
 10
20.17899734751888
 20
13.07240613411729
 30
0.0
 40
0.01086085
100
AcDbArc
 50
359.1145020000004
 51
90.53214399999808
  0
LINE
  5
A70
330
1F
100
AcDbEntity
  8
OBJECT1
100
AcDbLine
 10
20.44753484751886
 20
13.05041823411735
 30
0.0
 11
20.44756839751865
 21
12.8782071841173
 31
0.0
  0
LINE
  5
A71
330
1F
100
AcDbEntity
  8
OBJECT2
100
AcDbLine
 10
20.63673154751878
 20
12.87485053411725
 30
0.0
 11
20.63673154751878
 21
13.05367423411731
 31
0.0
  0
LINE
  5
A72
330
1F
100
AcDbEntity
  8
OBJECT2
100
AcDbLine
 10
20.63673154751878
 20
13.05367423411731
 30
0.0
 11
20.5509452975187
 21
13.08801568411731
 31
0.0
  0
LINE
  5
A73
330
1F
100
AcDbEntity
  8
OBJECT1
100
AcDbLine
 10
20.55093082648621
 20
13.08804031468095
 30
0.0
 11
20.55094973157356
 21
13.18101243522382
 31
0.0
  0
LINE
  5
A74
330
1F
100
AcDbEntity
  8
OBJECT1
100
AcDbLine
 10
20.44753484751886
 20
13.05041823411735
 30
0.0
 11
20.5509452975187
 21
13.08801568411731
 31
0.0
  0
LINE
  5
A75
330
1F
100
AcDbEntity
  8
OBJECT2
100
AcDbLine
 10
20.63673154751878
 20
12.87485053411725
 30
0.0
 11
20.5509452975187
 21
12.84064328411729
 31
0.0
  0
LINE
  5
A76
330
1F
100
AcDbEntity
  8
OBJECT1
100
AcDbLine
 10
20.48194339751872
 20
12.86571943411731
 30
0.0
 11
20.44756839751865
 21
12.8782071841173
 31
0.0
  0
LINE
  5
A77
330
1F
100
AcDbEntity
  8
OBJECT1
100
AcDbLine
 10
20.1898565475188
 20
13.07223838411734
 30
0.0
 11
20.18987359751879
 21
12.71529553411729
 31
0.0
  0
LINE
  5
A78
330
1F
100
AcDbEntity
  8
OBJECT2
100
AcDbLine
 10
21.01460464751876
 20
13.05367423411731
 30
0.0
 11
21.10045854751872
 21
13.08801568411731
 31
0.0
  0
LINE
  5
A79
330
1F
100
AcDbEntity
  8
OBJECT2
100
AcDbLine
 10
21.01460464751876
 20
12.87488408411731
 30
0.0
 11
21.01460464751876
 21
13.05367423411731
 31
0.0
  0
LINE
  5
A7A
330
1F
100
AcDbEntity
  8
OBJECT1
100
AcDbLine
 10
21.20378484751888
 20
13.05038468411728
 30
0.0
 11
21.20378484751888
 21
12.8782071841173
 31
0.0
  0
LINE
  5
A7B
330
1F
100
AcDbEntity
  8
OBJECT1
100
AcDbLine
 10
21.20378484751888
 20
12.8782071841173
 30
0.0
 11
21.20383544751867
 21
13.0504517841173
 31
0.0
  0
LINE
  5
A7C
330
1F
100
AcDbEntity
  8
OBJECT1
100
AcDbLine
 10
21.20378484751888
 20
13.05038468411728
 30
0.0
 11
21.10045854751872
 21
13.08801568411731
 31
0.0
  0
LINE
  5
A7D
330
1F
100
AcDbEntity
  8
OBJECT1
100
AcDbLine
 10
21.10043352251871
 20
13.18101278831189
 30
0.0
 11
21.10043352251871
 21
13.08801568411731
 31
0.0
  0
LINE
  5
A7E
330
1F
100
AcDbEntity
  8
OBJECT2
100
AcDbLine
 10
20.88927394751892
 20
13.08801568411731
 30
0.0
 11
21.01460464751876
 21
13.05367423411731
 31
0.0
  0
LINE
  5
A7F
330
1F
100
AcDbEntity
  8
OBJECT2
100
AcDbLine
 10
21.01460464751876
 20
12.87488408411731
 30
0.0
 11
21.10045854751872
 21
12.84064328411729
 31
0.0
  0
LINE
  5
A80
330
1F
100
AcDbEntity
  8
OBJECT1
100
AcDbLine
 10
21.16940984751882
 20
12.86571943411731
 30
0.0
 11
21.20378484751888
 21
12.8782071841173
 31
0.0
  0
LINE
  5
A81
330
1F
100
AcDbEntity
  8
OBJECT2
100
AcDbLine
 10
20.88922334751881
 20
12.84060973411728
 30
0.0
 11
21.01460464751876
 21
12.87488408411731
 31
0.0
  0
LINE
  5
A82
330
1F
100
AcDbEntity
  8
OBJECT2
100
AcDbLine
 10
21.10043352251871
 20
13.08801568411731
 30
0.0
 11
20.55095382251882
 21
13.08801568411731
 31
0.0
  0
LINE
  5
A83
330
1F
100
AcDbEntity
  8
OBJECT2
100
AcDbLine
 10
20.76209634751883
 20
13.08801568411731
 30
0.0
 11
20.63673154751878
 21
13.05367423411731
 31
0.0
  0
LINE
  5
A84
330
1F
100
AcDbEntity
  8
OBJECT2
100
AcDbLine
 10
20.76212989751873
 20
12.84060973411728
 30
0.0
 11
20.63673154751878
 21
12.87485053411725
 31
0.0
  0
LINE
  5
A85
330
1F
100
AcDbEntity
  8
OBJECT1
100
AcDbLine
 10
20.13280529140793
 20
13.08324890347577
 30
0.0
 11
20.17889647703368
 21
13.08326651568827
 31
0.0
  0
LINE
  5
A86
330
1F
100
AcDbEntity
  8
OBJECT2
100
AcDbLine
 10
24.1490254858365
 20
12.26215586530556
 30
0.0
 11
25.07560753459081
 21
13.1887348027902
 31
0.0
  0
LINE
  5
A87
330
1F
100
AcDbEntity
  8
OBJECT2
100
AcDbLine
 10
23.85831776605603
 20
12.5762128873969
 30
0.0
 11
24.77939364501601
 21
13.49728876635688
 31
0.0
  0
LINE
  5
A88
330
1F
100
AcDbEntity
  8
OBJECT1
100
AcDbLine
 10
22.05944842536685
 20
12.88511417311789
 30
0.0
 11
22.10620886647661
 21
12.61991614364162
 31
0.0
  0
LINE
  5
A89
330
1F
100
AcDbEntity
  8
OBJECT2
100
AcDbLine
 10
23.85831698823865
 20
12.62284071062989
 30
0.0
 11
23.2022042378821
 21
13.27900401912111
 31
0.0
  0
LINE
  5
A8A
330
1F
100
AcDbEntity
  8
OBJECT2
100
AcDbLine
 10
23.16088074081285
 20
12.57332640680535
 30
0.0
 11
23.16088190753903
 21
13.13395039677029
 31
0.0
  0
ARC
  5
A8B
330
1F
100
AcDbEntity
  8
OBJECT2
100
AcDbCircle
 10
23.19553717552965
 20
12.72972138553043
 30
0.0
 40
0.0346566
100
AcDbArc
 50
179.9368289999995
 51
249.3921360000019
  0
LINE
  5
A8C
330
1F
100
AcDbEntity
  8
OBJECT2
100
AcDbLine
 10
24.46657063032394
 20
12.47080500985546
 30
0.0
 11
24.86695177859265
 21
12.87118926939395
 31
0.0
  0
LINE
  5
A8D
330
1F
100
AcDbEntity
  8
OBJECT1
100
AcDbLine
 10
25.04215749475356
 20
12.6473715176614
 30
0.0
 11
24.86695255641002
 21
12.82257645600483
 31
0.0
  0
ARC
  5
A8E
330
1F
100
AcDbEntity
  8
OBJECT1
100
AcDbCircle
 10
20.13285591142887
 20
12.71532865464953
 30
0.0
 40
0.0110275
100
AcDbArc
 50
180.1744160000012
 51
269.912917999994
  0
ARC
  5
A8F
330
1F
100
AcDbEntity
  8
OBJECT1
100
AcDbCircle
 10
20.29355244751873
 20
12.70106208411728
 30
0.0
 40
0.0110275
100
AcDbArc
 50
90.08707600000354
 51
180.0
  0
ARC
  5
A90
330
1F
100
AcDbEntity
  8
OBJECT1
100
AcDbCircle
 10
20.17891319751864
 20
12.71526198411734
 30
0.0
 40
0.0109604
100
AcDbArc
 50
270.0
 51
0.1754760000010556
  0
LINE
  5
A91
330
1F
100
AcDbEntity
  8
OBJECT1
100
AcDbLine
 10
20.48194339751872
 20
12.86571943411731
 30
0.0
 11
20.48194339751872
 21
12.66860053411729
 31
0.0
  0
LINE
  5
A92
330
1F
100
AcDbEntity
  8
OBJECT1
100
AcDbLine
 10
21.16940984751882
 20
12.86571943411731
 30
0.0
 11
21.16942689751881
 21
12.66856698411734
 31
0.0
  0
LINE
  5
A93
330
1F
100
AcDbEntity
  8
OBJECT1
100
AcDbLine
 10
21.79824409963539
 20
12.45921944545786
 30
0.0
 11
22.07599649181357
 21
12.45920311129119
 31
0.0
  0
ARC
  5
A94
330
1F
100
AcDbEntity
  8
OBJECT1
100
AcDbCircle
 10
21.79825265562745
 20
12.42483524685175
 30
0.0
 40
0.0343838
100
AcDbArc
 50
90.01359899999034
 51
179.985168
  0
LINE
  5
A95
330
1F
100
AcDbEntity
  8
OBJECT1
100
AcDbLine
 10
24.69038760423901
 20
12.29560162714701
 30
0.0
 11
24.515182276987
 21
12.47080617658164
 31
0.0
  0
LINE
  5
A96
330
1F
100
AcDbEntity
  8
OBJECT1
100
AcDbLine
 10
25.04215632802727
 20
12.5987567597286
 30
0.0
 11
24.73899963981075
 21
12.29560318278194
 31
0.0
  0
LINE
  5
A97
330
1F
100
AcDbEntity
  8
OBJECT1
100
AcDbLine
 10
24.21660109997477
 20
12.22083547950617
 30
0.0
 11
24.46657063032394
 21
12.47080500985546
 31
0.0
  0
ARC
  5
A98
330
1F
100
AcDbEntity
  8
OBJECT1
100
AcDbCircle
 10
23.67263057072234
 20
12.34390875827457
 30
0.0
 40
0.0329274
100
AcDbArc
 50
134.9142060000046
 51
204.219603999999
  0
LINE
  5
A99
330
1F
100
AcDbEntity
  8
OBJECT1
100
AcDbLine
 10
24.12569679568828
 20
12.26215469857944
 30
0.0
 11
23.85831776605603
 21
12.52955161801312
 31
0.0
  0
ARC
  5
A9A
330
1F
100
AcDbEntity
  8
OBJECT2
100
AcDbCircle
 10
23.44691611111529
 20
12.24271354009285
 30
0.0
 40
0.21443235
100
AcDbArc
 50
24.13735999999776
 51
84.62607199999231
  0
LINE
  5
A9B
330
1F
100
AcDbEntity
  8
OBJECT2
100
AcDbLine
 10
22.19835083138146
 20
12.31929064106244
 30
0.0
 11
22.1070436176512
 21
12.31927352907833
 31
0.0
  0
LINE
  5
A9C
330
1F
100
AcDbEntity
  8
OBJECT2
100
AcDbLine
 10
22.1070436176512
 20
12.31927352907833
 30
0.0
 11
22.08834527483812
 21
12.35232182619804
 31
0.0
  0
LINE
  5
A9D
330
1F
100
AcDbEntity
  8
OBJECT2
100
AcDbLine
 10
22.1070436176512
 20
12.31927352907833
 30
0.0
 11
22.08834527483812
 21
12.24711657010484
 31
0.0
  0
LINE
  5
A9E
330
1F
100
AcDbEntity
  8
OBJECT2
100
AcDbLine
 10
22.19835122029026
 20
12.14182653190848
 30
0.0
 11
22.1070432287424
 21
12.14185920024177
 31
0.0
  0
LINE
  5
A9F
330
1F
100
AcDbEntity
  8
OBJECT2
100
AcDbLine
 10
22.1070432287424
 20
12.14185920024177
 30
0.0
 11
22.08834566374691
 21
12.2139827130646
 31
0.0
  0
ARC
  5
AA0
330
1F
100
AcDbEntity
  8
OBJECT1
100
AcDbCircle
 10
23.44755392143197
 20
12.24280843382282
 30
0.0
 40
0.2138136
100
AcDbArc
 50
359.9669039999992
 51
24.18408999999462
  0
LINE
  5
AA1
330
1F
100
AcDbEntity
  8
OBJECT2
100
AcDbLine
 10
24.1490254858365
 20
12.26215586530556
 30
0.0
 11
24.12569679568828
 21
12.26215469857944
 31
0.0
  0
LINE
  5
AA2
330
1F
100
AcDbEntity
  8
OBJECT2
100
AcDbLine
 10
24.13784591549377
 20
12.25097785059787
 30
0.0
 11
24.13784591549377
 21
12.25097785059787
 31
0.0
  0
ARC
  5
AA3
330
1F
100
AcDbEntity
  8
OBJECT1
100
AcDbCircle
 10
24.1922943043714
 20
12.24514538637932
 30
0.0
 40
0.0343772
100
AcDbArc
 50
225.0035100000049
 51
314.9960629999987
  0
LINE
  5
AA4
330
1F
100
AcDbEntity
  8
OBJECT1
100
AcDbLine
 10
24.13784591549377
 20
12.25097785059787
 30
0.0
 11
24.16798750876814
 21
12.22083547950617
 31
0.0
  0
ARC
  5
AA5
330
1F
100
AcDbEntity
  8
OBJECT1
100
AcDbCircle
 10
24.7146928442075
 20
12.31991697874232
 30
0.0
 40
0.03437995
100
AcDbArc
 50
225.0122379999954
 51
314.9916989999975
  0
LINE
  5
AA6
330
1F
100
AcDbEntity
  8
OBJECT1
100
AcDbLine
 10
25.62939777780259
 20
15.64307977849218
 30
0.0
 11
25.62936433165187
 21
15.33128853865994
 31
0.0
  0
LINE
  5
AA7
330
1F
100
AcDbEntity
  8
OBJECT1
100
AcDbLine
 10
26.38559813427873
 20
15.40279018642396
 30
0.0
 11
26.38559774537005
 21
15.64311361355176
 31
0.0
  0
LINE
  5
AA8
330
1F
100
AcDbEntity
  8
OBJECT1
100
AcDbLine
 10
26.71128802996015
 20
15.48252032758883
 30
0.0
 11
26.71128725214278
 21
15.87303369465993
 31
0.0
  0
LINE
  5
AA9
330
1F
100
AcDbEntity
  8
OBJECT1
100
AcDbLine
 10
26.6432752221636
 20
15.48252032758883
 30
0.0
 11
26.64327599998098
 21
15.87303369465993
 31
0.0
  0
LINE
  5
AAA
330
1F
100
AcDbEntity
  8
OBJECT1
  6
CONTINUOUS
100
AcDbLine
 10
25.75774870559424
 20
15.85881495199125
 30
0.0
 11
25.75774870559424
 21
16.94766347061291
 31
0.0
  0
LINE
  5
AAB
330
1F
100
AcDbEntity
  8
OBJECT1
  6
CONTINUOUS
100
AcDbLine
 10
26.25722970559429
 20
15.85884545199123
 30
0.0
 11
26.25722970559429
 21
16.94766347061291
 31
0.0
  0
LINE
  5
AAC
330
1F
100
AcDbEntity
  8
OBJECT2
  6
CONTINUOUS
100
AcDbLine
 10
25.85220070559428
 20
16.90136847061292
 30
0.0
 11
25.75776370559431
 21
16.94766347061291
 31
0.0
  0
LINE
  5
AAD
330
1F
100
AcDbEntity
  8
OBJECT2
  6
CONTINUOUS
100
AcDbLine
 10
25.99906620559416
 20
16.96170147061294
 30
0.0
 11
25.91682170559427
 21
16.90136847061292
 31
0.0
  0
LINE
  5
AAE
330
1F
100
AcDbEntity
  8
OBJECT2
  6
CONTINUOUS
100
AcDbLine
 10
26.04604820559423
 20
17.04010097061287
 30
0.0
 11
25.99906620559416
 21
16.96170147061294
 31
0.0
  0
LINE
  5
AAF
330
1F
100
AcDbEntity
  8
OBJECT2
  6
CONTINUOUS
100
AcDbLine
 10
25.91682170559427
 20
16.90136847061292
 30
0.0
 11
25.85220070559428
 21
16.90136847061292
 31
0.0
  0
LINE
  5
AB0
330
1F
100
AcDbEntity
  8
OBJECT1
  6
CONTINUOUS
100
AcDbLine
 10
25.88082620559426
 20
17.07629497061289
 30
0.0
 11
25.96381870559419
 21
17.07629497061289
 31
0.0
  0
LINE
  5
AB1
330
1F
100
AcDbEntity
  8
OBJECT1
  6
CONTINUOUS
100
AcDbLine
 10
25.75776370559431
 20
16.94766347061291
 30
0.0
 11
25.7927067055942
 21
17.0280464706129
 31
0.0
  0
LINE
  5
AB2
330
1F
100
AcDbEntity
  8
OBJECT1
  6
CONTINUOUS
100
AcDbLine
 10
26.13416770559418
 20
17.07629497061289
 30
0.0
 11
26.04604820559423
 21
17.04010097061287
 31
0.0
  0
LINE
  5
AB3
330
1F
100
AcDbEntity
  8
OBJECT1
  6
CONTINUOUS
100
AcDbLine
 10
26.25722970559429
 20
16.94766347061291
 30
0.0
 11
26.22228720559424
 21
17.0280464706129
 31
0.0
  0
LINE
  5
AB4
330
1F
100
AcDbEntity
  8
OBJECT1
  6
CONTINUOUS
100
AcDbLine
 10
26.22228720559424
 20
17.0280464706129
 30
0.0
 11
26.13416770559418
 21
17.07629497061289
 31
0.0
  0
LINE
  5
AB5
330
1F
100
AcDbEntity
  8
OBJECT1
  6
CONTINUOUS
100
AcDbLine
 10
25.96381870559419
 20
17.07629497061289
 30
0.0
 11
26.04604820559423
 21
17.04010097061287
 31
0.0
  0
LINE
  5
AB6
330
1F
100
AcDbEntity
  8
OBJECT1
  6
CONTINUOUS
100
AcDbLine
 10
25.7927067055942
 20
17.0280464706129
 30
0.0
 11
25.88082620559426
 21
17.07629497061289
 31
0.0
  0
LINE
  5
AB7
330
1F
100
AcDbEntity
  8
OBJECT1
100
AcDbLine
 10
25.75774870559424
 20
15.85881495199125
 30
0.0
 11
26.25722970559429
 21
15.85884545199123
 31
0.0
  0
LINE
  5
AB8
330
1F
100
AcDbEntity
  8
OBJECT2
100
AcDbLine
 10
26.28225458427432
 20
15.8588296186281
 30
0.0
 11
26.1904596789969
 21
15.8240183982369
 31
0.0
  0
LINE
  5
AB9
330
1F
100
AcDbEntity
  8
OBJECT2
100
AcDbLine
 10
25.73272382691409
 20
15.85883078535433
 30
0.0
 11
26.28225458427432
 21
15.8588296186281
 31
0.0
  0
LINE
  5
ABA
330
1F
100
AcDbEntity
  8
OBJECT1
100
AcDbLine
 10
26.28225458427432
 20
15.8588296186281
 30
0.0
 11
26.37342840231049
 21
15.8238850025427
 31
0.0
  0
LINE
  5
ABB
330
1F
100
AcDbEntity
  8
OBJECT2
100
AcDbLine
 10
25.73272382691409
 20
15.85883078535433
 30
0.0
 11
25.82452067673519
 21
15.8240191760544
 31
0.0
  0
LINE
  5
ABC
330
1F
100
AcDbEntity
  8
OBJECT2
100
AcDbLine
 10
25.94993479714737
 20
15.8583275374581
 30
0.0
 11
25.82452067673519
 21
15.8240191760544
 31
0.0
  0
LINE
  5
ABD
330
1F
100
AcDbEntity
  8
OBJECT1
100
AcDbLine
 10
25.73272382691409
 20
15.85883078535433
 30
0.0
 11
25.64151772945338
 21
15.82388422472521
 31
0.0
  0
LINE
  5
ABE
330
1F
100
AcDbEntity
  8
OBJECT2
100
AcDbLine
 10
26.06506111493395
 20
15.85832598182317
 30
0.0
 11
26.1904596789969
 21
15.8240183982369
 31
0.0
  0
LINE
  5
ABF
330
1F
100
AcDbEntity
  8
OBJECT1
100
AcDbLine
 10
26.70031069215708
 20
15.88401025464568
 30
0.0
 11
26.65425274209435
 21
15.88401206514733
 31
0.0
  0
ARC
  5
AC0
330
1F
100
AcDbEntity
  8
OBJECT1
100
AcDbCircle
 10
26.70039508535133
 20
15.87311964348926
 30
0.0
 40
0.01089275
100
AcDbArc
 50
359.5473859999996
 51
90.44487000000019
  0
ARC
  5
AC1
330
1F
100
AcDbEntity
  8
OBJECT1
100
AcDbCircle
 10
26.65416816677243
 20
15.87311964348926
 30
0.0
 40
0.01089275
100
AcDbArc
 50
89.5551299999998
 51
180.4526140000003
  0
LINE
  5
AC2
330
1F
100
AcDbEntity
  8
OBJECT1
100
AcDbLine
 10
26.37342956903667
 20
15.64479292144638
 30
0.0
 11
26.37342840231049
 21
15.8238850025427
 31
0.0
  0
LINE
  5
AC3
330
1F
100
AcDbEntity
  8
OBJECT2
100
AcDbLine
 10
26.1904596789969
 20
15.8240183982369
 30
0.0
 11
26.19047601316363
 21
15.64311361355176
 31
0.0
  0
LINE
  5
AC4
330
1F
100
AcDbEntity
  8
OBJECT1
100
AcDbLine
 10
25.64154923106055
 20
15.64479292144638
 30
0.0
 11
25.64151772945338
 21
15.82388422472521
 31
0.0
  0
LINE
  5
AC5
330
1F
100
AcDbEntity
  8
OBJECT2
100
AcDbLine
 10
25.82452067673519
 20
15.8240191760544
 30
0.0
 11
25.82450317584228
 21
15.64311322464296
 31
0.0
  0
LINE
  5
AC6
330
1F
100
AcDbEntity
  8
OBJECT2
100
AcDbLine
 10
25.62939777780259
 20
15.64307977849218
 30
0.0
 11
26.38559774537005
 21
15.64311361355176
 31
0.0
  0
LINE
  5
AC7
330
1F
100
AcDbEntity
  8
OBJECT1
100
AcDbLine
 10
25.64092931054547
 20
15.32997986078466
 30
0.0
 11
25.64099542502954
 21
14.95729329206332
 31
0.0
  0
LINE
  5
AC8
330
1F
100
AcDbEntity
  8
OBJECT2
100
AcDbLine
 10
26.71085106087931
 20
15.11402701029188
 30
0.0
 11
26.70034313591277
 21
15.19654138655354
 31
0.0
  0
LINE
  5
AC9
330
1F
100
AcDbEntity
  8
OBJECT1
100
AcDbLine
 10
26.65431928793698
 20
15.11402778810931
 30
0.0
 11
26.61934083679212
 21
15.11399356414116
 31
0.0
  0
LINE
  5
ACA
330
1F
100
AcDbEntity
  8
OBJECT1
100
AcDbLine
 10
26.65423606146892
 20
14.92154052363755
 30
0.0
 11
26.65424276491053
 21
14.93704433125852
 31
0.0
  0
LINE
  5
ACB
330
1F
100
AcDbEntity
  8
OBJECT1
100
AcDbLine
 10
26.65431928793698
 20
15.11402778810931
 30
0.0
 11
26.65425954635846
 21
14.97585668354704
 31
0.0
  0
LINE
  5
ACC
330
1F
100
AcDbEntity
  8
OBJECT2
100
AcDbLine
 10
26.70034352482146
 20
14.92154130145504
 30
0.0
 11
26.65423606146892
 21
14.92154052363755
 31
0.0
  0
LINE
  5
ACD
330
1F
100
AcDbEntity
  8
OBJECT1
100
AcDbLine
 10
26.70034391373026
 20
15.07757187270046
 30
0.0
 11
26.7098935675868
 21
15.0425253625278
 31
0.0
  0
LINE
  5
ACE
330
1F
100
AcDbEntity
  8
OBJECT1
100
AcDbLine
 10
26.70034391373026
 20
15.07757187270046
 30
0.0
 11
26.70034352482146
 21
14.92154130145504
 31
0.0
  0
LINE
  5
ACF
330
1F
100
AcDbEntity
  8
OBJECT2
100
AcDbLine
 10
26.70034391373026
 20
15.07757187270046
 30
0.0
 11
26.71085106087931
 21
15.11402701029188
 31
0.0
  0
LINE
  5
AD0
330
1F
100
AcDbEntity
  8
OBJECT1
100
AcDbLine
 10
26.61934161460949
 20
15.11402701029188
 30
0.0
 11
26.6193412257008
 21
15.04732488516039
 31
0.0
  0
LINE
  5
AD1
330
1F
100
AcDbEntity
  8
OBJECT1
100
AcDbLine
 10
26.65424276491053
 20
14.93704433125852
 30
0.0
 11
26.65423606146892
 21
14.92154052363755
 31
0.0
  0
LINE
  5
AD2
330
1F
100
AcDbEntity
  8
OBJECT1
100
AcDbLine
 10
26.65425954635846
 20
14.97585668354704
 30
0.0
 11
26.65431928793698
 21
15.11402778810931
 31
0.0
  0
LINE
  5
AD3
330
1F
100
AcDbEntity
  8
OBJECT2
100
AcDbLine
 10
26.65424276491053
 20
14.93704433125852
 30
0.0
 11
26.65425954635846
 21
14.97585668354704
 31
0.0
  0
LINE
  5
AD4
330
1F
100
AcDbEntity
  8
OBJECT2
100
AcDbLine
 10
26.8378107045831
 20
15.19654138655354
 30
0.0
 11
26.82730355743406
 21
15.11402778810931
 31
0.0
  0
LINE
  5
AD5
330
1F
100
AcDbEntity
  8
OBJECT1
100
AcDbLine
 10
26.82834349937714
 20
15.04252458471037
 30
0.0
 11
26.8378107045831
 21
15.07743731027991
 31
0.0
  0
LINE
  5
AD6
330
1F
100
AcDbEntity
  8
OBJECT2
100
AcDbLine
 10
26.76916131344224
 20
15.11402662138314
 30
0.0
 11
26.82730355743406
 21
15.11402778810931
 31
0.0
  0
LINE
  5
AD7
330
1F
100
AcDbEntity
  8
OBJECT2
100
AcDbLine
 10
26.8378107045831
 20
15.07743731027991
 30
0.0
 11
26.82730355743406
 21
15.11402778810931
 31
0.0
  0
LINE
  5
AD8
330
1F
100
AcDbEntity
  8
OBJECT1
100
AcDbLine
 10
26.7098935675868
 20
15.0425253625278
 30
0.0
 11
26.82834349937714
 21
15.04252458471037
 31
0.0
  0
LINE
  5
AD9
330
1F
100
AcDbEntity
  8
OBJECT2
100
AcDbLine
 10
26.76916131344224
 20
15.11402662138314
 30
0.0
 11
26.71085106087931
 21
15.11402701029188
 31
0.0
  0
LINE
  5
ADA
330
1F
100
AcDbEntity
  8
OBJECT1
100
AcDbLine
 10
26.57816901412736
 20
15.00126875776006
 30
0.0
 11
26.57813440125046
 21
15.05900731449045
 31
0.0
  0
LINE
  5
ADB
330
1F
100
AcDbEntity
  8
OBJECT1
100
AcDbLine
 10
26.60844750327449
 20
15.00126759103383
 30
0.0
 11
26.57816901412736
 21
15.00126875776006
 31
0.0
  0
LINE
  5
ADC
330
1F
100
AcDbEntity
  8
OBJECT2
100
AcDbLine
 10
26.60851517339342
 20
15.09338217928702
 30
0.0
 11
26.57813517906784
 21
15.09338217928702
 31
0.0
  0
LINE
  5
ADD
330
1F
100
AcDbEntity
  8
OBJECT1
100
AcDbLine
 10
26.55059071829028
 20
14.93701714653408
 30
0.0
 11
26.55062494225849
 21
14.92476418809771
 31
0.0
  0
LINE
  5
ADE
330
1F
100
AcDbEntity
  8
OBJECT1
100
AcDbLine
 10
26.55060860809188
 20
14.9758566835471
 30
0.0
 11
26.55062533116729
 21
15.05900653667296
 31
0.0
  0
LINE
  5
ADF
330
1F
100
AcDbEntity
  8
OBJECT1
100
AcDbLine
 10
26.57813440125046
 20
15.05900731449045
 30
0.0
 11
26.55062533116729
 21
15.05900653667296
 31
0.0
  0
LINE
  5
AE0
330
1F
100
AcDbEntity
  8
OBJECT2
100
AcDbLine
 10
26.60851517339342
 20
15.09338217928702
 30
0.0
 11
26.61934044788331
 21
15.19654138655354
 31
0.0
  0
LINE
  5
AE1
330
1F
100
AcDbEntity
  8
OBJECT1
100
AcDbLine
 10
26.60844750327449
 20
15.00126759103383
 30
0.0
 11
26.6193412257008
 21
15.04732488516039
 31
0.0
  0
LINE
  5
AE2
330
1F
100
AcDbEntity
  8
OBJECT2
100
AcDbLine
 10
26.60851517339342
 20
15.09338217928702
 30
0.0
 11
26.6193412257008
 21
15.04732488516039
 31
0.0
  0
LINE
  5
AE3
330
1F
100
AcDbEntity
  8
OBJECT1
100
AcDbLine
 10
26.65425954635846
 20
14.97585668354704
 30
0.0
 11
26.55060860809188
 21
14.9758566835471
 31
0.0
  0
LINE
  5
AE4
330
1F
100
AcDbEntity
  8
OBJECT1
100
AcDbLine
 10
26.65424276491053
 20
14.93704433125852
 30
0.0
 11
26.55059071829028
 21
14.93701714653408
 31
0.0
  0
LINE
  5
AE5
330
1F
100
AcDbEntity
  8
OBJECT1
100
AcDbLine
 10
26.70034313591277
 20
15.3155116782241
 30
0.0
 11
26.70031046757954
 21
15.47154186056078
 31
0.0
  0
LINE
  5
AE6
330
1F
100
AcDbEntity
  8
OBJECT1
100
AcDbLine
 10
26.65425278454423
 20
15.47154030492586
 30
0.0
 11
26.65423722819499
 21
15.27901959430337
 31
0.0
  0
ARC
  5
AE7
330
1F
100
AcDbEntity
  8
OBJECT1
100
AcDbCircle
 10
26.70033791576823
 20
15.48249232616031
 30
0.0
 40
0.0109505
100
AcDbArc
 50
269.8563840000013
 51
0.1474880000012753
  0
LINE
  5
AE8
330
1F
100
AcDbEntity
  8
OBJECT2
100
AcDbLine
 10
26.70031046757954
 20
15.47154186056078
 30
0.0
 11
26.65425278454423
 21
15.47154030492586
 31
0.0
  0
ARC
  5
AE9
330
1F
100
AcDbEntity
  8
OBJECT1
100
AcDbCircle
 10
26.65422533635553
 20
15.48249232616031
 30
0.0
 40
0.0109505
100
AcDbArc
 50
179.8525119999987
 51
270.1436159999985
  0
LINE
  5
AEA
330
1F
100
AcDbEntity
  8
OBJECT1
100
AcDbLine
 10
26.70034313591277
 20
15.3155116782241
 30
0.0
 11
26.70987801123767
 21
15.35052240879362
 31
0.0
  0
LINE
  5
AEB
330
1F
100
AcDbEntity
  8
OBJECT1
100
AcDbLine
 10
26.61930700173248
 20
15.27902114993823
 30
0.0
 11
26.61930661282379
 21
15.34572249725223
 31
0.0
  0
LINE
  5
AEC
330
1F
100
AcDbEntity
  8
OBJECT1
100
AcDbLine
 10
26.8283279430279
 20
15.35052396442855
 30
0.0
 11
26.83780992676561
 21
15.31561201667633
 31
0.0
  0
LINE
  5
AED
330
1F
100
AcDbEntity
  8
OBJECT1
100
AcDbLine
 10
26.8283279430279
 20
15.35052396442855
 30
0.0
 11
26.70987801123767
 21
15.35052240879362
 31
0.0
  0
LINE
  5
AEE
330
1F
100
AcDbEntity
  8
OBJECT1
100
AcDbLine
 10
26.65423722819499
 20
15.27901959430337
 30
0.0
 11
26.61930700173248
 21
15.27902114993823
 31
0.0
  0
LINE
  5
AEF
330
1F
100
AcDbEntity
  8
OBJECT1
100
AcDbLine
 10
26.65423722819499
 20
15.27901959430337
 30
0.0
 11
26.61930700173248
 21
15.27902114993823
 31
0.0
  0
LINE
  5
AF0
330
1F
100
AcDbEntity
  8
OBJECT2
100
AcDbLine
 10
26.7108514497881
 20
15.2790203721208
 30
0.0
 11
26.70034313591277
 21
15.3155116782241
 31
0.0
  0
LINE
  5
AF1
330
1F
100
AcDbEntity
  8
OBJECT2
100
AcDbLine
 10
26.76907808697417
 20
15.2790203721208
 30
0.0
 11
26.82730472416035
 21
15.27901959430337
 31
0.0
  0
LINE
  5
AF2
330
1F
100
AcDbEntity
  8
OBJECT2
100
AcDbLine
 10
26.83780992676561
 20
15.31561201667633
 30
0.0
 11
26.82730472416035
 21
15.27901959430337
 31
0.0
  0
LINE
  5
AF3
330
1F
100
AcDbEntity
  8
OBJECT2
100
AcDbLine
 10
26.76907808697417
 20
15.2790203721208
 30
0.0
 11
26.7108514497881
 21
15.2790203721208
 31
0.0
  0
LINE
  5
AF4
330
1F
100
AcDbEntity
  8
OBJECT1
100
AcDbLine
 10
26.57815190214314
 20
15.39178056919629
 30
0.0
 11
26.57813401234166
 21
15.33400739958894
 31
0.0
  0
LINE
  5
AF5
330
1F
100
AcDbEntity
  8
OBJECT1
100
AcDbLine
 10
26.60848211615139
 20
15.39178056919629
 30
0.0
 11
26.57815190214314
 21
15.39178056919629
 31
0.0
  0
LINE
  5
AF6
330
1F
100
AcDbEntity
  8
OBJECT2
100
AcDbLine
 10
26.60851517339342
 20
15.29966636985189
 30
0.0
 11
26.57813440125046
 21
15.29966636985189
 31
0.0
  0
LINE
  5
AF7
330
1F
100
AcDbEntity
  8
OBJECT1
100
AcDbLine
 10
26.5506420542426
 20
15.33404162355716
 30
0.0
 11
26.55060783027427
 21
15.40279135315025
 31
0.0
  0
LINE
  5
AF8
330
1F
100
AcDbEntity
  8
OBJECT1
100
AcDbLine
 10
26.57813401234166
 20
15.33400739958894
 30
0.0
 11
26.5506420542426
 21
15.33404162355716
 31
0.0
  0
LINE
  5
AF9
330
1F
100
AcDbEntity
  8
OBJECT2
100
AcDbLine
 10
26.60851517339342
 20
15.29966636985189
 30
0.0
 11
26.61930661282379
 21
15.34572249725223
 31
0.0
  0
LINE
  5
AFA
330
1F
100
AcDbEntity
  8
OBJECT1
100
AcDbLine
 10
26.60848211615139
 20
15.39178056919629
 30
0.0
 11
26.61930661282379
 21
15.34572249725223
 31
0.0
  0
LINE
  5
AFB
330
1F
100
AcDbEntity
  8
OBJECT2
100
AcDbLine
 10
26.57813440125046
 20
15.05900731449045
 30
0.0
 11
26.57813401234166
 21
15.33400739958894
 31
0.0
  0
LINE
  5
AFC
330
1F
100
AcDbEntity
  8
OBJECT2
100
AcDbLine
 10
26.65431928793698
 20
15.11402778810931
 30
0.0
 11
26.65423722819499
 21
15.27901959430337
 31
0.0
  0
LINE
  5
AFD
330
1F
100
AcDbEntity
  8
OBJECT2
100
AcDbLine
 10
26.61930700173248
 20
15.27902114993823
 30
0.0
 11
26.61934083679212
 21
15.11399356414116
 31
0.0
  0
LINE
  5
AFE
330
1F
100
AcDbEntity
  8
OBJECT2
100
AcDbLine
 10
26.70034313591277
 20
15.3155116782241
 30
0.0
 11
26.70034391373026
 21
15.07757187270046
 31
0.0
  0
LINE
  5
AFF
330
1F
100
AcDbEntity
  8
OBJECT2
100
AcDbLine
 10
26.70034313591277
 20
15.19654138655354
 30
0.0
 11
26.7108514497881
 21
15.2790203721208
 31
0.0
  0
LINE
  5
B00
330
1F
100
AcDbEntity
  8
OBJECT2
100
AcDbLine
 10
26.60851517339342
 20
15.29966636985189
 30
0.0
 11
26.61934044788331
 21
15.19654138655354
 31
0.0
  0
LINE
  5
B01
330
1F
100
AcDbEntity
  8
OBJECT1
100
AcDbLine
 10
26.83784415073382
 20
15.07747075643069
 30
0.0
 11
26.83780992676561
 21
15.31561201667633
 31
0.0
  0
LINE
  5
B02
330
1F
100
AcDbEntity
  8
OBJECT2
100
AcDbLine
 10
26.82730472416035
 20
15.27901959430337
 30
0.0
 11
26.8378107045831
 21
15.19654138655354
 31
0.0
  0
LINE
  5
B03
330
1F
100
AcDbEntity
  8
OBJECT2
100
AcDbLine
 10
26.5506420542426
 20
15.33404162355716
 30
0.0
 11
26.55062533116729
 21
15.05900653667296
 31
0.0
  0
LINE
  5
B04
330
1F
100
AcDbEntity
  8
OBJECT2
100
AcDbLine
 10
26.44142364896806
 20
14.99029180886557
 30
0.0
 11
26.5127763446887
 21
14.99029064213944
 31
0.0
  0
LINE
  5
B05
330
1F
100
AcDbEntity
  8
OBJECT1
100
AcDbLine
 10
26.38559852318742
 20
14.99029064213944
 30
0.0
 11
26.44137309083312
 21
14.99029180886557
 31
0.0
  0
ARC
  5
B06
330
1F
100
AcDbEntity
  8
OBJECT1
100
AcDbCircle
 10
26.50036198912933
 20
14.92512937339486
 30
0.0
 40
0.01141195
100
AcDbArc
 50
215.8073730000046
 51
268.8621830000062
  0
LINE
  5
B07
330
1F
100
AcDbEntity
  8
OBJECT2
100
AcDbLine
 10
26.48462790865387
 20
14.96481245344235
 30
0.0
 11
26.48460924103479
 21
14.94799370651983
 31
0.0
  0
ARC
  5
B08
330
1F
100
AcDbEntity
  8
OBJECT2
100
AcDbCircle
 10
26.49558852338152
 20
14.94803065284914
 30
0.0
 40
0.0109813
100
AcDbArc
 50
180.191605
 51
270.1722409999979
  0
ARC
  5
B09
330
1F
100
AcDbEntity
  8
OBJECT2
100
AcDbCircle
 10
26.49557218921502
 20
14.96491162516852
 30
0.0
 40
0.010945
100
AcDbArc
 50
89.65435800000136
 51
180.5203550000005
  0
LINE
  5
B0A
330
1F
100
AcDbEntity
  8
OBJECT1
100
AcDbLine
 10
26.44137309083312
 20
14.99029180886557
 30
0.0
 11
26.49110635027234
 21
14.91845219941549
 31
0.0
  0
LINE
  5
B0B
330
1F
100
AcDbEntity
  8
OBJECT1
100
AcDbLine
 10
26.38559774537005
 20
14.95729173642845
 30
0.0
 11
26.38559852318742
 21
14.99029064213944
 31
0.0
  0
LINE
  5
B0C
330
1F
100
AcDbEntity
  8
OBJECT1
100
AcDbLine
 10
26.35123999255752
 20
14.95725829027767
 30
0.0
 11
26.38559774537005
 21
14.95729173642845
 31
0.0
  0
LINE
  5
B0D
330
1F
100
AcDbEntity
  8
OBJECT2
100
AcDbLine
 10
26.38559852318742
 20
14.99029064213944
 30
0.0
 11
26.38559852318742
 21
14.99029064213944
 31
0.0
  0
LINE
  5
B0E
330
1F
100
AcDbEntity
  8
OBJECT2
100
AcDbLine
 10
26.38559852318742
 20
14.99029064213944
 30
0.0
 11
26.38559852318742
 21
14.99029064213944
 31
0.0
  0
ARC
  5
B0F
330
1F
100
AcDbEntity
  8
OBJECT1
100
AcDbCircle
 10
26.65427649012902
 20
14.91054004792848
 30
0.0
 40
0.01100055
100
AcDbArc
 50
90.21057099999332
 51
180.0540919999983
  0
ARC
  5
B10
330
1F
100
AcDbEntity
  8
OBJECT1
100
AcDbCircle
 10
26.70030309616136
 20
14.91054004792848
 30
0.0
 40
0.01100055
100
AcDbArc
 50
359.9459079999951
 51
89.78942900000665
  0
ARC
  5
B11
330
1F
100
AcDbEntity
  8
OBJECT1
100
AcDbCircle
 10
26.53964877118148
 20
14.92472801958583
 30
0.0
 40
0.01097635
100
AcDbArc
 50
269.9070740000043
 51
0.1897350000029842
  0
LINE
  5
B12
330
1F
100
AcDbEntity
  8
OBJECT1
100
AcDbLine
 10
26.35123882583146
 20
14.76010528777626
 30
0.0
 11
26.35123999255752
 21
14.95725829027767
 31
0.0
  0
LINE
  5
B13
330
1F
100
AcDbEntity
  8
OBJECT1
100
AcDbLine
 10
25.66372169555548
 20
14.7601064545025
 30
0.0
 11
25.66372247337297
 21
14.95729173642845
 31
0.0
  0
LINE
  5
B14
330
1F
100
AcDbEntity
  8
OBJECT2
100
AcDbLine
 10
26.19646792996146
 20
14.7509410424707
 30
0.0
 11
26.28225458427432
 21
14.78518251157302
 31
0.0
  0
LINE
  5
B15
330
1F
100
AcDbEntity
  8
OBJECT2
100
AcDbLine
 10
26.19643331708444
 20
14.57211808621533
 30
0.0
 11
26.28223747229021
 21
14.53784278205366
 31
0.0
  0
LINE
  5
B16
330
1F
100
AcDbEntity
  8
OBJECT2
100
AcDbLine
 10
25.7327568841559
 20
14.53784256968801
 30
0.0
 11
26.28223747229045
 21
14.53784221660188
 31
0.0
  0
LINE
  5
B17
330
1F
100
AcDbEntity
  8
OBJECT2
100
AcDbLine
 10
25.77666805096096
 20
14.4448453171665
 30
0.0
 11
26.23834349484237
 21
14.44484561383065
 31
0.0
  0
ARC
  5
B18
330
1F
100
AcDbEntity
  8
OBJECT1
100
AcDbCircle
 10
25.55084349484237
 20
14.1843933020008
 30
0.0
 40
0.6875
100
AcDbArc
 50
270.0
 51
0.0
  0
LINE
  5
B19
330
1F
100
AcDbEntity
  8
OBJECT2
100
AcDbLine
 10
26.19646792996146
 20
14.7509410424707
 30
0.0
 11
26.19643331708444
 21
14.57211808621533
 31
0.0
  0
LINE
  5
B1A
330
1F
100
AcDbEntity
  8
OBJECT1
100
AcDbLine
 10
25.4316663662466
 20
13.4968933020008
 30
0.0
 11
25.55084349484237
 21
13.4968933020008
 31
0.0
  0
LINE
  5
B1B
330
1F
100
AcDbEntity
  8
OBJECT1
100
AcDbLine
 10
25.4316663662466
 20
14.12895583036063
 30
0.0
 11
25.50166805096099
 21
14.12895583036063
 31
0.0
  0
LINE
  5
B1C
330
1F
100
AcDbEntity
  8
OBJECT1
100
AcDbLine
 10
25.73275698055563
 20
14.53784949889912
 30
0.0
 11
25.73274830028397
 21
14.44484528894448
 31
0.0
  0
LINE
  5
B1D
330
1F
100
AcDbEntity
  8
OBJECT1
100
AcDbLine
 10
25.66372169555548
 20
14.7601064545025
 30
0.0
 11
25.62939816671128
 21
14.74761859519329
 31
0.0
  0
LINE
  5
B1E
330
1F
100
AcDbEntity
  8
OBJECT1
100
AcDbLine
 10
25.62936472056056
 20
14.57544092240154
 30
0.0
 11
25.62939816671128
 21
14.74761859519329
 31
0.0
  0
LINE
  5
B1F
330
1F
100
AcDbEntity
  8
OBJECT1
100
AcDbLine
 10
25.62939816671128
 20
14.74761859519329
 30
0.0
 11
25.62936472056056
 21
14.57544092240154
 31
0.0
  0
LINE
  5
B20
330
1F
100
AcDbEntity
  8
OBJECT2
100
AcDbLine
 10
25.81852681539369
 20
14.75094220919699
 30
0.0
 11
25.7327409388982
 21
14.78521556881505
 31
0.0
  0
LINE
  5
B21
330
1F
100
AcDbEntity
  8
OBJECT2
100
AcDbLine
 10
25.81852681539369
 20
14.75094220919699
 30
0.0
 11
25.81851048122707
 21
14.5721173083979
 31
0.0
  0
LINE
  5
B22
330
1F
100
AcDbEntity
  8
OBJECT2
100
AcDbLine
 10
25.94390904529014
 20
14.78521556881505
 30
0.0
 11
25.81852681539369
 21
14.75094220919699
 31
0.0
  0
LINE
  5
B23
330
1F
100
AcDbEntity
  8
OBJECT1
100
AcDbLine
 10
25.62936472056056
 20
14.57544092240154
 30
0.0
 11
25.73277438504892
 21
14.53784317096229
 31
0.0
  0
LINE
  5
B24
330
1F
100
AcDbEntity
  8
OBJECT2
100
AcDbLine
 10
25.81851048122707
 20
14.5721173083979
 30
0.0
 11
25.73277438504892
 21
14.53784317096229
 31
0.0
  0
LINE
  5
B25
330
1F
100
AcDbEntity
  8
OBJECT2
100
AcDbLine
 10
25.94392576836544
 20
14.53784355987109
 30
0.0
 11
25.81851048122707
 21
14.5721173083979
 31
0.0
  0
LINE
  5
B26
330
1F
100
AcDbEntity
  8
OBJECT1
100
AcDbLine
 10
25.77666805096096
 20
14.4448453171665
 30
0.0
 11
25.77666805096096
 21
14.4039558303606
 31
0.0
  0
LINE
  5
B27
330
1F
100
AcDbEntity
  8
OBJECT2
100
AcDbLine
 10
25.73274830028397
 20
14.44484528894448
 30
0.0
 11
25.77666805096096
 21
14.4448453171665
 31
0.0
  0
ARC
  5
B28
330
1F
100
AcDbEntity
  8
OBJECT1
100
AcDbCircle
 10
25.50166805096099
 20
14.4039558303606
 30
0.0
 40
0.275
100
AcDbArc
 50
270.0
 51
0.0
  0
LINE
  5
B29
330
1F
100
AcDbEntity
  8
OBJECT2
100
AcDbLine
 10
25.8185762427441
 20
14.49134397771168
 30
0.0
 11
26.19650024532786
 21
14.49134388092633
 31
0.0
  0
LINE
  5
B2A
330
1F
100
AcDbEntity
  8
OBJECT2
100
AcDbLine
 10
26.07103436411269
 20
14.78521673554123
 30
0.0
 11
26.19646792996146
 21
14.7509410424707
 31
0.0
  0
LINE
  5
B2B
330
1F
100
AcDbEntity
  8
OBJECT2
100
AcDbLine
 10
26.07105264282298
 20
14.53784394877978
 30
0.0
 11
26.19643331708444
 21
14.57211808621533
 31
0.0
  0
LINE
  5
B2C
330
1F
100
AcDbEntity
  8
OBJECT1
100
AcDbLine
 10
26.70027555856821
 20
14.54257645105493
 30
0.0
 11
26.65430386059763
 21
14.54257698364264
 31
0.0
  0
ARC
  5
B2D
330
1F
100
AcDbEntity
  8
OBJECT1
100
AcDbCircle
 10
26.65421130031991
 20
14.55349520731888
 30
0.0
 40
0.01091915
100
AcDbArc
 50
179.5153960000029
 51
270.4865720000004
  0
ARC
  5
B2E
330
1F
100
AcDbEntity
  8
OBJECT1
100
AcDbCircle
 10
26.70036828597035
 20
14.55349520731888
 30
0.0
 40
0.01091915
100
AcDbArc
 50
269.5134279999995
 51
0.4846040000035065
  0
LINE
  5
B2F
330
1F
100
AcDbEntity
  8
OBJECT1
100
AcDbLine
 10
26.64329254087745
 20
14.5535875596827
 30
0.0
 11
26.64327620671072
 21
14.91052954739287
 31
0.0
  0
LINE
  5
B30
330
1F
100
AcDbEntity
  8
OBJECT1
100
AcDbLine
 10
26.71128704541304
 20
14.5535875596827
 30
0.0
 11
26.71130337957966
 21
14.91052954739287
 31
0.0
  0
LINE
  5
B31
330
1F
100
AcDbEntity
  8
OBJECT1
100
AcDbLine
 10
26.2822375679902
 20
14.53784281687026
 30
0.0
 11
26.28223787429995
 21
14.44484564203636
 31
0.0
  0
LINE
  5
B32
330
1F
100
AcDbEntity
  8
OBJECT1
100
AcDbLine
 10
26.28223747229021
 20
14.53784278205366
 30
0.0
 11
26.28223747229021
 21
14.53784278205366
 31
0.0
  0
LINE
  5
B33
330
1F
100
AcDbEntity
  8
OBJECT1
100
AcDbLine
 10
26.35123882583146
 20
14.76010528777626
 30
0.0
 11
26.38561407953666
 21
14.7476178173758
 31
0.0
  0
LINE
  5
B34
330
1F
100
AcDbEntity
  8
OBJECT1
100
AcDbLine
 10
26.38558180011223
 20
14.5754405334928
 30
0.0
 11
26.38561407953666
 21
14.7476178173758
 31
0.0
  0
LINE
  5
B35
330
1F
100
AcDbEntity
  8
OBJECT1
100
AcDbLine
 10
26.38558180011223
 20
14.5754405334928
 30
0.0
 11
26.28223747229021
 21
14.53784278205366
 31
0.0
  0
LINE
  5
B36
330
1F
100
AcDbEntity
  8
OBJECT2
100
AcDbLine
 10
26.23834349484237
 20
14.44484561383065
 30
0.0
 11
26.28223787429995
 21
14.44484564203636
 31
0.0
  0
LINE
  5
B37
330
1F
100
AcDbEntity
  8
OBJECT1
100
AcDbLine
 10
26.23834349484237
 20
14.44484561383065
 30
0.0
 11
26.23834349484237
 21
14.1843933020008
 31
0.0
  0
LINE
  5
B38
330
1F
100
AcDbEntity
  8
OBJECT2
100
AcDbLine
 10
26.35125671563294
 20
14.95729290315457
 30
0.0
 11
25.64099542502954
 21
14.95729329206332
 31
0.0
  0
LINE
  5
B39
330
1F
100
AcDbEntity
  8
OBJECT2
100
AcDbLine
 10
25.62936433165187
 20
15.33128853865994
 30
0.0
 11
26.35520219469522
 21
15.33128737193376
 31
0.0
  0
ARC
  5
B3A
330
1F
100
AcDbEntity
  8
OBJECT2
100
AcDbCircle
 10
26.97887256773295
 20
15.19654294218846
 30
0.0
 40
0.6281027500000001
100
AcDbArc
 50
160.8303990000023
 51
199.1700739999973
  0
LINE
  5
B3B
330
1F
100
AcDbEntity
  8
OBJECT2
100
AcDbLine
 10
26.55059071829028
 20
14.93701714653408
 30
0.0
 11
26.49562158062368
 21
14.93704981486742
 31
0.0
  0
LINE
  5
B3C
330
1F
100
AcDbEntity
  8
OBJECT2
100
AcDbLine
 10
26.49563791479041
 20
14.97585512791212
 30
0.0
 11
26.55060860809188
 21
14.9758566835471
 31
0.0
  0
LINE
  5
B3D
330
1F
100
AcDbEntity
  8
OBJECT1
100
AcDbLine
 10
26.50013564424871
 20
14.91371956908428
 30
0.0
 11
26.53963088137989
 21
14.91375223741757
 31
0.0
  0
LINE
  5
B3E
330
1F
100
AcDbEntity
  8
OBJECT1
100
AcDbLine
 10
26.55060783027427
 20
15.40279135315025
 30
0.0
 11
26.38559813427873
 21
15.40279018642396
 31
0.0
  0
ENDSEC
  0
SECTION
  2
OBJECTS
  0
DICTIONARY
  5
C
330
0
100
AcDbDictionary
  3
ACAD_GROUP
350
D
  3
ACAD_LAYOUT
350
1A
  3
ACAD_MLINESTYLE
350
17
  3
ACAD_PLOTSETTINGS
350
19
  3
ACAD_PLOTSTYLENAME
350
E
  3
ACDBHEADERROUNDTRIPXREC
350
EA1
  3
ACDBVARIABLEDICTIONARY
350
178
  0
DICTIONARY
  5
EC3
330
1F
100
AcDbDictionary
280
     1
  3
ACAD_LAYOUTSELFREF
360
EC4
  0
DICTIONARY
  5
EC1
330
1B
100
AcDbDictionary
280
     1
  3
ACAD_LAYOUTSELFREF
360
EC2
  0
DICTIONARY
  5
D
102
{ACAD_REACTORS
330
C
102
}
330
C
100
AcDbDictionary
  0
DICTIONARY
  5
1A
102
{ACAD_REACTORS
330
C
102
}
330
C
100
AcDbDictionary
  0
DICTIONARY
  5
17
102
{ACAD_REACTORS
330
C
102
}
330
C
100
AcDbDictionary
  3
STANDARD
350
18
  0
DICTIONARY
  5
19
102
{ACAD_REACTORS
330
C
102
}
330
C
100
AcDbDictionary
  0
ACDBDICTIONARYWDFLT
  5
E
102
{ACAD_REACTORS
330
C
102
}
330
C
100
AcDbDictionary
281
     1
  3
Normal
350
F
100
AcDbDictionaryWithDefault
340
F
  0
DICTIONARY
  5
EA1
102
{ACAD_REACTORS
330
C
102
}
330
C
100
AcDbDictionary
  3
CEPSNTYPE
350
EAB
  3
FINGERPRINTGUID
350
EAC
  3
HYPERLINKBASE
350
EA4
  3
INSUNITS
350
EAA
  3
LAYOUTDICT
350
EA6
  3
LWETCUNION
350
EA9
  3
PLOTSETDICT
350
EA7
  3
PLOTSTYLNAMDICT
350
EA8
  3
PSVPSCALE
350
EAE
  3
PUCSBASE
350
EB1
  3
PUCSORGBACK
350
EB7
  3
PUCSORGBOTTOM
350
EB3
  3
PUCSORGFRONT
350
EB6
  3
PUCSORGLEFT
350
EB4
  3
PUCSORGRIGHT
350
EB5
  3
PUCSORGTOP
350
EB2
  3
PUCSORTHOREF
350
EAF
  3
PUCSORTHOVIEW
350
EB0
  3
STYLESHEET
350
EA5
  3
TSTACKALIGN
350
EA2
  3
TSTACKSIZE
350
EA3
  3
UCSBASE
350
EBA
  3
UCSORGBACK
350
EC0
  3
UCSORGBOTTOM
350
EBC
  3
UCSORGFRONT
350
EBF
  3
UCSORGLEFT
350
EBD
  3
UCSORGRIGHT
350
EBE
  3
UCSORGTOP
350
EBB
  3
UCSORTHOREF
350
EB8
  3
UCSORTHOVIEW
350
EB9
  3
VERSIONGUID
350
EAD
  0
DICTIONARY
  5
178
102
{ACAD_REACTORS
330
C
102
}
330
C
100
AcDbDictionary
  3
DIMASSOC
350
B40
  3
SORTENTS
350
179
  0
XRECORD
  5
EC4
102
{ACAD_REACTORS
330
EC3
102
}
330
EC3
100
AcDbXrecord
340
1F
  0
XRECORD
  5
EC2
102
{ACAD_REACTORS
330
EC1
102
}
330
EC1
100
AcDbXrecord
340
1B
  0
MLINESTYLE
  5
18
102
{ACAD_REACTORS
330
17
102
}
330
17
100
AcDbMlineStyle
  2
STANDARD
 70
     0
  3

 62
   256
 51
90.0
 52
90.0
 71
     2
 49
0.5
 62
   256
  6
BYLAYER
 49
-0.5
 62
   256
  6
BYLAYER
  0
ACDBPLACEHOLDER
  5
F
102
{ACAD_REACTORS
330
E
102
}
330
E
100
AcDbPlaceHolder
280
     0
  0
XRECORD
  5
EAB
102
{ACAD_REACTORS
330
EA1
102
}
330
EA1
100
AcDbXrecord
 90
        0
  0
XRECORD
  5
EAC
102
{ACAD_REACTORS
330
EA1
102
}
330
EA1
100
AcDbXrecord
  1
{FDEAD576-A652-11D2-9A35-0060089B3A3F}
  0
XRECORD
  5
EA4
102
{ACAD_REACTORS
330
EA1
102
}
330
EA1
100
AcDbXrecord
  1

  0
XRECORD
  5
EAA
102
{ACAD_REACTORS
330
EA1
102
}
330
EA1
100
AcDbXrecord
 90
        1
  0
XRECORD
  5
EA6
102
{ACAD_REACTORS
330
EA1
102
}
330
EA1
100
AcDbXrecord
340
1A
  0
XRECORD
  5
EA9
102
{ACAD_REACTORS
330
EA1
102
}
330
EA1
100
AcDbXrecord
 90
    11805
  0
XRECORD
  5
EA7
102
{ACAD_REACTORS
330
EA1
102
}
330
EA1
100
AcDbXrecord
340
19
  0
XRECORD
  5
EA8
102
{ACAD_REACTORS
330
EA1
102
}
330
EA1
100
AcDbXrecord
340
E
  0
XRECORD
  5
EAE
102
{ACAD_REACTORS
330
EA1
102
}
330
EA1
100
AcDbXrecord
 40
0.0
  0
XRECORD
  5
EB1
102
{ACAD_REACTORS
330
EA1
102
}
330
EA1
100
AcDbXrecord
340
0
  0
XRECORD
  5
EB7
102
{ACAD_REACTORS
330
EA1
102
}
330
EA1
100
AcDbXrecord
 10
0.0
 20
0.0
 30
0.0
  0
XRECORD
  5
EB3
102
{ACAD_REACTORS
330
EA1
102
}
330
EA1
100
AcDbXrecord
 10
0.0
 20
0.0
 30
0.0
  0
XRECORD
  5
EB6
102
{ACAD_REACTORS
330
EA1
102
}
330
EA1
100
AcDbXrecord
 10
0.0
 20
0.0
 30
0.0
  0
XRECORD
  5
EB4
102
{ACAD_REACTORS
330
EA1
102
}
330
EA1
100
AcDbXrecord
 10
0.0
 20
0.0
 30
0.0
  0
XRECORD
  5
EB5
102
{ACAD_REACTORS
330
EA1
102
}
330
EA1
100
AcDbXrecord
 10
0.0
 20
0.0
 30
0.0
  0
XRECORD
  5
EB2
102
{ACAD_REACTORS
330
EA1
102
}
330
EA1
100
AcDbXrecord
 10
0.0
 20
0.0
 30
0.0
  0
XRECORD
  5
EAF
102
{ACAD_REACTORS
330
EA1
102
}
330
EA1
100
AcDbXrecord
340
0
  0
XRECORD
  5
EB0
102
{ACAD_REACTORS
330
EA1
102
}
330
EA1
100
AcDbXrecord
 70
     0
  0
XRECORD
  5
EA5
102
{ACAD_REACTORS
330
EA1
102
}
330
EA1
100
AcDbXrecord
  1
WILKINS.ctb
  0
XRECORD
  5
EA2
102
{ACAD_REACTORS
330
EA1
102
}
330
EA1
100
AcDbXrecord
 90
        1
  0
XRECORD
  5
EA3
102
{ACAD_REACTORS
330
EA1
102
}
330
EA1
100
AcDbXrecord
 90
       70
  0
XRECORD
  5
EBA
102
{ACAD_REACTORS
330
EA1
102
}
330
EA1
100
AcDbXrecord
340
0
  0
XRECORD
  5
EC0
102
{ACAD_REACTORS
330
EA1
102
}
330
EA1
100
AcDbXrecord
 10
0.0
 20
0.0
 30
0.0
  0
XRECORD
  5
EBC
102
{ACAD_REACTORS
330
EA1
102
}
330
EA1
100
AcDbXrecord
 10
0.0
 20
0.0
 30
0.0
  0
XRECORD
  5
EBF
102
{ACAD_REACTORS
330
EA1
102
}
330
EA1
100
AcDbXrecord
 10
0.0
 20
0.0
 30
0.0
  0
XRECORD
  5
EBD
102
{ACAD_REACTORS
330
EA1
102
}
330
EA1
100
AcDbXrecord
 10
0.0
 20
0.0
 30
0.0
  0
XRECORD
  5
EBE
102
{ACAD_REACTORS
330
EA1
102
}
330
EA1
100
AcDbXrecord
 10
0.0
 20
0.0
 30
0.0
  0
XRECORD
  5
EBB
102
{ACAD_REACTORS
330
EA1
102
}
330
EA1
100
AcDbXrecord
 10
0.0
 20
0.0
 30
0.0
  0
XRECORD
  5
EB8
102
{ACAD_REACTORS
330
EA1
102
}
330
EA1
100
AcDbXrecord
340
0
  0
XRECORD
  5
EB9
102
{ACAD_REACTORS
330
EA1
102
}
330
EA1
100
AcDbXrecord
 70
     0
  0
XRECORD
  5
EAD
102
{ACAD_REACTORS
330
EA1
102
}
330
EA1
100
AcDbXrecord
  1
{EC001A19-E63B-4743-BA12-D731A872C0C2}
  0
DICTIONARYVAR
  5
B40
102
{ACAD_REACTORS
330
178
102
}
330
178
100
DictionaryVariables
280
     0
  1
1
  0
DICTIONARYVAR
  5
179
102
{ACAD_REACTORS
330
178
102
}
330
178
100
DictionaryVariables
280
     0
  1
96
  0
ENDSEC
  0
EOF
