  0
SECTION
  2
HEADER
  9
$ACADVER
  1
AC1014
  9
$ACADMAINTVER
 70
     9
  9
$DWGCODEPAGE
  3
ANSI_1252
  9
$INSBASE
 10
0.0
 20
0.0
 30
0.0
  9
$EXTMIN
 10
0.87382514760111
 20
4.330053764407118
 30
-0.0000000349181948
  9
$EXTMAX
 10
28.9703293550647
 20
18.1695312953665
 30
0.0000000814935746
  9
$LIMMIN
 10
0.0
 20
0.0
  9
$LIMMAX
 10
31.5
 20
20.8
  9
$ORTHOMODE
 70
     0
  9
$REGENMODE
 70
     1
  9
$FILLMODE
 70
     1
  9
$QTEXTMODE
 70
     0
  9
$MIRRTEXT
 70
     0
  9
$DRAGMODE
 70
     2
  9
$LTSCALE
 40
1.0
  9
$OSMODE
 70
    37
  9
$ATTMODE
 70
     1
  9
$TEXTSIZE
 40
0.125
  9
$TRACEWID
 40
0.05
  9
$TEXTSTYLE
  7
ROMANS
  9
$CLAYER
  8
0
  9
$CELTYPE
  6
BYLAYER
  9
$CECOLOR
 62
   256
  9
$CELTSCALE
 40
1.0
  9
$DELOBJ
 70
     1
  9
$DISPSILH
 70
     0
  9
$DIMSCALE
 40
1.0
  9
$DIMASZ
 40
0.125
  9
$DIMEXO
 40
0.0625
  9
$DIMDLI
 40
0.38
  9
$DIMRND
 40
0.0
  9
$DIMDLE
 40
0.0
  9
$DIMEXE
 40
0.09
  9
$DIMTP
 40
0.0
  9
$DIMTM
 40
0.0
  9
$DIMTXT
 40
0.125
  9
$DIMCEN
 40
0.04
  9
$DIMTSZ
 40
0.0
  9
$DIMTOL
 70
     0
  9
$DIMLIM
 70
     0
  9
$DIMTIH
 70
     1
  9
$DIMTOH
 70
     1
  9
$DIMSE1
 70
     0
  9
$DIMSE2
 70
     0
  9
$DIMTAD
 70
     0
  9
$DIMZIN
 70
     0
  9
$DIMBLK
  1

  9
$DIMASO
 70
     1
  9
$DIMSHO
 70
     1
  9
$DIMPOST
  1

  9
$DIMAPOST
  1

  9
$DIMALT
 70
     0
  9
$DIMALTD
 70
     2
  9
$DIMALTF
 40
25.4
  9
$DIMLFAC
 40
1.0
  9
$DIMTOFL
 70
     0
  9
$DIMTVP
 40
0.0
  9
$DIMTIX
 70
     0
  9
$DIMSOXD
 70
     0
  9
$DIMSAH
 70
     0
  9
$DIMBLK1
  1

  9
$DIMBLK2
  1

  9
$DIMSTYLE
  2
STANDARD
  9
$DIMCLRD
 70
   256
  9
$DIMCLRE
 70
   256
  9
$DIMCLRT
 70
     3
  9
$DIMTFAC
 40
1.0
  9
$DIMGAP
 40
0.09
  9
$DIMJUST
 70
     0
  9
$DIMSD1
 70
     0
  9
$DIMSD2
 70
     0
  9
$DIMTOLJ
 70
     1
  9
$DIMTZIN
 70
     0
  9
$DIMALTZ
 70
     0
  9
$DIMALTTZ
 70
     0
  9
$DIMFIT
 70
     3
  9
$DIMUPT
 70
     1
  9
$DIMUNIT
 70
     2
  9
$DIMDEC
 70
     3
  9
$DIMTDEC
 70
     3
  9
$DIMALTU
 70
     2
  9
$DIMALTTD
 70
     2
  9
$DIMTXSTY
  7
STANDARD
  9
$DIMAUNIT
 70
     0
  9
$LUNITS
 70
     2
  9
$LUPREC
 70
     3
  9
$SKETCHINC
 40
0.05
  9
$FILLETRAD
 40
0.125
  9
$AUNITS
 70
     0
  9
$AUPREC
 70
     0
  9
$MENU
  1
.
  9
$ELEVATION
 40
0.0
  9
$PELEVATION
 40
0.0
  9
$THICKNESS
 40
0.0
  9
$LIMCHECK
 70
     0
  9
$BLIPMODE
 70
     0
  9
$CHAMFERA
 40
0.5
  9
$CHAMFERB
 40
0.5
  9
$CHAMFERC
 40
1.0
  9
$CHAMFERD
 40
0.0
  9
$SKPOLY
 70
     0
  9
$TDCREATE
 40
2452453.565153356
  9
$TDUPDATE
 40
2452509.670899664
  9
$TDINDWG
 40
0.0252475000
  9
$TDUSRTIMER
 40
0.0252475000
  9
$USRTIMER
 70
     1
  9
$ANGBASE
 50
0.0
  9
$ANGDIR
 70
     0
  9
$PDMODE
 70
     0
  9
$PDSIZE
 40
0.0
  9
$PLINEWID
 40
0.0
  9
$COORDS
 70
     0
  9
$SPLFRAME
 70
     0
  9
$SPLINETYPE
 70
     6
  9
$SPLINESEGS
 70
    64
  9
$ATTDIA
 70
     0
  9
$ATTREQ
 70
     1
  9
$HANDLING
 70
 22529
  9
$HANDSEED
  5
1E7B
  9
$SURFTAB1
 70
    32
  9
$SURFTAB2
 70
    32
  9
$SURFTYPE
 70
     6
  9
$SURFU
 70
     6
  9
$SURFV
 70
     6
  9
$UCSNAME
  2

  9
$UCSORG
 10
0.0
 20
0.0
 30
0.0
  9
$UCSXDIR
 10
1.0
 20
0.0
 30
0.0
  9
$UCSYDIR
 10
0.0
 20
1.0
 30
0.0
  9
$PUCSNAME
  2

  9
$PUCSORG
 10
0.0
 20
0.0
 30
0.0
  9
$PUCSXDIR
 10
1.0
 20
0.0
 30
0.0
  9
$PUCSYDIR
 10
0.0
 20
1.0
 30
0.0
  9
$USERI1
 70
     0
  9
$USERI2
 70
     0
  9
$USERI3
 70
     0
  9
$USERI4
 70
     0
  9
$USERI5
 70
     0
  9
$USERR1
 40
0.0
  9
$USERR2
 40
0.0
  9
$USERR3
 40
0.0
  9
$USERR4
 40
0.0
  9
$USERR5
 40
0.0
  9
$WORLDVIEW
 70
     1
  9
$SHADEDGE
 70
     3
  9
$SHADEDIF
 70
    70
  9
$TILEMODE
 70
     1
  9
$MAXACTVP
 70
    64
  9
$PINSBASE
 10
0.0
 20
0.0
 30
0.0
  9
$PLIMCHECK
 70
     0
  9
$PEXTMIN
 10
1.000000000000000E+20
 20
1.000000000000000E+20
 30
1.000000000000000E+20
  9
$PEXTMAX
 10
-1.000000000000000E+20
 20
-1.000000000000000E+20
 30
-1.000000000000000E+20
  9
$PLIMMIN
 10
0.0
 20
0.0
  9
$PLIMMAX
 10
12.0
 20
9.0
  9
$UNITMODE
 70
     0
  9
$VISRETAIN
 70
     1
  9
$PLINEGEN
 70
     0
  9
$PSLTSCALE
 70
     1
  9
$TREEDEPTH
 70
  3020
  9
$PICKSTYLE
 70
     1
  9
$CMLSTYLE
  2
STANDARD
  9
$CMLJUST
 70
     0
  9
$CMLSCALE
 40
1.0
  9
$PROXYGRAPHICS
 70
     1
  9
$MEASUREMENT
 70
     0
  0
ENDSEC
  0
SECTION
  2
CLASSES
  0
CLASS
  1
ACDBDICTIONARYWDFLT
  2
AcDbDictionaryWithDefault
  3
AutoCAD 2000
 90
        0
280
     0
281
     0
  0
CLASS
  1
ACDBPLACEHOLDER
  2
AcDbPlaceHolder
  3
AutoCAD 2000
 90
        0
280
     0
281
     0
  0
CLASS
  1
LAYOUT
  2
AcDbLayout
  3
AutoCAD 2000
 90
        0
280
     0
281
     0
  0
CLASS
  1
DICTIONARYVAR
  2
AcDbDictionaryVar
  3
AutoCAD 2000
 90
        0
280
     0
281
     0
  0
CLASS
  1
LONG_TRANSACTION
  2
AcDbLongTransaction
  3
AutoCAD 2000
 90
        0
280
     0
281
     0
  0
CLASS
  1
LWPOLYLINE
  2
AcDbPolyline
  3
AutoCAD 2000
 90
        0
280
     0
281
     1
  0
CLASS
  1
HATCH
  2
AcDbHatch
  3
AutoCAD 2000
 90
        0
280
     0
281
     1
  0
CLASS
  1
XRECORD
  2
AcDbXrecord
  3
AutoCAD 2000
 90
        0
280
     0
281
     0
  0
ENDSEC
  0
SECTION
  2
TABLES
  0
TABLE
  2
VPORT
  5
8
330
0
100
AcDbSymbolTable
 70
     2
  0
VPORT
  5
1E54
330
8
100
AcDbSymbolTableRecord
100
AcDbViewportTableRecord
  2
*ACTIVE
 70
     0
 10
0.0
 20
0.0
 11
1.0
 21
1.0
 12
15.74896867565655
 22
10.40116749013107
 13
0.0
 23
0.0
 14
0.5
 24
0.5
 15
5.0
 25
5.0
 16
0.0
 26
0.0
 36
1.0
 17
0.0
 27
0.0
 37
0.0
 40
21.11949415005761
 41
1.781954887218045
 42
50.0
 43
0.0
 44
0.0
 50
0.0
 51
0.0
 71
     0
 72
 15000
 73
     1
 74
     2
 75
     0
 76
     0
 77
     0
 78
     0
  0
ENDTAB
  0
TABLE
  2
LTYPE
  5
5
330
0
100
AcDbSymbolTable
 70
     2
  0
LTYPE
  5
14
330
5
100
AcDbSymbolTableRecord
100
AcDbLinetypeTableRecord
  2
BYBLOCK
 70
     0
  3

 72
    65
 73
     0
 40
0.0
  0
LTYPE
  5
15
330
5
100
AcDbSymbolTableRecord
100
AcDbLinetypeTableRecord
  2
BYLAYER
 70
     0
  3

 72
    65
 73
     0
 40
0.0
  0
LTYPE
  5
16
330
5
100
AcDbSymbolTableRecord
100
AcDbLinetypeTableRecord
  2
CONTINUOUS
 70
     0
  3
Solid line
 72
    65
 73
     0
 40
0.0
  0
ENDTAB
  0
TABLE
  2
LAYER
  5
2
330
0
100
AcDbSymbolTable
 70
    10
  0
LAYER
  5
10
330
2
100
AcDbSymbolTableRecord
100
AcDbLayerTableRecord
  2
0
 70
     0
 62
     7
  6
CONTINUOUS
  0
LAYER
  5
62
330
2
100
AcDbSymbolTableRecord
100
AcDbLayerTableRecord
  2
OBJECT1
 70
     0
 62
     7
  6
CONTINUOUS
  0
LAYER
  5
63
330
2
100
AcDbSymbolTableRecord
100
AcDbLayerTableRecord
  2
OBJECT2
 70
     0
 62
     8
  6
CONTINUOUS
  0
LAYER
  5
65
330
2
100
AcDbSymbolTableRecord
100
AcDbLayerTableRecord
  2
TEXT
 70
     0
 62
     7
  6
CONTINUOUS
  0
ENDTAB
  0
TABLE
  2
STYLE
  5
3
330
0
100
AcDbSymbolTable
 70
     4
  0
STYLE
  5
11
330
3
100
AcDbSymbolTableRecord
100
AcDbTextStyleTableRecord
  2
STANDARD
 70
     0
 40
0.0
 41
1.0
 50
0.0
 71
     0
 42
0.125
  3
romans.shx
  4

  0
STYLE
  5
B3
330
3
100
AcDbSymbolTableRecord
100
AcDbTextStyleTableRecord
  2
ROMANS
 70
     0
 40
0.0
 41
1.0
 50
0.0
 71
     0
 42
0.125
  3
romans.shx
  4

  0
ENDTAB
  0
TABLE
  2
VIEW
  5
6
330
0
100
AcDbSymbolTable
 70
     0
  0
ENDTAB
  0
TABLE
  2
UCS
  5
7
330
0
100
AcDbSymbolTable
 70
     0
  0
ENDTAB
  0
TABLE
  2
APPID
  5
9
330
0
100
AcDbSymbolTable
 70
     1
  0
APPID
  5
12
330
9
100
AcDbSymbolTableRecord
100
AcDbRegAppTableRecord
  2
ACAD
 70
     0
  0
ENDTAB
  0
TABLE
  2
DIMSTYLE
  5
A
330
0
100
AcDbSymbolTable
 70
     4
  0
DIMSTYLE
105
99
330
A
100
AcDbSymbolTableRecord
100
AcDbDimStyleTableRecord
  2
STANDARD
 70
     0
  3

  4

  5

  6

  7

 40
1.0
 41
0.125
 42
0.0625
 43
0.38
 44
0.09
 45
0.0
 46
0.0
 47
0.0
 48
0.0
140
0.125
141
0.04
142
0.0
143
25.4
144
1.0
145
0.0
146
1.0
147
0.09
 71
     0
 72
     0
 73
     1
 74
     1
 75
     0
 76
     0
 77
     0
 78
     0
170
     0
171
     2
172
     0
173
     0
174
     0
175
     0
176
   256
177
   256
178
     3
270
     2
271
     3
272
     3
273
     2
274
     2
340
11
275
     0
280
     0
281
     0
282
     0
283
     1
284
     0
285
     0
286
     0
287
     3
288
     1
  0
ENDTAB
  0
TABLE
  2
BLOCK_RECORD
  5
1
330
0
100
AcDbSymbolTable
 70
     6
  0
BLOCK_RECORD
  5
1F
102
{ACAD_XDICTIONARY
360
1E77
102
}
330
1
100
AcDbSymbolTableRecord
100
AcDbBlockTableRecord
  2
*MODEL_SPACE
  0
BLOCK_RECORD
  5
1B
102
{ACAD_XDICTIONARY
360
1E75
102
}
330
1
100
AcDbSymbolTableRecord
100
AcDbBlockTableRecord
  2
*PAPER_SPACE
  0
BLOCK_RECORD
  5
6B
330
1
100
AcDbSymbolTableRecord
100
AcDbBlockTableRecord
  2
MARKINS
  0
BLOCK_RECORD
  5
ADD
330
1
100
AcDbSymbolTableRecord
100
AcDbBlockTableRecord
  2
*X2
  0
BLOCK_RECORD
  5
B1F
330
1
100
AcDbSymbolTableRecord
100
AcDbBlockTableRecord
  2
*X3
  0
BLOCK_RECORD
  5
1C3C
330
1
100
AcDbSymbolTableRecord
100
AcDbBlockTableRecord
  2
SPECSHEET_FLOWARROW
  0
ENDTAB
  0
ENDSEC
  0
SECTION
  2
BLOCKS
  0
BLOCK
  5
20
330
1F
100
AcDbEntity
  8
0
100
AcDbBlockBegin
  2
*MODEL_SPACE
 70
     0
 10
0.0
 20
0.0
 30
0.0
  3
*MODEL_SPACE
  1

  0
ENDBLK
  5
21
330
1F
100
AcDbEntity
  8
0
100
AcDbBlockEnd
  0
BLOCK
  5
1C
330
1B
100
AcDbEntity
 67
     1
  8
0
100
AcDbBlockBegin
  2
*PAPER_SPACE
 70
     0
 10
0.0
 20
0.0
 30
0.0
  3
*PAPER_SPACE
  1

  0
ENDBLK
  5
1D
330
1B
100
AcDbEntity
 67
     1
  8
0
100
AcDbBlockEnd
  0
BLOCK
  5
6C
330
6B
100
AcDbEntity
  8
0
100
AcDbBlockBegin
  2
MARKINS
 70
     0
 10
0.0
 20
0.0
 30
0.0
  3
MARKINS
  1

  0
ENDBLK
  5
6D
330
6B
100
AcDbEntity
  8
0
100
AcDbBlockEnd
  0
BLOCK
  5
B1D
330
ADD
100
AcDbEntity
  8
0
100
AcDbBlockBegin
  2
*X2
 70
     1
 10
0.0
 20
0.0
 30
0.0
  3
*X2
  1
AVE_RENDER
  0
LINE
  5
ADE
330
ADD
100
AcDbEntity
  8
0
 62
     0
100
AcDbLine
 10
77.58388703204904
 20
34.65525542929299
 30
0.0
 11
77.75261877959176
 21
34.85634209561172
 31
0.0
  0
LINE
  5
ADF
330
ADD
100
AcDbEntity
  8
0
 62
     0
100
AcDbLine
 10
78.06951670063908
 20
32.02258296102912
 30
0.0
 11
78.2382484481818
 21
32.22366962734785
 31
0.0
  0
LINE
  5
AE0
330
ADD
100
AcDbEntity
  8
0
 62
     0
100
AcDbLine
 10
78.55514636922912
 20
29.38991049276525
 30
0.0
 11
78.72387811677184
 21
29.59099715908399
 31
0.0
  0
LINE
  5
AE1
330
ADD
100
AcDbEntity
  8
0
 62
     0
100
AcDbLine
 10
79.04077603781916
 20
26.75723802450139
 30
0.0
 11
79.08555659221836
 21
26.810605411085
 31
0.0
  0
LINE
  5
AE2
330
ADD
100
AcDbEntity
  8
0
 62
     0
100
AcDbLine
 10
78.06951671781823
 20
32.02258298063127
 30
0.0
 11
78.27871760441749
 21
32.00428027465426
 31
0.0
  0
LINE
  5
AE3
330
ADD
100
AcDbEntity
  8
0
 62
     0
100
AcDbLine
 10
77.58388705017273
 20
34.65525544858131
 30
0.0
 11
77.79308793677199
 21
34.6369527426043
 31
0.0
  0
LINE
  5
AE4
330
ADD
100
AcDbEntity
  8
0
 62
     0
100
AcDbLine
 10
78.55514638546374
 20
29.38991051268122
 30
0.0
 11
78.76434727206301
 21
29.37160780670422
 31
0.0
  0
LINE
  5
AE5
330
ADD
100
AcDbEntity
  8
0
 62
     0
100
AcDbLine
 10
79.04077605310923
 20
26.75723804473118
 30
0.0
 11
79.08555659221834
 21
26.75332025521255
 31
0.0
  0
LINE
  5
AE6
330
ADD
100
AcDbEntity
  8
0
 62
     0
100
AcDbLine
 10
78.76436953796392
 20
29.37154599545173
 30
0.0
 11
78.72390057148625
 21
29.59093539255736
 31
0.0
  0
LINE
  5
AE7
330
ADD
100
AcDbEntity
  8
0
 62
     0
100
AcDbLine
 10
78.27874192626414
 20
32.00421883644182
 30
0.0
 11
78.23827295978649
 21
32.22360823354745
 31
0.0
  0
LINE
  5
AE8
330
ADD
100
AcDbEntity
  8
0
 62
     0
100
AcDbLine
 10
77.79311431456438
 20
34.6368916774319
 30
0.0
 11
77.75264534808671
 21
34.85628107453753
 31
0.0
  0
LINE
  5
AE9
330
ADD
100
AcDbEntity
  8
0
 62
     0
100
AcDbLine
 10
77.53729212338466
 20
27.84235242291276
 30
0.0
 11
77.8099018573939
 21
28.12647034811886
 31
0.0
  0
LINE
  5
AEA
330
ADD
100
AcDbEntity
  8
0
 62
     0
100
AcDbLine
 10
77.8485910904757
 20
27.79402230662922
 30
0.0
 11
77.80992244484322
 21
28.12641664126073
 31
0.0
  0
LINE
  5
AEB
330
ADD
100
AcDbEntity
  8
0
 62
     0
100
AcDbLine
 10
77.53729212440105
 20
27.84235244330272
 30
0.0
 11
77.84857076360052
 21
27.79407606421186
 31
0.0
  0
LINE
  5
AEC
330
ADD
100
AcDbEntity
  8
0
 62
     0
100
AcDbLine
 10
77.66184059117238
 20
32.41336022615646
 30
0.0
 11
77.90690545312789
 21
32.5074318129121
 31
0.0
  0
LINE
  5
AED
330
ADD
100
AcDbEntity
  8
0
 62
     0
100
AcDbLine
 10
78.89941161253542
 20
28.4661689504314
 30
0.0
 11
79.08555659221832
 21
28.53762331343406
 31
0.0
  0
LINE
  5
AEE
330
ADD
100
AcDbEntity
  8
0
 62
     0
100
AcDbLine
 10
78.51344425222395
 20
34.95138538455285
 30
0.0
 11
78.75850911417946
 21
35.04545697130849
 31
0.0
  0
LINE
  5
AEF
330
ADD
100
AcDbEntity
  8
0
 62
     0
100
AcDbLine
 10
77.39789404336868
 20
38.94541606172544
 30
0.0
 11
77.52093809281642
 21
38.99264824703355
 31
0.0
  0
LINE
  5
AF0
330
ADD
100
AcDbEntity
  8
0
 62
     0
100
AcDbLine
 10
77.66184062039579
 20
32.41336022152432
 30
0.0
 11
77.83593851063234
 21
32.29592971179546
 31
0.0
  0
LINE
  5
AF1
330
ADD
100
AcDbEntity
  8
0
 62
     0
100
AcDbLine
 10
78.51344428212133
 20
34.95138537918831
 30
0.0
 11
78.68754217235788
 21
34.83395486945945
 31
0.0
  0
LINE
  5
AF2
330
ADD
100
AcDbEntity
  8
0
 62
     0
100
AcDbLine
 10
77.39789404336868
 20
38.81627259666462
 30
0.0
 11
77.44997115124471
 21
38.78114614386971
 31
0.0
  0
LINE
  5
AF3
330
ADD
100
AcDbEntity
  8
0
 62
     0
100
AcDbLine
 10
78.89941164150896
 20
28.46616894711406
 30
0.0
 11
79.07350953174551
 21
28.3487384373852
 31
0.0
  0
LINE
  5
AF4
330
ADD
100
AcDbEntity
  8
0
 62
     0
100
AcDbLine
 10
77.83596265716518
 20
32.29586906679557
 30
0.0
 11
77.90692979185312
 21
32.50737110131138
 31
0.0
  0
LINE
  5
AF5
330
ADD
100
AcDbEntity
  8
0
 62
     0
100
AcDbLine
 10
78.68756829791478
 20
34.83389355398546
 30
0.0
 11
78.75853543260271
 21
35.04539558850128
 31
0.0
  0
LINE
  5
AF6
330
ADD
100
AcDbEntity
  8
0
 62
     0
100
AcDbLine
 10
79.07353057570119
 20
28.34867683090063
 30
0.0
 11
79.08555659221834
 21
28.38451774475013
 31
0.0
  0
LINE
  5
AF7
330
ADD
100
AcDbEntity
  8
0
 62
     0
100
AcDbLine
 10
77.45000037937875
 20
38.7810857898804
 30
0.0
 11
77.52096751406668
 21
38.99258782439622
 31
0.0
  0
LINE
  5
AF8
330
ADD
100
AcDbEntity
  8
0
 62
     0
100
AcDbLine
 10
77.97763945609254
 20
33.78750408509981
 30
0.0
 11
77.97763945609254
 21
33.78750408509981
 31
0.0
  0
LINE
  5
AF9
330
ADD
100
AcDbEntity
  8
0
 62
     0
100
AcDbLine
 10
78.02019894970304
 20
34.9526325735094
 30
0.0
 11
78.02019894970304
 21
34.9526325735094
 31
0.0
  0
LINE
  5
AFA
330
ADD
100
AcDbEntity
  8
0
 62
     0
100
AcDbLine
 10
78.10531793692409
 20
37.28288955032858
 30
0.0
 11
78.10531793692409
 21
37.28288955032858
 31
0.0
  0
LINE
  5
AFB
330
ADD
100
AcDbEntity
  8
0
 62
     0
100
AcDbLine
 10
78.14787743053462
 20
38.44801803873817
 30
0.0
 11
78.14787743053462
 21
38.44801803873817
 31
0.0
  0
LINE
  5
AFC
330
ADD
100
AcDbEntity
  8
0
 62
     0
100
AcDbLine
 10
78.19043692414512
 20
39.61314652714776
 30
0.0
 11
78.19043692414512
 21
39.61314652714776
 31
0.0
  0
LINE
  5
AFD
330
ADD
100
AcDbEntity
  8
0
 62
     0
100
AcDbLine
 10
77.93507996248202
 20
32.62237559669022
 30
0.0
 11
77.93507996248202
 21
32.62237559669022
 31
0.0
  0
LINE
  5
AFE
330
ADD
100
AcDbEntity
  8
0
 62
     0
100
AcDbLine
 10
77.89252046887149
 20
31.45724710828063
 30
0.0
 11
77.89252046887149
 21
31.45724710828063
 31
0.0
  0
LINE
  5
AFF
330
ADD
100
AcDbEntity
  8
0
 62
     0
100
AcDbLine
 10
77.84996097526098
 20
30.29211861987105
 30
0.0
 11
77.84996097526098
 21
30.29211861987105
 31
0.0
  0
LINE
  5
B00
330
ADD
100
AcDbEntity
  8
0
 62
     0
100
AcDbLine
 10
77.80740148165047
 20
29.12699013146145
 30
0.0
 11
77.80740148165047
 21
29.12699013146145
 31
0.0
  0
LINE
  5
B01
330
ADD
100
AcDbEntity
  8
0
 62
     0
100
AcDbLine
 10
77.76484198803995
 20
27.96186164305186
 30
0.0
 11
77.76484198803995
 21
27.96186164305186
 31
0.0
  0
LINE
  5
B02
330
ADD
100
AcDbEntity
  8
0
 62
     0
100
AcDbLine
 10
77.72228249442943
 20
26.79673315464227
 30
0.0
 11
77.72228249442943
 21
26.79673315464227
 31
0.0
  0
LINE
  5
B03
330
ADD
100
AcDbEntity
  8
0
 62
     0
100
AcDbLine
 10
77.46767638321945
 20
32.8648239431962
 30
0.0
 11
77.46767638321945
 21
32.8648239431962
 31
0.0
  0
LINE
  5
B04
330
ADD
100
AcDbEntity
  8
0
 62
     0
100
AcDbLine
 10
78.34386577945855
 20
32.98017646557068
 30
0.0
 11
78.34386577945855
 21
32.98017646557068
 31
0.0
  0
LINE
  5
B05
330
ADD
100
AcDbEntity
  8
0
 62
     0
100
AcDbLine
 10
78.38841976426697
 20
34.24526493478446
 30
0.0
 11
78.38841976426697
 21
34.24526493478446
 31
0.0
  0
LINE
  5
B06
330
ADD
100
AcDbEntity
  8
0
 62
     0
100
AcDbLine
 10
78.0194802079291
 20
36.71513877240637
 30
0.0
 11
78.0194802079291
 21
36.71513877240637
 31
0.0
  0
LINE
  5
B07
330
ADD
100
AcDbEntity
  8
0
 62
     0
100
AcDbLine
 10
77.61466180931984
 20
37.92106624499643
 30
0.0
 11
77.61466180931984
 21
37.92106624499643
 31
0.0
  0
LINE
  5
B08
330
ADD
100
AcDbEntity
  8
0
 62
     0
100
AcDbLine
 10
78.94022358897662
 20
38.09557976399464
 30
0.0
 11
78.94022358897662
 21
38.09557976399464
 31
0.0
  0
LINE
  5
B09
330
ADD
100
AcDbEntity
  8
0
 62
     0
100
AcDbLine
 10
77.65921579412825
 20
39.18615471421022
 30
0.0
 11
77.65921579412825
 21
39.18615471421022
 31
0.0
  0
LINE
  5
B0A
330
ADD
100
AcDbEntity
  8
0
 62
     0
100
AcDbLine
 10
77.42312239841104
 20
31.59973547398241
 30
0.0
 11
77.42312239841104
 21
31.59973547398241
 31
0.0
  0
LINE
  5
B0B
330
ADD
100
AcDbEntity
  8
0
 62
     0
100
AcDbLine
 10
78.74868417806782
 20
31.77424899298062
 30
0.0
 11
78.74868417806782
 21
31.77424899298062
 31
0.0
  0
LINE
  5
B0C
330
ADD
100
AcDbEntity
  8
0
 62
     0
100
AcDbLine
 10
77.8279407970203
 20
30.39380800139236
 30
0.0
 11
77.8279407970203
 21
30.39380800139236
 31
0.0
  0
LINE
  5
B0D
330
ADD
100
AcDbEntity
  8
0
 62
     0
100
AcDbLine
 10
78.19688035335817
 20
27.92393416377044
 30
0.0
 11
78.19688035335817
 21
27.92393416377044
 31
0.0
  0
LINE
  5
B0E
330
ADD
100
AcDbEntity
  8
0
 62
     0
100
AcDbLine
 10
79.07306974959727
 20
28.03928668614491
 30
0.0
 11
79.07306974959727
 21
28.03928668614491
 31
0.0
  0
LINE
  5
B0F
330
ADD
100
AcDbEntity
  8
0
 62
     0
100
AcDbLine
 10
78.15232636854975
 20
26.65884569455664
 30
0.0
 11
78.15232636854975
 21
26.65884569455664
 31
0.0
  0
LINE
  5
B10
330
ADD
100
AcDbEntity
  8
0
 62
     0
100
AcDbLine
 10
78.39177274913106
 20
32.91267536299199
 30
0.0
 11
78.39177274913106
 21
32.91267536299199
 31
0.0
  0
LINE
  5
B11
330
ADD
100
AcDbEntity
  8
0
 62
     0
100
AcDbLine
 10
79.07334428988072
 20
34.70115909208771
 30
0.0
 11
79.07334428988072
 21
34.70115909208771
 31
0.0
  0
LINE
  5
B12
330
ADD
100
AcDbEntity
  8
0
 62
     0
100
AcDbLine
 10
77.90129665432871
 20
36.55918212910769
 30
0.0
 11
77.90129665432871
 21
36.55918212910769
 31
0.0
  0
LINE
  5
B13
330
ADD
100
AcDbEntity
  8
0
 62
     0
100
AcDbLine
 10
78.58286819507842
 20
38.34766585820339
 30
0.0
 11
78.58286819507842
 21
38.34766585820339
 31
0.0
  0
LINE
  5
B14
330
ADD
100
AcDbEntity
  8
0
 62
     0
100
AcDbLine
 10
77.69544185807963
 20
31.13359437704235
 30
0.0
 11
77.69544185807963
 21
31.13359437704235
 31
0.0
  0
LINE
  5
B15
330
ADD
100
AcDbEntity
  8
0
 62
     0
100
AcDbLine
 10
78.8822488439334
 20
29.26616859687631
 30
0.0
 11
78.8822488439334
 21
29.26616859687631
 31
0.0
  0
LINE
  5
B16
330
ADD
100
AcDbEntity
  8
0
 62
     0
100
AcDbLine
 10
77.75183783241622
 20
28.87497349064318
 30
0.0
 11
77.75183783241622
 21
28.87497349064318
 31
0.0
  0
LINE
  5
B17
330
ADD
100
AcDbEntity
  8
0
 62
     0
100
AcDbLine
 10
78.18591795288199
 20
27.48708761092667
 30
0.0
 11
78.18591795288199
 21
27.48708761092667
 31
0.0
  0
LINE
  5
B18
330
ADD
100
AcDbEntity
  8
0
 62
     0
100
AcDbLine
 10
78.51569393201327
 20
31.39240846031142
 30
0.0
 11
78.51569393201327
 21
31.39240846031142
 31
0.0
  0
LINE
  5
B19
330
ADD
100
AcDbEntity
  8
0
 62
     0
100
AcDbLine
 10
78.66019957576757
 20
33.48073170756582
 30
0.0
 11
78.66019957576757
 21
33.48073170756582
 31
0.0
  0
LINE
  5
B1A
330
ADD
100
AcDbEntity
  8
0
 62
     0
100
AcDbLine
 10
78.67052002996198
 20
37.91275130055334
 30
0.0
 11
78.67052002996198
 21
37.91275130055334
 31
0.0
  0
LINE
  5
B1B
330
ADD
100
AcDbEntity
  8
0
 62
     0
100
AcDbLine
 10
78.64987912157321
 20
29.04871211457831
 30
0.0
 11
78.64987912157321
 21
29.04871211457831
 31
0.0
  0
LINE
  5
B1C
330
ADD
100
AcDbEntity
  8
0
 62
     0
100
AcDbLine
 10
78.50537347781889
 20
26.9603888673239
 30
0.0
 11
78.50537347781889
 21
26.9603888673239
 31
0.0
  0
ENDBLK
  5
B1E
330
ADD
100
AcDbEntity
  8
0
100
AcDbBlockEnd
  0
BLOCK
  5
B56
330
B1F
100
AcDbEntity
  8
0
100
AcDbBlockBegin
  2
*X3
 70
     1
 10
0.0
 20
0.0
 30
0.0
  3
*X3
  1
AVE_RENDER
  0
LINE
  5
B20
330
B1F
100
AcDbEntity
  8
0
 62
     0
100
AcDbLine
 10
41.36385091051436
 20
6.775615577195605
 30
0.0
 11
42.14273586482645
 21
7.587381077784451
 31
0.0
  0
LINE
  5
B21
330
B1F
100
AcDbEntity
  8
0
 62
     0
100
AcDbLine
 10
52.12886411431379
 20
5.216937365412132
 30
0.0
 11
52.81514635108289
 21
5.93219093449427
 31
0.0
  0
LINE
  5
B22
330
B1F
100
AcDbEntity
  8
0
 62
     0
100
AcDbLine
 10
42.25322149746638
 20
6.637655210157107
 30
0.0
 11
42.14273965280216
 21
7.587353309104285
 31
0.0
  0
LINE
  5
B23
330
B1F
100
AcDbEntity
  8
0
 62
     0
100
AcDbLine
 10
52.89835270135237
 20
5.216937365412132
 30
0.0
 11
52.81514865012861
 21
5.932156499488524
 31
0.0
  0
LINE
  5
B24
330
B1F
100
AcDbEntity
  8
0
 62
     0
100
AcDbLine
 10
31.58081250013993
 20
8.29285201977288
 30
0.0
 11
31.52167672999969
 21
8.801181045710549
 31
0.0
  0
LINE
  5
B25
330
B1F
100
AcDbEntity
  8
0
 62
     0
100
AcDbLine
 10
31.1289496031778
 20
8.362952184417368
 30
0.0
 11
31.58080796558434
 21
8.292873217049056
 31
0.0
  0
LINE
  5
B26
330
B1F
100
AcDbEntity
  8
0
 62
     0
100
AcDbLine
 10
41.36385091185349
 20
6.77561558847921
 30
0.0
 11
42.25321845242342
 21
6.637683076791042
 31
0.0
  0
LINE
  5
B27
330
B1F
100
AcDbEntity
  8
0
 62
     0
100
AcDbLine
 10
46.5470363962685
 20
6.348868370324035
 30
0.0
 11
47.2472217161414
 21
6.617644332483011
 31
0.0
  0
LINE
  5
B28
330
B1F
100
AcDbEntity
  8
0
 62
     0
100
AcDbLine
 10
60.91833075592793
 20
5.547991009578351
 30
0.0
 11
61.61851607580083
 21
5.816766971737326
 31
0.0
  0
LINE
  5
B29
330
B1F
100
AcDbEntity
  8
0
 62
     0
100
AcDbLine
 10
32.32903287400014
 20
7.208588570444617
 30
0.0
 11
32.87592735648196
 21
7.418521693228696
 31
0.0
  0
LINE
  5
B2A
330
B1F
100
AcDbEntity
  8
0
 62
     0
100
AcDbLine
 10
46.54703641124107
 20
6.348868371937887
 30
0.0
 11
47.0444589547741
 21
6.013352629855439
 31
0.0
  0
LINE
  5
B2B
330
B1F
100
AcDbEntity
  8
0
 62
     0
100
AcDbLine
 10
60.91833077524949
 20
5.547991012427672
 30
0.0
 11
61.40913799079852
 21
5.216937365412134
 31
0.0
  0
LINE
  5
B2C
330
B1F
100
AcDbEntity
  8
0
 62
     0
100
AcDbLine
 10
47.04446209774886
 20
6.013316672940633
 30
0.0
 11
47.24722533971439
 21
6.617608200128661
 31
0.0
  0
LINE
  5
B2D
330
B1F
100
AcDbEntity
  8
0
 62
     0
100
AcDbLine
 10
61.41726873851531
 20
5.216937365412133
 30
0.0
 11
61.61851893777392
 21
5.816719599499455
 31
0.0
  0
LINE
  5
B2E
330
B1F
100
AcDbEntity
  8
0
 62
     0
100
AcDbLine
 10
32.69380652619539
 20
6.875712400969304
 30
0.0
 11
32.87593174165485
 21
7.418496800757873
 31
0.0
  0
LINE
  5
B2F
330
B1F
100
AcDbEntity
  8
0
 62
     0
100
AcDbLine
 10
46.13790413568252
 20
6.282164831216148
 30
0.0
 11
46.13790413568252
 21
6.282164831216148
 31
0.0
  0
LINE
  5
B30
330
B1F
100
AcDbEntity
  8
0
 62
     0
100
AcDbLine
 10
41.003536809426
 20
5.578058902346488
 30
0.0
 11
41.003536809426
 21
5.578058902346488
 31
0.0
  0
LINE
  5
B31
330
B1F
100
AcDbEntity
  8
0
 62
     0
100
AcDbLine
 10
41.1251353625989
 20
8.906997440659603
 30
0.0
 11
41.1251353625989
 21
8.906997440659603
 31
0.0
  0
LINE
  5
B32
330
B1F
100
AcDbEntity
  8
0
 62
     0
100
AcDbLine
 10
35.93126653582054
 20
8.157234404614289
 30
0.0
 11
35.93126653582054
 21
8.157234404614289
 31
0.0
  0
LINE
  5
B33
330
B1F
100
AcDbEntity
  8
0
 62
     0
100
AcDbLine
 10
51.18896936120847
 20
6.922350810039892
 30
0.0
 11
51.18896936120847
 21
6.922350810039892
 31
0.0
  0
LINE
  5
B34
330
B1F
100
AcDbEntity
  8
0
 62
     0
100
AcDbLine
 10
56.38283818798683
 20
7.672113846085202
 30
0.0
 11
56.38283818798683
 21
7.672113846085202
 31
0.0
  0
LINE
  5
B35
330
B1F
100
AcDbEntity
  8
0
 62
     0
100
AcDbLine
 10
61.51720551424336
 20
8.376219774954861
 30
0.0
 11
61.51720551424336
 21
8.376219774954861
 31
0.0
  0
LINE
  5
B36
330
B1F
100
AcDbEntity
  8
0
 62
     0
100
AcDbLine
 10
66.56827073976931
 20
9.016405753778604
 30
0.0
 11
66.56827073976931
 21
9.016405753778604
 31
0.0
  0
LINE
  5
B37
330
B1F
100
AcDbEntity
  8
0
 62
     0
100
AcDbLine
 10
66.4466721865964
 20
5.687467215465489
 30
0.0
 11
66.4466721865964
 21
5.687467215465489
 31
0.0
  0
LINE
  5
B38
330
B1F
100
AcDbEntity
  8
0
 62
     0
100
AcDbLine
 10
41.60598360755195
 20
5.477531656514464
 30
0.0
 11
41.60598360755195
 21
5.477531656514464
 31
0.0
  0
LINE
  5
B39
330
B1F
100
AcDbEntity
  8
0
 62
     0
100
AcDbLine
 10
47.92148737450313
 20
6.308983500956192
 30
0.0
 11
47.92148737450313
 21
6.308983500956192
 31
0.0
  0
LINE
  5
B3A
330
B1F
100
AcDbEntity
  8
0
 62
     0
100
AcDbLine
 10
50.424885649472
 20
6.638562136311822
 30
0.0
 11
50.424885649472
 21
6.638562136311822
 31
0.0
  0
LINE
  5
B3B
330
B1F
100
AcDbEntity
  8
0
 62
     0
100
AcDbLine
 10
54.21220501991996
 20
7.137172190592419
 30
0.0
 11
54.21220501991996
 21
7.137172190592419
 31
0.0
  0
LINE
  5
B3C
330
B1F
100
AcDbEntity
  8
0
 62
     0
100
AcDbLine
 10
60.52770878687113
 20
7.968624035034148
 30
0.0
 11
60.52770878687113
 21
7.968624035034148
 31
0.0
  0
LINE
  5
B3D
330
B1F
100
AcDbEntity
  8
0
 62
     0
100
AcDbLine
 10
63.03110706184
 20
8.298202670389779
 30
0.0
 11
63.03110706184
 21
8.298202670389779
 31
0.0
  0
LINE
  5
B3E
330
B1F
100
AcDbEntity
  8
0
 62
     0
100
AcDbLine
 10
66.81842643228796
 20
8.796812724670376
 30
0.0
 11
66.81842643228796
 21
8.796812724670376
 31
0.0
  0
LINE
  5
B3F
330
B1F
100
AcDbEntity
  8
0
 62
     0
100
AcDbLine
 10
37.94596133655661
 20
8.593460085701838
 30
0.0
 11
37.94596133655661
 21
8.593460085701838
 31
0.0
  0
LINE
  5
B40
330
B1F
100
AcDbEntity
  8
0
 62
     0
100
AcDbLine
 10
40.44935961152549
 20
8.923038721057469
 30
0.0
 11
40.44935961152549
 21
8.923038721057469
 31
0.0
  0
LINE
  5
B41
330
B1F
100
AcDbEntity
  8
0
 62
     0
100
AcDbLine
 10
44.41265898465299
 20
8.388652304236334
 30
0.0
 11
44.41265898465299
 21
8.388652304236334
 31
0.0
  0
LINE
  5
B42
330
B1F
100
AcDbEntity
  8
0
 62
     0
100
AcDbLine
 10
46.5211375991852
 20
7.045403283369274
 30
0.0
 11
46.5211375991852
 21
7.045403283369274
 31
0.0
  0
LINE
  5
B43
330
B1F
100
AcDbEntity
  8
0
 62
     0
100
AcDbLine
 10
49.75088334637709
 20
8.163103586892537
 30
0.0
 11
49.75088334637709
 21
8.163103586892537
 31
0.0
  0
LINE
  5
B44
330
B1F
100
AcDbEntity
  8
0
 62
     0
100
AcDbLine
 10
51.8593619609093
 20
6.819854566025477
 30
0.0
 11
51.8593619609093
 21
6.819854566025477
 31
0.0
  0
LINE
  5
B45
330
B1F
100
AcDbEntity
  8
0
 62
     0
100
AcDbLine
 10
55.08910770810118
 20
7.937554869548741
 30
0.0
 11
55.08910770810118
 21
7.937554869548741
 31
0.0
  0
LINE
  5
B46
330
B1F
100
AcDbEntity
  8
0
 62
     0
100
AcDbLine
 10
57.19758632263339
 20
6.59430584868168
 30
0.0
 11
57.19758632263339
 21
6.59430584868168
 31
0.0
  0
LINE
  5
B47
330
B1F
100
AcDbEntity
  8
0
 62
     0
100
AcDbLine
 10
60.42733206982526
 20
7.712006152204943
 30
0.0
 11
60.42733206982526
 21
7.712006152204943
 31
0.0
  0
LINE
  5
B48
330
B1F
100
AcDbEntity
  8
0
 62
     0
100
AcDbLine
 10
62.53581068435748
 20
6.368757131337883
 30
0.0
 11
62.53581068435748
 21
6.368757131337883
 31
0.0
  0
LINE
  5
B49
330
B1F
100
AcDbEntity
  8
0
 62
     0
100
AcDbLine
 10
65.76555643154936
 20
7.486457434861148
 30
0.0
 11
65.76555643154936
 21
7.486457434861148
 31
0.0
  0
LINE
  5
B4A
330
B1F
100
AcDbEntity
  8
0
 62
     0
100
AcDbLine
 10
39.0744346229289
 20
8.614201021580132
 30
0.0
 11
39.0744346229289
 21
8.614201021580132
 31
0.0
  0
LINE
  5
B4B
330
B1F
100
AcDbEntity
  8
0
 62
     0
100
AcDbLine
 10
41.18291323746112
 20
7.270952000713072
 30
0.0
 11
41.18291323746112
 21
7.270952000713072
 31
0.0
  0
LINE
  5
B4C
330
B1F
100
AcDbEntity
  8
0
 62
     0
100
AcDbLine
 10
33.73621026120481
 20
8.839749738923934
 30
0.0
 11
33.73621026120481
 21
8.839749738923934
 31
0.0
  0
LINE
  5
B4D
330
B1F
100
AcDbEntity
  8
0
 62
     0
100
AcDbLine
 10
35.84468887573703
 20
7.496500718056874
 30
0.0
 11
35.84468887573703
 21
7.496500718056874
 31
0.0
  0
LINE
  5
B4E
330
B1F
100
AcDbEntity
  8
0
 62
     0
100
AcDbLine
 10
43.4248935473909
 20
8.008398586585416
 30
0.0
 11
43.4248935473909
 21
8.008398586585416
 31
0.0
  0
LINE
  5
B4F
330
B1F
100
AcDbEntity
  8
0
 62
     0
100
AcDbLine
 10
45.82104489202381
 20
5.81273041183452
 30
0.0
 11
45.82104489202381
 21
5.81273041183452
 31
0.0
  0
LINE
  5
B50
330
B1F
100
AcDbEntity
  8
0
 62
     0
100
AcDbLine
 10
49.25675524081476
 20
9.009448409908589
 30
0.0
 11
49.25675524081476
 21
9.009448409908589
 31
0.0
  0
LINE
  5
B51
330
B1F
100
AcDbEntity
  8
0
 62
     0
100
AcDbLine
 10
51.65290658544766
 20
6.813780235157693
 30
0.0
 11
51.65290658544766
 21
6.813780235157693
 31
0.0
  0
LINE
  5
B52
330
B1F
100
AcDbEntity
  8
0
 62
     0
100
AcDbLine
 10
57.48476827887152
 20
7.814830058480868
 30
0.0
 11
57.48476827887152
 21
7.814830058480868
 31
0.0
  0
LINE
  5
B53
330
B1F
100
AcDbEntity
  8
0
 62
     0
100
AcDbLine
 10
63.31662997229539
 20
8.815879881804052
 30
0.0
 11
63.31662997229539
 21
8.815879881804052
 31
0.0
  0
LINE
  5
B54
330
B1F
100
AcDbEntity
  8
0
 62
     0
100
AcDbLine
 10
67.13572657697183
 20
5.316322606354932
 30
0.0
 11
67.13572657697183
 21
5.316322606354932
 31
0.0
  0
LINE
  5
B55
330
B1F
100
AcDbEntity
  8
0
 62
     0
100
AcDbLine
 10
37.59303185396703
 20
7.007348763262236
 30
0.0
 11
37.59303185396703
 21
7.007348763262236
 31
0.0
  0
ENDBLK
  5
B57
330
B1F
100
AcDbEntity
  8
0
100
AcDbBlockEnd
  0
BLOCK
  5
1C46
330
1C3C
100
AcDbEntity
  8
0
100
AcDbBlockBegin
  2
SPECSHEET_FLOWARROW
 70
     0
 10
0.0
 20
0.0
 30
0.0
  3
SPECSHEET_FLOWARROW
  1

  0
LINE
  5
1C3D
330
1C3C
100
AcDbEntity
  8
0
100
AcDbLine
 10
-0.3883432548078076
 20
-4.226471473879882
 30
0.0
 11
-0.3883432548079213
 21
-1.384666629104103
 31
0.0
  0
LINE
  5
1C3E
330
1C3C
100
AcDbEntity
  8
0
100
AcDbLine
 10
0.3883432548076939
 20
-4.226471473879882
 30
0.0
 11
0.3883432548077508
 21
-1.384666629103975
 31
0.0
  0
LINE
  5
1C3F
330
1C3C
100
AcDbEntity
  8
0
100
AcDbLine
 10
-0.3883432548079213
 20
-4.226471473879882
 30
0.0
 11
0.3883432548076939
 21
-4.226471473879882
 31
0.0
  0
LINE
  5
1C40
330
1C3C
100
AcDbEntity
  8
0
100
AcDbLine
 10
0.0
 20
0.0
 30
0.0
 11
-1.359203679482106
 21
-1.359203679482106
 31
0.0
  0
LINE
  5
1C41
330
1C3C
100
AcDbEntity
  8
0
100
AcDbLine
 10
-0.3883432548079213
 20
-1.384666629104174
 30
0.0
 11
-1.359203679482106
 21
-2.355527053778388
 31
0.0
  0
LINE
  5
1C42
330
1C3C
100
AcDbEntity
  8
0
100
AcDbLine
 10
-1.359203679482106
 20
-2.355527053778374
 30
0.0
 11
-1.359203679482106
 21
-1.35920367948205
 31
0.0
  0
LINE
  5
1C43
330
1C3C
100
AcDbEntity
  8
0
100
AcDbLine
 10
1.359203679482106
 20
-2.355527053778359
 30
0.0
 11
1.359203679482106
 21
-1.359203679482078
 31
0.0
  0
LINE
  5
1C44
330
1C3C
100
AcDbEntity
  8
0
100
AcDbLine
 10
0.0
 20
0.0
 30
0.0
 11
1.35920367948205
 21
-1.359203679482106
 31
0.0
  0
LINE
  5
1C45
330
1C3C
100
AcDbEntity
  8
0
100
AcDbLine
 10
0.3883432548077508
 20
-1.384666629103989
 30
0.0
 11
1.35920367948205
 21
-2.355527053778317
 31
0.0
  0
ENDBLK
  5
1C47
330
1C3C
100
AcDbEntity
  8
0
100
AcDbBlockEnd
  0
ENDSEC
  0
SECTION
  2
ENTITIES
  0
INSERT
  5
6E
330
1F
100
AcDbEntity
  8
0
100
AcDbBlockReference
  2
MARKINS
 10
64.48765651444775
 20
23.96216098275032
 30
0.0
 41
0.25
 42
0.25
 43
0.25
  0
TEXT
  5
1699
330
1F
100
AcDbEntity
  8
TEXT
100
AcDbText
 10
5.025397313860867
 20
17.20255326109161
 30
0.0
 40
0.349111385859375
  1
ENCLOSURE
  7
ROMANS
 72
     1
 11
6.563149846812876
 21
17.3771089540213
 31
0.0
100
AcDbText
 73
     2
  0
TEXT
  5
169A
330
1F
100
AcDbEntity
  8
TEXT
100
AcDbText
 10
5.042021665568443
 20
17.81963442653782
 30
0.0
 40
0.349111385859375
  1
PROTECTIVE
  7
ROMANS
 72
     1
 11
6.563149846812862
 21
17.99419011946751
 31
0.0
100
AcDbText
 73
     2
  0
LINE
  5
169C
330
1F
100
AcDbEntity
  8
OBJECT1
  6
CONTINUOUS
100
AcDbLine
 10
6.289389192681838
 20
14.28584361275246
 30
0.0
 11
6.104162792081183
 21
14.1006172121518
 31
0.0
  0
LINE
  5
169D
330
1F
100
AcDbEntity
  8
OBJECT2
100
AcDbLine
 10
6.288873475793508
 20
13.90732532281575
 30
0.0
 11
6.098875893844308
 21
14.09732290476496
 31
0.0
  0
ARC
  5
169F
330
1F
100
AcDbEntity
  8
OBJECT1
  6
CONTINUOUS
100
AcDbCircle
 10
6.339846934000831
 20
13.81115747488168
 30
0.0
 40
0.215625
100
AcDbArc
 50
236.897506835771
 51
320.2367693756052
  0
LINE
  5
16A0
330
1F
100
AcDbEntity
  8
OBJECT1
100
AcDbLine
 10
3.035957293761128
 20
16.08031941574357
 30
0.0
 11
10.90400609316942
 21
16.08031941574357
 31
0.0
  0
LINE
  5
16A1
330
1F
100
AcDbEntity
  8
OBJECT1
100
AcDbLine
 10
9.360733610476415
 20
9.800878413312236
 30
0.0
 11
4.65409182559226
 21
9.800878413312236
 31
0.0
  0
TEXT
  5
16A2
330
1F
100
AcDbEntity
  8
TEXT
100
AcDbText
 10
3.735251959848723
 20
4.395066296387899
 30
0.0
 40
0.28125
  1
OUTDOOR HORIZONTAL INSTALLATION
  7
ROMANS
 72
     1
 11
7.612484102705863
 21
4.535691296387899
 31
0.0
100
AcDbText
 73
     2
  0
TEXT
  5
16A3
330
1F
100
AcDbEntity
  8
TEXT
100
AcDbText
 10
4.029894816991573
 20
4.869459158484618
 30
0.0
 40
0.28125
  1
DOUBLE CHECK VALVE ASSEMBLY
  7
ROMANS
 72
     1
 11
7.639269816991571
 21
5.010084158484618
 31
0.0
100
AcDbText
 73
     2
  0
TEXT
  5
16A4
330
1F
100
AcDbEntity
  8
TEXT
100
AcDbText
 10
1.974091245562989
 20
5.389922498125017
 30
0.0
 40
0.5625
  1
WILKINS MODEL 950XLOSY
  7
ROMANS
 72
     1
 11
7.639269816991557
 21
5.671172498125017
 31
0.0
100
AcDbText
 73
     2
  0
LINE
  5
16A5
330
1F
100
AcDbEntity
  8
OBJECT2
100
AcDbLine
 10
14.17179896666374
 20
11.0316845633348
 30
0.0
 11
14.17179896666374
 21
9.800878413312243
 31
0.0
  0
LINE
  5
16A6
330
1F
100
AcDbEntity
  8
OBJECT1
100
AcDbLine
 10
11.02037655512253
 20
10.04015377139807
 30
0.0
 11
11.02037655512253
 21
16.18092606577366
 31
0.0
  0
LINE
  5
16A7
330
1F
100
AcDbEntity
  8
OBJECT1
100
AcDbLine
 10
10.90400609316942
 20
16.08031941574357
 30
0.0
 11
10.90400609316941
 21
9.807412847491828
 31
0.0
  0
LINE
  5
16A8
330
1F
100
AcDbEntity
  8
OBJECT1
100
AcDbLine
 10
9.360733610476415
 20
13.25979773756507
 30
0.0
 11
9.360733610476415
 21
8.634984082022594
 31
0.0
  0
LINE
  5
16A9
330
1F
100
AcDbEntity
  8
OBJECT1
100
AcDbLine
 10
9.825732288130893
 20
13.25982613195779
 30
0.0
 11
9.825732288130893
 21
8.634984082022594
 31
0.0
  0
LINE
  5
16AA
102
{ACAD_REACTORS
330
1C5C
102
}
330
1F
100
AcDbEntity
  8
OBJECT1
100
AcDbLine
 10
10.90400609316941
 20
8.941586645687415
 30
0.0
 11
12.39237936648021
 21
8.941586645687415
 31
0.0
  0
LINE
  5
16AB
330
1F
100
AcDbEntity
  8
OBJECT1
100
AcDbLine
 10
14.68403201405808
 20
9.800878413312236
 30
0.0
 11
12.39237936648021
 21
9.800878413312236
 31
0.0
  0
LINE
  5
16AC
102
{ACAD_REACTORS
330
1C5C
102
}
330
1F
100
AcDbEntity
  8
OBJECT1
100
AcDbLine
 10
12.39237936648021
 20
9.800878413312236
 30
0.0
 11
12.39237936648021
 21
8.941586645687415
 31
0.0
  0
LINE
  5
16AD
330
1F
100
AcDbEntity
  8
OBJECT2
100
AcDbLine
 10
14.06854966922532
 20
10.25608900905166
 30
0.0
 11
14.17179896666374
 21
9.800878413312243
 31
0.0
  0
LINE
  5
16AE
330
1F
100
AcDbEntity
  8
OBJECT2
100
AcDbLine
 10
14.17179896666374
 20
9.800878413312236
 30
0.0
 11
14.27504826410213
 21
10.25608900905166
 31
0.0
  0
LINE
  5
16AF
330
1F
100
AcDbEntity
  8
OBJECT2
100
AcDbLine
 10
14.27504826410213
 20
10.25608900905166
 30
0.0
 11
14.06854966922532
 21
10.25608900905166
 31
0.0
  0
LINE
  5
16B0
330
1F
100
AcDbEntity
  8
OBJECT1
100
AcDbLine
 10
9.299764332568088
 20
8.504209284288911
 30
0.0
 11
9.299764332568088
 21
8.434617420631703
 31
0.0
  0
LINE
  5
16B1
330
1F
100
AcDbEntity
  8
OBJECT1
100
AcDbLine
 10
9.886787214699225
 20
8.504209284288911
 30
0.0
 11
9.886815609091925
 21
8.434631385087136
 31
0.0
  0
LINE
  5
16B2
330
1F
100
AcDbEntity
  8
OBJECT1
100
AcDbLine
 10
11.5585845491158
 20
8.262377034413034
 30
0.0
 11
10.18677630115894
 21
8.262390998868468
 31
0.0
  0
LINE
  5
16B3
330
1F
100
AcDbEntity
  8
OBJECT1
100
AcDbLine
 10
11.55872652107939
 20
7.797321102491284
 30
0.0
 11
10.18677630115894
 21
7.797321102491284
 31
0.0
  0
LINE
  5
16B4
330
1F
100
AcDbEntity
  8
OBJECT2
100
AcDbLine
 10
11.51559916239772
 20
7.945426720382723
 30
0.0
 11
11.51559916239772
 21
7.885266915407736
 31
0.0
  0
LINE
  5
16B5
330
1F
100
AcDbEntity
  8
OBJECT1
100
AcDbLine
 10
11.63353178143209
 20
7.829880161300227
 30
0.0
 11
11.67844938330045
 21
7.91191621667685
 31
0.0
  0
LINE
  5
16B6
330
1F
100
AcDbEntity
  8
OBJECT1
100
AcDbLine
 10
11.55869812668667
 20
7.797349496884002
 30
0.0
 11
11.63353178143209
 21
7.829880161300227
 31
0.0
  0
LINE
  5
16B7
330
1F
100
AcDbEntity
  8
OBJECT2
100
AcDbLine
 10
11.51559916239772
 20
7.885266915407736
 30
0.0
 11
11.55869812668667
 21
7.797349496884002
 31
0.0
  0
LINE
  5
16B8
330
1F
100
AcDbEntity
  8
OBJECT1
100
AcDbLine
 10
11.63353178143209
 20
8.229804011148658
 30
0.0
 11
11.67844938330045
 21
8.147767955772032
 31
0.0
  0
LINE
  5
16B9
330
1F
100
AcDbEntity
  8
OBJECT2
100
AcDbLine
 10
11.57176699504586
 20
8.021993364047553
 30
0.0
 11
11.51559916239772
 21
7.945426720382723
 31
0.0
  0
LINE
  5
16BA
330
1F
100
AcDbEntity
  8
OBJECT1
100
AcDbLine
 10
11.67844938330045
 20
7.989179221186006
 30
0.0
 11
11.64475408330102
 21
8.065731900395405
 31
0.0
  0
LINE
  5
16BB
330
1F
100
AcDbEntity
  8
OBJECT1
100
AcDbLine
 10
11.67844938330045
 20
7.91191621667685
 30
0.0
 11
11.67844938330045
 21
7.989179221186006
 31
0.0
  0
LINE
  5
16BC
330
1F
100
AcDbEntity
  8
OBJECT2
100
AcDbLine
 10
11.64475408330102
 20
8.065731900395405
 30
0.0
 11
11.57176699504586
 21
8.021993364047553
 31
0.0
  0
LINE
  5
16BD
330
1F
100
AcDbEntity
  8
OBJECT1
100
AcDbLine
 10
11.67844938330045
 20
8.147767955772032
 30
0.0
 11
11.64475408330102
 21
8.065731900395405
 31
0.0
  0
LINE
  5
16BE
330
1F
100
AcDbEntity
  8
OBJECT1
100
AcDbLine
 10
11.55869812668667
 20
8.262334210083036
 30
0.0
 11
11.63353178143209
 21
8.229804011148658
 31
0.0
  0
LINE
  5
16BF
330
1F
100
AcDbEntity
  8
OBJECT2
100
AcDbLine
 10
10.07043423359853
 20
8.337807436887356
 30
0.0
 11
10.07040583920581
 21
7.721919094409678
 31
0.0
  0
LINE
  5
16C0
330
1F
100
AcDbEntity
  8
OBJECT2
100
AcDbLine
 10
10.256610215377
 20
7.797321102491284
 30
0.0
 11
10.25658182098428
 21
8.262362604475754
 31
0.0
  0
LINE
  5
16C1
330
1F
100
AcDbEntity
  8
OBJECT2
100
AcDbLine
 10
10.18677630115894
 20
8.262362604475754
 30
0.0
 11
10.18677630115894
 21
7.797321102491284
 31
0.0
  0
LINE
  5
16C2
330
1F
100
AcDbEntity
  8
OBJECT2
100
AcDbLine
 10
10.29149854535241
 20
7.842011549217918
 30
0.0
 11
10.29149854535241
 21
8.217686587686404
 31
0.0
  0
LINE
  5
16C3
330
1F
100
AcDbEntity
  8
OBJECT2
100
AcDbLine
 10
10.22172188540162
 20
7.842011549217918
 30
0.0
 11
10.22172188540162
 21
8.217686587686404
 31
0.0
  0
ARC
  5
16C4
330
1F
100
AcDbEntity
  8
OBJECT1
100
AcDbCircle
 10
9.998020618979879
 20
8.434608110994748
 30
0.0
 40
0.6982562864117924
100
AcDbArc
 50
179.9992709999999
 51
269.9995729999999
  0
LINE
  5
16C5
330
1F
100
AcDbEntity
  8
OBJECT1
100
AcDbLine
 10
10.05597310903253
 20
7.736351824582953
 30
0.0
 11
9.998015498679563
 21
7.736351824582953
 31
0.0
  0
ARC
  5
16C6
330
1F
100
AcDbEntity
  8
OBJECT1
100
AcDbCircle
 10
10.05597683288732
 20
7.721922352782616
 30
0.0
 40
0.0144294718003397
100
AcDbArc
 50
359.987656
 51
90.01409899999989
  0
LINE
  5
16C7
330
1F
100
AcDbEntity
  8
OBJECT1
100
AcDbLine
 10
10.07040583920581
 20
7.7184670810263
 30
0.0
 11
10.07040583920581
 21
7.721919094409678
 31
0.0
  0
ARC
  5
16C8
330
1F
100
AcDbEntity
  8
OBJECT1
100
AcDbCircle
 10
10.08483484552431
 20
7.718491751564236
 30
0.0
 40
0.0144285408366441
100
AcDbArc
 50
180.0969539999999
 51
270.0140989999998
  0
LINE
  5
16C9
330
1F
100
AcDbEntity
  8
OBJECT1
100
AcDbLine
 10
10.18677630115894
 20
7.797321102491284
 30
0.0
 11
10.18677630115894
 21
7.718481510963584
 31
0.0
  0
ARC
  5
16CA
330
1F
100
AcDbEntity
  8
OBJECT1
100
AcDbCircle
 10
10.17229748828272
 20
7.718526197220974
 30
0.0
 40
0.0144774164306644
100
AcDbArc
 50
270.182709
 51
359.8225709999999
  0
LINE
  5
16CB
330
1F
100
AcDbEntity
  8
OBJECT1
100
AcDbLine
 10
10.08483856937908
 20
7.704063210727593
 30
0.0
 11
10.17234357098567
 21
7.704048780790309
 31
0.0
  0
LINE
  5
16CC
330
1F
100
AcDbEntity
  8
OBJECT1
100
AcDbLine
 10
10.05597310903253
 20
8.323403101106796
 30
0.0
 11
9.998072287464992
 21
8.32337470671408
 31
0.0
  0
ARC
  5
16CD
330
1F
100
AcDbEntity
  8
OBJECT1
100
AcDbCircle
 10
10.05600522728004
 20
8.337832107425288
 30
0.0
 40
0.0144285408366441
100
AcDbArc
 50
269.8730770000001
 51
359.903046
  0
LINE
  5
16CE
330
1F
100
AcDbEntity
  8
OBJECT1
100
AcDbLine
 10
10.07043423359853
 20
8.341259450270733
 30
0.0
 11
10.07043423359853
 21
8.337807436887356
 31
0.0
  0
ARC
  5
16CF
330
1F
100
AcDbEntity
  8
OBJECT1
100
AcDbCircle
 10
10.08481389884116
 20
8.341297619782253
 30
0.0
 40
0.0143801307244716
100
AcDbArc
 50
89.90094799999999
 51
180.1521300000002
  0
LINE
  5
16D0
330
1F
100
AcDbEntity
  8
OBJECT1
100
AcDbLine
 10
10.18677630115894
 20
8.262305815690318
 30
0.0
 11
10.18677630115894
 21
8.341259450270733
 31
0.0
  0
ARC
  5
16D1
330
1F
100
AcDbEntity
  8
OBJECT1
100
AcDbCircle
 10
10.17241665163577
 20
8.341346029894424
 30
0.0
 40
0.0143321860941469
100
AcDbArc
 50
359.8242949999999
 51
90.17746700000008
  0
LINE
  5
16D2
330
1F
100
AcDbEntity
  8
OBJECT1
100
AcDbLine
 10
10.08483856937908
 20
8.355677750506721
 30
0.0
 11
10.17237196537837
 21
8.355677750506721
 31
0.0
  0
ARC
  5
16D3
330
1F
100
AcDbEntity
  8
OBJECT1
100
AcDbCircle
 10
9.998075545837934
 20
8.434633712496374
 30
0.0
 40
0.1112585403004481
100
AcDbArc
 50
180.001129
 51
269.9981690000001
  0
ARC
  5
16D4
330
1F
100
AcDbEntity
  8
OBJECT1
100
AcDbCircle
 10
9.281940101651656
 20
8.533105000955567
 30
0.0
 40
0.0144788128762078
100
AcDbArc
 50
180.2880859999999
 51
269.8172909999999
  0
ARC
  5
16D5
330
1F
100
AcDbEntity
  8
OBJECT1
100
AcDbCircle
 10
9.281962910262194
 20
8.620481995053996
 30
0.0
 40
0.0145020869685985
100
AcDbArc
 50
90.27359799999981
 51
179.7825200000001
  0
LINE
  5
16D6
102
{ACAD_REACTORS
330
1C5C
102
}
330
1F
100
AcDbEntity
  8
OBJECT1
100
AcDbLine
 10
10.90400609316941
 20
8.941586645687415
 30
0.0
 11
10.90400609316941
 21
9.807412847491828
 31
0.0
  0
LINE
  5
16D7
330
1F
100
AcDbEntity
  8
OBJECT2
100
AcDbLine
 10
9.825775112460888
 20
8.704817996240663
 30
0.0
 11
9.360733610476415
 21
8.704789601847942
 31
0.0
  0
LINE
  5
16D8
330
1F
100
AcDbEntity
  8
OBJECT2
100
AcDbLine
 10
9.781084665734255
 20
8.669929666265268
 30
0.0
 11
9.405409627265768
 21
8.669929666265268
 31
0.0
  0
LINE
  5
16D9
330
1F
100
AcDbEntity
  8
OBJECT2
100
AcDbLine
 10
9.360733610476415
 20
8.634984082022594
 30
0.0
 11
9.825775112460888
 21
8.634984082022594
 31
0.0
  0
LINE
  5
16DA
330
1F
100
AcDbEntity
  8
OBJECT2
100
AcDbLine
 10
9.900623197143602
 20
8.518613620069467
 30
0.0
 11
9.281893553466858
 21
8.51862805000675
 31
0.0
  0
LINE
  5
16DB
330
1F
100
AcDbEntity
  8
OBJECT1
100
AcDbLine
 10
9.919147047277306
 20
8.533031920305461
 30
0.0
 11
9.919147047277306
 21
8.620565781786602
 31
0.0
  0
ARC
  5
16DC
330
1F
100
AcDbEntity
  8
OBJECT1
100
AcDbCircle
 10
9.901264165648029
 20
8.504165063513369
 30
0.0
 40
0.0144769509488166
100
AcDbArc
 50
90.17568999999983
 51
179.8243109999999
  0
LINE
  5
16DD
330
1F
100
AcDbEntity
  8
OBJECT1
100
AcDbLine
 10
9.904714317104023
 20
8.51862805000675
 30
0.0
 11
9.901219944872494
 21
8.518642014462184
 31
0.0
  0
ARC
  5
16DE
330
1F
100
AcDbEntity
  8
OBJECT1
100
AcDbCircle
 10
9.904597015678376
 20
8.533179012569366
 30
0.0
 40
0.014550497080771
100
AcDbArc
 50
270.4614560000001
 51
359.421402
  0
LINE
  5
16DF
330
1F
100
AcDbEntity
  8
OBJECT1
100
AcDbLine
 10
9.825732288130893
 20
8.634984082022594
 30
0.0
 11
9.90465752831858
 21
8.634984082022594
 31
0.0
  0
ARC
  5
16E0
330
1F
100
AcDbEntity
  8
OBJECT1
100
AcDbCircle
 10
9.904593757305434
 20
8.620460582888995
 30
0.0
 40
0.0145537554537056
100
AcDbArc
 50
0.4141850000000411
 51
89.63645200000003
  0
LINE
  5
16E1
330
1F
100
AcDbEntity
  8
OBJECT1
100
AcDbLine
 10
9.26746128877545
 20
8.533031920305461
 30
0.0
 11
9.26746128877545
 21
8.620537387393884
 31
0.0
  0
ARC
  5
16E2
330
1F
100
AcDbEntity
  8
OBJECT1
100
AcDbCircle
 10
9.285310190229807
 20
8.504174373150323
 30
0.0
 40
0.0144541423382738
100
AcDbArc
 50
0.1390229999999264
 51
89.80291000000002
  0
LINE
  5
16E3
330
1F
100
AcDbEntity
  8
OBJECT1
100
AcDbLine
 10
9.281893553466858
 20
8.51862805000675
 30
0.0
 11
9.285359996787533
 21
8.51862805000675
 31
0.0
  0
LINE
  5
16E4
330
1F
100
AcDbEntity
  8
OBJECT1
100
AcDbLine
 10
9.360733610476415
 20
8.634984082022594
 30
0.0
 11
9.281893553466858
 21
8.634984082022594
 31
0.0
  0
LINE
  5
16E5
330
1F
100
AcDbEntity
  8
OBJECT2
100
AcDbLine
 10
9.781084665734255
 20
8.739706326216058
 30
0.0
 11
9.405409627265768
 21
8.739706326216058
 31
0.0
  0
LINE
  5
16E6
330
1F
100
AcDbEntity
  8
OBJECT1
100
AcDbLine
 10
11.02037655512253
 20
10.04015377139807
 30
0.0
 11
11.79243871235978
 21
10.04015377139807
 31
0.0
  0
LINE
  5
16E7
330
1F
100
AcDbEntity
  8
OBJECT1
100
AcDbLine
 10
11.79243871235978
 20
10.04015377139807
 30
0.0
 11
11.79243871235978
 21
9.800878413312236
 31
0.0
  0
LINE
  5
16E8
330
1F
100
AcDbEntity
  8
OBJECT2
100
AcDbLine
 10
7.791137271096985
 20
15.15812525057827
 30
0.0
 11
7.791137271096985
 21
14.83937525057828
 31
0.0
  0
LINE
  5
16E9
330
1F
100
AcDbEntity
  8
OBJECT1
100
AcDbLine
 10
7.748949771096988
 20
15.15812525057827
 30
0.0
 11
7.748949771096988
 21
14.83937525057827
 31
0.0
  0
LINE
  5
16EA
330
1F
100
AcDbEntity
  8
OBJECT1
100
AcDbLine
 10
8.138949771096989
 20
15.16412525057828
 30
0.0
 11
8.138949771096989
 21
14.96125025057827
 31
0.0
  0
LINE
  5
16EB
330
1F
100
AcDbEntity
  8
OBJECT1
100
AcDbLine
 10
8.015199771096988
 20
15.16412525057828
 30
0.0
 11
8.015199771096988
 21
14.96125025057827
 31
0.0
  0
LINE
  5
16EC
330
1F
100
AcDbEntity
  8
OBJECT2
100
AcDbLine
 10
8.363012271096991
 20
15.15812525057827
 30
0.0
 11
8.363012271096991
 21
14.83937525057828
 31
0.0
  0
LINE
  5
16ED
330
1F
100
AcDbEntity
  8
OBJECT1
100
AcDbLine
 10
8.330199771096985
 20
15.15812525057827
 30
0.0
 11
8.330199771096985
 21
14.83937525057828
 31
0.0
  0
LINE
  5
16EE
330
1F
100
AcDbEntity
  8
OBJECT1
100
AcDbLine
 10
8.405199771096988
 20
15.15812525057827
 30
0.0
 11
8.405199771096988
 21
14.83937525057828
 31
0.0
  0
LINE
  5
16EF
330
1F
100
AcDbEntity
  8
OBJECT1
100
AcDbLine
 10
7.823949771096977
 20
15.15812525057827
 30
0.0
 11
7.823949771096991
 21
14.83937525057827
 31
0.0
  0
LINE
  5
16F0
330
1F
100
AcDbEntity
  8
OBJECT2
100
AcDbLine
 10
14.63728081447624
 20
13.03192105122553
 30
0.0
 11
7.511396659580725
 21
13.0319850549796
 31
0.0
  0
LINE
  5
16F1
330
1F
100
AcDbEntity
  8
OBJECT2
100
AcDbLine
 10
14.06875591871983
 20
12.57725803039232
 30
0.0
 11
14.17200521615824
 21
13.03246862613174
 31
0.0
  0
LINE
  5
16F2
330
1F
100
AcDbEntity
  8
OBJECT2
100
AcDbLine
 10
14.17179896666374
 20
13.03337794907724
 30
0.0
 11
14.17179896666374
 21
11.99505417342723
 31
0.0
  0
LINE
  5
16F3
330
1F
100
AcDbEntity
  8
OBJECT2
100
AcDbLine
 10
14.17200521615824
 20
13.03246862613174
 30
0.0
 11
14.27525451359665
 21
12.57725803039232
 31
0.0
  0
TEXT
  5
16F4
330
1F
100
AcDbEntity
  8
TEXT
100
AcDbText
 10
12.97875014183527
 20
11.13572663761352
 30
0.0
 40
0.349111385859375
  1
30" MAX.
  7
ROMANS
 72
     1
 11
14.19232781648929
 21
11.31028233054321
 31
0.0
100
AcDbText
 73
     2
  0
TEXT
  5
16F5
330
1F
100
AcDbEntity
  8
TEXT
100
AcDbText
 10
13.1200571313498
 20
11.6461786367069
 30
0.0
 40
0.349111385859375
  1
12" MIN.
  7
ROMANS
 72
     1
 11
14.29207392673484
 21
11.82073432963659
 31
0.0
100
AcDbText
 73
     2
  0
LINE
  5
16F6
330
1F
100
AcDbEntity
  8
OBJECT2
100
AcDbLine
 10
14.27525451359665
 20
12.57725803039232
 30
0.0
 11
14.06875591871983
 21
12.57725803039232
 31
0.0
  0
ARC
  5
16F7
330
1F
100
AcDbEntity
  8
OBJECT1
100
AcDbCircle
 10
9.188392214696776
 20
13.46017650148401
 30
0.0
 40
0.1112590057822959
100
AcDbArc
 50
0.0013729999999399
 51
89.99908400000013
  0
ARC
  5
16F8
330
1F
100
AcDbEntity
  8
OBJECT1
100
AcDbCircle
 10
9.281868882928947
 20
13.2743487001277
 30
0.0
 40
0.0145500315989231
100
AcDbArc
 50
180.409058
 51
269.6503910000002
  0
ARC
  5
16F9
330
1F
100
AcDbEntity
  8
OBJECT1
100
AcDbCircle
 10
9.281868882928947
 20
13.36163120141102
 30
0.0
 40
0.014550497080771
100
AcDbArc
 50
90.46144899999989
 51
179.4213979999999
  0
ARC
  5
16FA
330
1F
100
AcDbEntity
  8
OBJECT1
100
AcDbCircle
 10
9.188447141554831
 20
13.4602016375038
 30
0.0
 40
0.6982567518936404
100
AcDbArc
 50
359.9993129999999
 51
89.99971000000014
  0
ARC
  5
16FB
330
1F
100
AcDbEntity
  8
OBJECT1
100
AcDbCircle
 10
9.285201732959279
 20
13.39064561594887
 30
0.0
 40
0.0144769509488166
100
AcDbArc
 50
270.1756899999998
 51
359.8225559999999
  0
ARC
  5
16FC
330
1F
100
AcDbEntity
  8
OBJECT1
100
AcDbCircle
 10
9.901154311931946
 20
13.39063584083006
 30
0.0
 40
0.0144522804108825
100
AcDbArc
 50
180.137268
 51
269.8099369999999
  0
LINE
  5
16FD
330
1F
100
AcDbEntity
  8
OBJECT2
100
AcDbLine
 10
9.825775112460888
 20
13.25979773756507
 30
0.0
 11
9.360733610476415
 21
13.25979773756507
 31
0.0
  0
LINE
  5
16FE
330
1F
100
AcDbEntity
  8
OBJECT2
100
AcDbLine
 10
9.360733610476415
 20
13.18996382334701
 30
0.0
 11
9.825775112460888
 21
13.18999221773973
 31
0.0
  0
LINE
  5
16FF
330
1F
100
AcDbEntity
  8
OBJECT2
100
AcDbLine
 10
9.405424057203049
 20
13.22485215332241
 30
0.0
 11
9.78109909567155
 21
13.22485215332241
 31
0.0
  0
LINE
  5
1700
330
1F
100
AcDbEntity
  8
OBJECT2
100
AcDbLine
 10
9.285842701463707
 20
13.37619659391092
 30
0.0
 11
9.904572345140437
 21
13.37618262945548
 31
0.0
  0
LINE
  5
1701
330
1F
100
AcDbEntity
  8
OBJECT2
100
AcDbLine
 10
9.405424057203049
 20
13.15507549337161
 30
0.0
 11
9.78109909567155
 21
13.15507549337161
 31
0.0
  0
LINE
  5
1702
330
1F
100
AcDbEntity
  8
OBJECT1
100
AcDbLine
 10
9.825732288130893
 20
13.25982613195779
 30
0.0
 11
9.904572345140437
 21
13.25982613195779
 31
0.0
  0
ARC
  5
1703
330
1F
100
AcDbEntity
  8
OBJECT1
100
AcDbCircle
 10
9.904504850272502
 20
13.27432682248085
 30
0.0
 40
0.0145002250412072
100
AcDbArc
 50
270.2666020000001
 51
359.78775
  0
LINE
  5
1704
330
1F
100
AcDbEntity
  8
OBJECT1
100
AcDbLine
 10
9.919005075313705
 20
13.36177829367493
 30
0.0
 11
9.919005075313705
 21
13.27427329206835
 31
0.0
  0
LINE
  5
1705
330
1F
100
AcDbEntity
  8
OBJECT1
100
AcDbLine
 10
9.904572345140437
 20
13.37618262945548
 30
0.0
 11
9.901106367301622
 21
13.37618262945548
 31
0.0
  0
ARC
  5
1706
330
1F
100
AcDbEntity
  8
OBJECT1
100
AcDbCircle
 10
9.904526262437499
 20
13.36170474754297
 30
0.0
 40
0.0144788128762078
100
AcDbArc
 50
0.2916110000000741
 51
89.81729099999997
  0
LINE
  5
1707
330
1F
100
AcDbEntity
  8
OBJECT1
100
AcDbLine
 10
9.360733610476415
 20
13.25982613195779
 30
0.0
 11
9.281808370288729
 21
13.25982613195779
 31
0.0
  0
LINE
  5
1708
330
1F
100
AcDbEntity
  8
OBJECT1
100
AcDbLine
 10
9.267318851330017
 20
13.36177829367493
 30
0.0
 11
9.267318851330017
 21
13.27424489767563
 31
0.0
  0
LINE
  5
1709
330
1F
100
AcDbEntity
  8
OBJECT1
100
AcDbLine
 10
9.2817515815033
 20
13.37618262945548
 30
0.0
 11
9.285246419216662
 21
13.3761681995182
 31
0.0
  0
LINE
  5
170A
330
1F
100
AcDbEntity
  8
OBJECT1
100
AcDbLine
 10
9.886702031521068
 20
13.39060092969148
 30
0.0
 11
9.886702031521068
 21
13.46019325883053
 31
0.0
  0
LINE
  5
170B
330
1F
100
AcDbEntity
  8
OBJECT1
100
AcDbLine
 10
9.29967914938993
 20
13.39060092969148
 30
0.0
 11
9.299650289515369
 21
13.46017882889325
 31
0.0
  0
LINE
  5
1715
330
1F
100
AcDbEntity
  8
OBJECT2
100
AcDbLine
 10
7.734991240427916
 20
13.75499601778677
 30
0.0
 11
7.734987887799718
 21
13.97437101776119
 31
0.0
  0
LINE
  5
1716
330
1F
100
AcDbEntity
  8
OBJECT2
100
AcDbLine
 10
7.603735240037792
 20
13.75499601778677
 30
0.0
 11
7.60373859266599
 21
13.97437101776119
 31
0.0
  0
LINE
  5
1717
330
1F
100
AcDbEntity
  8
OBJECT2
100
AcDbLine
 10
8.211415278441052
 20
14.27747373338735
 30
0.0
 11
8.211415278441052
 21
13.88008003121828
 31
0.0
  0
LINE
  5
1718
330
1F
100
AcDbEntity
  8
OBJECT2
100
AcDbLine
 10
8.264574771096988
 20
14.03540320969388
 30
0.0
 11
8.245832242299869
 21
13.92211056015535
 31
0.0
  0
LINE
  5
1719
330
1F
100
AcDbEntity
  8
OBJECT2
100
AcDbLine
 10
7.942734263752939
 20
14.27747373338735
 30
0.0
 11
7.942734263752939
 21
13.88008003121828
 31
0.0
  0
LINE
  5
171A
330
1F
100
AcDbEntity
  8
OBJECT2
100
AcDbLine
 10
7.889574771096988
 20
14.03540320969388
 30
0.0
 11
7.908317299894108
 21
13.92211056015535
 31
0.0
  0
LINE
  5
171B
330
1F
100
AcDbEntity
  8
OBJECT2
100
AcDbLine
 10
8.339582242299869
 20
14.03540320969388
 30
0.0
 11
8.358324771096988
 21
13.92211056015535
 31
0.0
  0
LINE
  5
171C
330
1F
100
AcDbEntity
  8
OBJECT2
100
AcDbLine
 10
7.814567299894108
 20
14.03540320969388
 30
0.0
 11
7.795824771096988
 21
13.92211056015535
 31
0.0
  0
LINE
  5
171D
330
1F
100
AcDbEntity
  8
OBJECT2
100
AcDbLine
 10
8.462989761023166
 20
13.67696978600432
 30
0.0
 11
8.462961366630437
 21
14.05264482447281
 31
0.0
  0
LINE
  5
171E
330
1F
100
AcDbEntity
  8
OBJECT2
100
AcDbLine
 10
8.393213101072376
 20
13.67699818039703
 30
0.0
 11
8.393213101072376
 21
14.05267321886552
 31
0.0
  0
LINE
  5
171F
330
1F
100
AcDbEntity
  8
OBJECT2
100
AcDbLine
 10
8.428101431047778
 20
13.6323077336704
 30
0.0
 11
8.428101431047778
 21
14.09733527119944
 31
0.0
  0
LINE
  5
1720
330
1F
100
AcDbEntity
  8
OBJECT2
100
AcDbLine
 10
8.358324771096988
 20
13.63314139649048
 30
0.0
 11
8.358324771096988
 21
14.09833365472829
 31
0.0
  0
LINE
  5
1721
330
1F
100
AcDbEntity
  8
OBJECT2
100
AcDbLine
 10
8.964744013205688
 20
14.05282705915519
 30
0.0
 11
8.964744013205688
 21
13.6771520206867
 31
0.0
  0
LINE
  5
1722
330
1F
100
AcDbEntity
  8
OBJECT2
100
AcDbLine
 10
8.894967353254898
 20
14.05282705915519
 30
0.0
 11
8.894967353254898
 21
13.6771520206867
 31
0.0
  0
LINE
  5
1723
330
1F
100
AcDbEntity
  8
OBJECT2
100
AcDbLine
 10
8.9298556832303
 20
14.09751750588182
 30
0.0
 11
8.929884077623029
 21
13.63247600389736
 31
0.0
  0
LINE
  5
1724
330
1F
100
AcDbEntity
  8
OBJECT2
100
AcDbLine
 10
8.999689597448366
 20
14.09748911148911
 30
0.0
 11
8.999689597448366
 21
13.63250439829007
 31
0.0
  0
LINE
  5
1725
330
1F
100
AcDbEntity
  8
OBJECT2
100
AcDbLine
 10
9.116031665008776
 20
13.55700277709304
 30
0.0
 11
9.11606005940149
 21
14.17289111957071
 31
0.0
  0
LINE
  5
1726
330
1F
100
AcDbEntity
  8
OBJECT2
100
AcDbLine
 10
7.13329369604429
 20
14.11681765206519
 30
0.0
 11
6.675088620452868
 21
13.65861257647377
 31
0.0
  0
LINE
  5
1727
330
1F
100
AcDbEntity
  8
OBJECT2
100
AcDbLine
 10
7.795759926442542
 20
14.09779470054446
 30
0.0
 11
7.795889597946285
 21
13.63279464652329
 31
0.0
  0
LINE
  5
1728
330
1F
100
AcDbEntity
  8
OBJECT2
100
AcDbLine
 10
7.780120364083302
 20
14.07732468741352
 30
0.0
 11
7.780120364083302
 21
13.65222607409879
 31
0.0
  0
LINE
  5
1729
330
1F
100
AcDbEntity
  8
OBJECT2
100
AcDbLine
 10
7.795824771096988
 20
14.0977946825216
 30
0.0
 11
7.795954589843404
 21
13.63226661845982
 31
0.0
  0
LINE
  5
172A
330
1F
100
AcDbEntity
  8
OBJECT2
100
AcDbLine
 10
7.764534428263345
 20
14.09727540776673
 30
0.0
 11
7.764404756759603
 21
13.63227535374558
 31
0.0
  0
LINE
  5
172B
330
1F
100
AcDbEntity
  8
OBJECT1
  6
CONTINUOUS
100
AcDbLine
 10
7.795889762994107
 20
13.63279468261984
 30
0.0
 11
7.64330853086831
 21
13.63275226270231
 31
0.0
  0
LINE
  5
172C
330
1F
100
AcDbEntity
  8
OBJECT1
100
AcDbLine
 10
8.999689597448366
 20
13.63250439829007
 30
0.0
 11
8.358324771096988
 21
13.63250439829007
 31
0.0
  0
ARC
  5
172D
330
1F
100
AcDbEntity
  8
OBJECT1
100
AcDbCircle
 10
9.101652465248008
 20
13.55351259419814
 30
0.0
 40
0.0143801307244716
100
AcDbArc
 50
269.90094
 51
0.1521150000000909
  0
ARC
  5
172E
330
1F
100
AcDbEntity
  8
OBJECT1
100
AcDbCircle
 10
9.014051574380772
 20
13.55346464956781
 30
0.0
 40
0.0143321860941469
100
AcDbArc
 50
179.826097
 51
270.1703490000001
  0
LINE
  5
172F
330
1F
100
AcDbEntity
  8
OBJECT1
100
AcDbLine
 10
9.101627329228222
 20
13.53913246347367
 30
0.0
 11
9.014093933228934
 21
13.53913246347367
 31
0.0
  0
ARC
  5
1730
330
1F
100
AcDbEntity
  8
OBJECT1
100
AcDbCircle
 10
9.130459274881729
 20
13.55697857203695
 30
0.0
 40
0.0144285408366441
100
AcDbArc
 50
89.86602800000012
 51
179.9030379999999
  0
LINE
  5
1731
330
1F
100
AcDbEntity
  8
OBJECT1
100
AcDbLine
 10
9.116031665008776
 20
13.55355076370966
 30
0.0
 11
9.116031665008776
 21
13.55700277709304
 31
0.0
  0
LINE
  5
1732
330
1F
100
AcDbEntity
  8
OBJECT1
100
AcDbLine
 10
8.999689597448366
 20
13.63250439829007
 30
0.0
 11
8.999689597448366
 21
13.55355076370966
 31
0.0
  0
LINE
  5
1733
330
1F
100
AcDbEntity
  8
OBJECT1
100
AcDbLine
 10
9.130492789574773
 20
13.57140711287359
 30
0.0
 11
9.188394076624163
 21
13.5714355072663
 31
0.0
  0
LINE
  5
1734
330
1F
100
AcDbEntity
  8
OBJECT2
100
AcDbLine
 10
7.889574771096988
 20
13.69518613737386
 30
0.0
 11
7.908382144548554
 21
13.63279464652329
 31
0.0
  0
LINE
  5
1735
330
1F
100
AcDbEntity
  8
OBJECT2
100
AcDbLine
 10
8.264574771096988
 20
13.69518613737386
 30
0.0
 11
8.245767397645437
 21
13.63279464652329
 31
0.0
  0
LINE
  5
1736
330
1F
100
AcDbEntity
  8
OBJECT2
100
AcDbLine
 10
8.339582242299869
 20
13.69518613737386
 30
0.0
 11
8.358389615751434
 21
13.63279464652329
 31
0.0
  0
LINE
  5
1737
330
1F
100
AcDbEntity
  8
OBJECT2
100
AcDbLine
 10
7.814567299894108
 20
13.69518613737386
 30
0.0
 11
7.795759926442542
 21
13.63279464652329
 31
0.0
  0
ARC
  5
1738
330
1F
100
AcDbEntity
  8
OBJECT1
100
AcDbCircle
 10
8.077074771096988
 20
13.99789842422206
 30
0.0
 40
0.4496345041569306
100
AcDbArc
 50
249.6624761045531
 51
290.3375238954467
  0
LINE
  5
1739
330
1F
100
AcDbEntity
  8
OBJECT1
100
AcDbLine
 10
8.261198779358352
 20
13.5527292601306
 30
0.0
 11
8.246228995787859
 21
13.5725294194687
 31
0.0
  0
ARC
  5
173A
330
1F
100
AcDbEntity
  8
OBJECT1
100
AcDbCircle
 10
8.270172679824312
 20
13.55951392006514
 30
0.0
 40
0.01125
100
AcDbArc
 50
217.090869772526
 51
270.0
  0
ARC
  5
173B
330
1F
100
AcDbEntity
  8
OBJECT1
100
AcDbCircle
 10
8.237255095321913
 20
13.56574475953417
 30
0.0
 40
0.01125
100
AcDbArc
 50
37.09086977252655
 51
110.3375238954463
  0
LINE
  5
173C
330
1F
100
AcDbEntity
  8
OBJECT1
100
AcDbLine
 10
8.348949771096982
 20
13.54826392006514
 30
0.0
 11
8.358324771096988
 21
13.56701392006513
 31
0.0
  0
LINE
  5
173D
330
1F
100
AcDbEntity
  8
OBJECT1
100
AcDbLine
 10
8.358324771096988
 20
13.56701392006513
 30
0.0
 11
8.358324771096988
 21
13.63250439829007
 31
0.0
  0
LINE
  5
173E
330
1F
100
AcDbEntity
  8
OBJECT1
100
AcDbLine
 10
8.270172679824312
 20
13.54826392006514
 30
0.0
 11
8.348949771096982
 21
13.54826392006514
 31
0.0
  0
LINE
  5
173F
330
1F
100
AcDbEntity
  8
OBJECT1
100
AcDbLine
 10
7.795824771096988
 20
13.56701392006513
 30
0.0
 11
7.795824771096988
 21
13.63279466454615
 31
0.0
  0
ARC
  5
1740
330
1F
100
AcDbEntity
  8
OBJECT1
100
AcDbCircle
 10
7.916894446872063
 20
13.56574475953417
 30
0.0
 40
0.01125
100
AcDbArc
 50
69.66247610455361
 51
142.9091302274734
  0
LINE
  5
1741
330
1F
100
AcDbEntity
  8
OBJECT1
100
AcDbLine
 10
7.892950762835596
 20
13.5527292601306
 30
0.0
 11
7.907920546406117
 21
13.5725294194687
 31
0.0
  0
LINE
  5
1742
330
1F
100
AcDbEntity
  8
OBJECT1
100
AcDbLine
 10
7.80519977109698
 20
13.54826392006514
 30
0.0
 11
7.88397686236965
 21
13.54826392006514
 31
0.0
  0
ARC
  5
1743
330
1F
100
AcDbEntity
  8
OBJECT1
100
AcDbCircle
 10
7.88397686236965
 20
13.55951392006514
 30
0.0
 40
0.01125
100
AcDbArc
 50
270.0
 51
322.9091302274739
  0
LINE
  5
1744
330
1F
100
AcDbEntity
  8
OBJECT1
100
AcDbLine
 10
7.80519977109698
 20
13.54826392006514
 30
0.0
 11
7.795824771096988
 21
13.56701392006513
 31
0.0
  0
LINE
  5
1745
330
1F
100
AcDbEntity
  8
OBJECT2
100
AcDbLine
 10
8.264574771096988
 20
13.69518613737386
 30
0.0
 11
8.339582242299869
 21
13.69518613737386
 31
0.0
  0
LINE
  5
1746
330
1F
100
AcDbEntity
  8
OBJECT2
100
AcDbLine
 10
8.264574771096988
 20
13.69518613737386
 30
0.0
 11
8.245832242299869
 21
13.80847878691239
 31
0.0
  0
LINE
  5
1747
330
1F
100
AcDbEntity
  8
OBJECT2
100
AcDbLine
 10
8.339582242299869
 20
13.69518613737386
 30
0.0
 11
8.358324771096988
 21
13.80847878691239
 31
0.0
  0
LINE
  5
1748
330
1F
100
AcDbEntity
  8
OBJECT2
100
AcDbLine
 10
7.889574771096988
 20
13.69518613737386
 30
0.0
 11
7.814567299894108
 21
13.69518613737386
 31
0.0
  0
LINE
  5
1749
330
1F
100
AcDbEntity
  8
OBJECT2
100
AcDbLine
 10
7.889574771096988
 20
13.69518613737386
 30
0.0
 11
7.908317299894108
 21
13.80847878691239
 31
0.0
  0
LINE
  5
174A
330
1F
100
AcDbEntity
  8
OBJECT2
100
AcDbLine
 10
7.814567299894108
 20
13.69518613737386
 30
0.0
 11
7.795824771096988
 21
13.80847878691239
 31
0.0
  0
LINE
  5
174B
330
1F
100
AcDbEntity
  8
OBJECT1
100
AcDbLine
 10
7.673563018734682
 20
13.55943109778934
 30
0.0
 11
7.494576614746847
 21
13.3804446938015
 31
0.0
  0
LINE
  5
174C
330
1F
100
AcDbEntity
  8
OBJECT2
100
AcDbLine
 10
7.002695460083941
 20
13.21736819239035
 30
0.0
 11
7.453912545939274
 21
13.66858527824568
 31
0.0
  0
LINE
  5
174D
330
1F
100
AcDbEntity
  8
OBJECT2
  6
CONTINUOUS
100
AcDbLine
 10
7.662956417016886
 20
13.58594760208384
 30
0.0
 11
7.136603806771148
 21
13.0595949918381
 31
0.0
  0
LINE
  5
174E
330
1F
100
AcDbEntity
  8
OBJECT2
  6
CONTINUOUS
100
AcDbLine
 10
7.128648855482808
 20
13.06754994312645
 30
0.0
 11
7.655001465728531
 21
13.59390255337219
 31
0.0
  0
LINE
  5
174F
330
1F
100
AcDbEntity
  8
OBJECT1
  6
CONTINUOUS
100
AcDbLine
 10
6.642071001678814
 20
13.59390255337219
 30
0.0
 11
7.002695460083941
 21
13.23327809496705
 31
0.0
  0
LINE
  5
1750
330
1F
100
AcDbEntity
  8
OBJECT1
  6
CONTINUOUS
100
AcDbLine
 10
6.998717984439778
 20
13.19748081416948
 30
0.0
 11
7.128648855482808
 21
13.06754994312645
 31
0.0
  0
LINE
  5
1751
330
1F
100
AcDbEntity
  8
OBJECT1
100
AcDbLine
 10
7.16312031106564
 20
13.0489883901203
 30
0.0
 11
7.342106715053489
 21
13.22797479410815
 31
0.0
  0
LINE
  5
1752
330
1F
100
AcDbEntity
  8
OBJECT1
100
AcDbLine
 10
7.128648855482808
 20
13.06754994312645
 30
0.0
 11
7.144558758059503
 21
13.06754994312645
 31
0.0
  0
ARC
  5
1753
330
1F
100
AcDbEntity
  8
OBJECT1
100
AcDbCircle
 10
7.155165359777299
 20
13.05694334140865
 30
0.0
 40
0.01125
100
AcDbArc
 50
225.0
 51
314.9999999999999
  0
LINE
  5
1754
330
1F
100
AcDbEntity
  8
OBJECT1
100
AcDbLine
 10
7.147210408488945
 20
13.0489883901203
 30
0.0
 11
7.136603806771148
 21
13.0595949918381
 31
0.0
  0
LINE
  5
1755
330
1F
100
AcDbEntity
  8
OBJECT2
100
AcDbLine
 10
7.494576614746847
 20
13.3804446938015
 30
0.0
 11
7.342106715053489
 21
13.22797479410815
 31
0.0
  0
LINE
  5
1756
330
1F
100
AcDbEntity
  8
OBJECT1
100
AcDbLine
 10
7.419004577507536
 20
13.15107693165411
 30
0.0
 11
7.342106715053489
 21
13.22797479410815
 31
0.0
  0
LINE
  5
1757
330
1F
100
AcDbEntity
  8
OBJECT2
100
AcDbLine
 10
7.503194478642555
 20
13.21935693021243
 30
0.0
 11
7.418341664900168
 21
13.30420974395482
 31
0.0
  0
ARC
  5
1758
330
1F
100
AcDbEntity
  8
OBJECT1
100
AcDbCircle
 10
7.563519525912525
 20
13.29559188005911
 30
0.0
 40
0.01125
100
AcDbArc
 50
314.9999999999998
 51
45.00000000000006
  0
LINE
  5
1759
330
1F
100
AcDbEntity
  8
OBJECT1
100
AcDbLine
 10
7.571474477200879
 20
13.30354683134746
 30
0.0
 11
7.494576614746847
 21
13.3804446938015
 31
0.0
  0
LINE
  5
175A
330
1F
100
AcDbEntity
  8
OBJECT1
100
AcDbLine
 10
7.571474477200879
 20
13.28763692877076
 30
0.0
 11
7.503194478642555
 21
13.21935693021243
 31
0.0
  0
ARC
  5
175B
330
1F
100
AcDbEntity
  8
OBJECT1
100
AcDbCircle
 10
7.426959528795876
 20
13.15903188294246
 30
0.0
 40
0.01125
100
AcDbArc
 50
225.0
 51
314.9999999999999
  0
LINE
  5
175C
330
1F
100
AcDbEntity
  8
OBJECT1
100
AcDbLine
 10
7.434914480084216
 20
13.15107693165411
 30
0.0
 11
7.503194478642555
 21
13.21935693021243
 31
0.0
  0
ARC
  5
175D
330
1F
100
AcDbEntity
  8
OBJECT1
  6
CONTINUOUS
100
AcDbCircle
 10
6.994740508795601
 20
13.2253231436787
 30
0.0
 40
0.01125
100
AcDbArc
 50
314.9999999999987
 51
45.00000000000015
  0
LINE
  5
175E
330
1F
100
AcDbEntity
  8
OBJECT1
  6
CONTINUOUS
100
AcDbLine
 10
6.998717984439778
 20
13.21339071674618
 30
0.0
 11
7.002695460083941
 21
13.21736819239035
 31
0.0
  0
ARC
  5
175F
330
1F
100
AcDbEntity
  8
OBJECT1
  6
CONTINUOUS
100
AcDbCircle
 10
7.006672935728119
 20
13.20543576545783
 30
0.0
 40
0.01125
100
AcDbArc
 50
134.9999999999999
 51
225.0
  0
LINE
  5
1760
330
1F
100
AcDbEntity
  8
OBJECT2
100
AcDbLine
 10
7.177987982634618
 20
13.67003826541218
 30
0.0
 11
6.976926413087539
 21
13.66998253731017
 31
0.0
  0
LINE
  5
1761
330
1F
100
AcDbEntity
  8
OBJECT2
100
AcDbLine
 10
7.177967130691442
 20
13.5950382567518
 30
0.0
 11
6.976947200787037
 21
13.59498254019102
 31
0.0
  0
LINE
  5
1762
330
1F
100
AcDbEntity
  8
OBJECT2
100
AcDbLine
 10
7.177995696581973
 20
13.69778369491881
 30
0.0
 11
7.243186796710233
 21
13.63255633508385
 31
0.0
  0
ARC
  5
1763
330
1F
100
AcDbEntity
  8
OBJECT1
100
AcDbCircle
 10
7.665608067446342
 20
13.56738604907769
 30
0.0
 40
0.01125
100
AcDbArc
 50
314.9999999999999
 51
45.00000000000006
  0
LINE
  5
1764
330
1F
100
AcDbEntity
  8
OBJECT1
100
AcDbLine
 10
7.673563018734682
 20
13.57534100036604
 30
0.0
 11
7.662956417016886
 21
13.58594760208384
 31
0.0
  0
LINE
  5
1765
330
1F
100
AcDbEntity
  8
OBJECT1
100
AcDbLine
 10
7.655001465728531
 20
13.59390255337219
 30
0.0
 11
7.655001465728531
 21
13.57799265079549
 31
0.0
  0
LINE
  5
1766
330
1F
100
AcDbEntity
  8
OBJECT1
  6
CONTINUOUS
100
AcDbLine
 10
7.635356707251986
 20
13.61354731184873
 30
0.0
 11
7.655001465728531
 21
13.59390255337219
 31
0.0
  0
ARC
  5
1767
330
1F
100
AcDbEntity
  8
OBJECT1
  6
CONTINUOUS
100
AcDbCircle
 10
7.643311658540341
 20
13.62150226313708
 30
0.0
 40
0.01125
100
AcDbArc
 50
90.01592910310318
 51
225.0000000000002
  0
LINE
  5
1768
330
1F
100
AcDbEntity
  8
OBJECT2
100
AcDbLine
 10
7.243186796710233
 20
13.63255633508385
 30
0.0
 11
7.177959436875283
 21
13.5673652349556
 31
0.0
  0
LINE
  5
1769
330
1F
100
AcDbEntity
  8
OBJECT2
100
AcDbLine
 10
7.177967130691442
 20
13.5950382567518
 30
0.0
 11
7.177959436875283
 21
13.5673652349556
 31
0.0
  0
LINE
  5
176A
330
1F
100
AcDbEntity
  8
OBJECT2
100
AcDbLine
 10
7.614985068106818
 20
13.74374584585843
 30
0.0
 11
7.72374141235889
 21
13.74374584585843
 31
0.0
  0
ARC
  5
176B
330
1F
100
AcDbEntity
  8
OBJECT2
100
AcDbCircle
 10
7.723741240429234
 20
13.75499584585711
 30
0.0
 40
0.01125
100
AcDbArc
 50
270.0008756305186
 51
0.0008756305267537
  0
ARC
  5
176C
330
1F
100
AcDbEntity
  8
OBJECT2
100
AcDbCircle
 10
7.614985240036475
 20
13.75499584585711
 30
0.0
 40
0.01125
100
AcDbArc
 50
179.9991243694732
 51
269.9991243694814
  0
LINE
  5
1773
330
1F
100
AcDbEntity
  8
OBJECT2
100
AcDbLine
 10
7.177995696581973
 20
13.69778369491881
 30
0.0
 11
7.177987982634618
 21
13.67003826541218
 31
0.0
  0
LINE
  5
1774
330
1F
100
AcDbEntity
  8
OBJECT1
  6
CONTINUOUS
100
AcDbLine
 10
6.522199371393483
 20
13.67399942721577
 30
0.0
 11
6.606273720881233
 21
13.58992507772801
 31
0.0
  0
LINE
  5
1775
330
1F
100
AcDbEntity
  8
OBJECT2
100
AcDbLine
 10
6.976926413087525
 20
13.66998253731016
 30
0.0
 11
6.976947200787037
 21
13.59498254019102
 31
0.0
  0
LINE
  5
1776
330
1F
100
AcDbEntity
  8
OBJECT1
  6
CONTINUOUS
100
AcDbLine
 10
6.622183623457942
 20
13.58992507772801
 30
0.0
 11
6.626161099102105
 21
13.59390255337219
 31
0.0
  0
ARC
  5
1777
330
1F
100
AcDbEntity
  8
OBJECT1
  6
CONTINUOUS
100
AcDbCircle
 10
6.634116050390446
 20
13.58594760208384
 30
0.0
 40
0.01125
100
AcDbArc
 50
45.00000000000015
 51
134.9999999999999
  0
ARC
  5
1778
330
1F
100
AcDbEntity
  8
OBJECT1
  6
CONTINUOUS
100
AcDbCircle
 10
6.614228672169588
 20
13.59788002901636
 30
0.0
 40
0.01125
100
AcDbArc
 50
224.9999999999996
 51
315.0000000000015
  0
ARC
  5
177F
330
1F
100
AcDbEntity
  8
OBJECT1
  6
CONTINUOUS
100
AcDbCircle
 10
6.514244420105129
 20
13.66604447592743
 30
0.0
 40
0.01125
100
AcDbArc
 50
45.00000000000006
 51
140.2367693756058
  0
LINE
  5
1780
330
1F
100
AcDbEntity
  8
OBJECT2
100
AcDbLine
 10
6.522199371393483
 20
13.67399942721577
 30
0.0
 11
6.397755453218564
 21
13.79844334539068
 31
0.0
  0
LINE
  5
1781
330
1F
100
AcDbEntity
  8
OBJECT1
100
AcDbLine
 10
7.716938656941294
 20
14.35187525057827
 30
0.0
 11
7.795824771096988
 21
14.35187525057827
 31
0.0
  0
LINE
  5
1782
330
1F
100
AcDbEntity
  8
OBJECT1
  6
CONTINUOUS
100
AcDbLine
 10
7.795824771096988
 20
14.0977946825216
 30
0.0
 11
7.141251775004676
 21
14.09761270121161
 31
0.0
  0
LINE
  5
1783
330
1F
100
AcDbEntity
  8
OBJECT1
100
AcDbLine
 10
7.865302531627918
 20
14.52174684438604
 30
0.0
 11
7.698188656941297
 21
14.48546069411369
 31
0.0
  0
LINE
  5
1784
330
1F
100
AcDbEntity
  8
OBJECT1
100
AcDbLine
 10
7.932283104430311
 20
14.60916691724494
 30
0.0
 11
7.768910752096488
 21
14.77253926957877
 31
0.0
  0
LINE
  5
1785
330
1F
100
AcDbEntity
  8
OBJECT1
100
AcDbLine
 10
8.28884701056603
 20
14.52174684438604
 30
0.0
 11
8.455874136870292
 21
14.48547953016094
 31
0.0
  0
LINE
  5
1786
330
1F
100
AcDbEntity
  8
OBJECT1
100
AcDbLine
 10
8.999689597448366
 20
14.09748911148911
 30
0.0
 11
8.358324771096988
 21
14.09833365472829
 31
0.0
  0
LINE
  5
1787
330
1F
100
AcDbEntity
  8
OBJECT1
100
AcDbLine
 10
9.101627329228222
 20
14.19074746873464
 30
0.0
 11
9.014122327621649
 21
14.19076143319008
 31
0.0
  0
ARC
  5
1788
330
1F
100
AcDbEntity
  8
OBJECT1
100
AcDbCircle
 10
9.130489531201831
 20
14.17288693023408
 30
0.0
 40
0.0144280753547963
100
AcDbArc
 50
179.9823729999999
 51
270.0140989999998
  0
LINE
  5
1789
330
1F
100
AcDbEntity
  8
OBJECT1
100
AcDbLine
 10
9.11606005940149
 20
14.17634313295409
 30
0.0
 11
9.11606005940149
 21
14.17289111957071
 31
0.0
  0
ARC
  5
178A
330
1F
100
AcDbEntity
  8
OBJECT1
100
AcDbCircle
 10
9.101631053083011
 20
14.17631846241615
 30
0.0
 40
0.0144285408366441
100
AcDbArc
 50
0.0969539999999413
 51
90.01409899999989
  0
LINE
  5
178B
330
1F
100
AcDbEntity
  8
OBJECT1
100
AcDbLine
 10
8.999689597448366
 20
14.09748911148911
 30
0.0
 11
8.999689597448366
 21
14.1763287030168
 31
0.0
  0
ARC
  5
178C
330
1F
100
AcDbEntity
  8
OBJECT1
100
AcDbCircle
 10
9.014168410324572
 20
14.17628401675941
 30
0.0
 40
0.0144774164306644
100
AcDbArc
 50
90.18270900000004
 51
179.822576
  0
LINE
  5
178D
330
1F
100
AcDbEntity
  8
OBJECT1
100
AcDbLine
 10
9.130492789574773
 20
14.15845838939743
 30
0.0
 11
9.188450865409592
 21
14.15845838939743
 31
0.0
  0
LINE
  5
178E
330
1F
100
AcDbEntity
  8
OBJECT1
100
AcDbLine
 10
7.913012271096988
 20
14.27747373338735
 30
0.0
 11
7.913012271096988
 21
14.20107542700261
 31
0.0
  0
LINE
  5
178F
330
1F
100
AcDbEntity
  8
OBJECT1
100
AcDbLine
 10
8.241137271096988
 20
14.27747373338735
 30
0.0
 11
8.241137271096988
 21
14.20107542700261
 31
0.0
  0
ARC
  5
1790
330
1F
100
AcDbEntity
  8
OBJECT1
100
AcDbCircle
 10
8.259887271096985
 20
14.20107542700261
 30
0.0
 40
0.01875
100
AcDbArc
 50
180.0
 51
270.0
  0
LINE
  5
1791
330
1F
100
AcDbEntity
  8
OBJECT2
100
AcDbLine
 10
8.264574771096988
 20
14.03540320969388
 30
0.0
 11
8.339582242299869
 21
14.03540320969388
 31
0.0
  0
LINE
  5
1792
330
1F
100
AcDbEntity
  8
OBJECT2
100
AcDbLine
 10
8.264574771096988
 20
14.03540320969388
 30
0.0
 11
8.245767397645437
 21
14.09779470054446
 31
0.0
  0
LINE
  5
1793
330
1F
100
AcDbEntity
  8
OBJECT1
100
AcDbLine
 10
8.348949771096982
 20
14.18232542700261
 30
0.0
 11
8.358324771096988
 21
14.16357542700261
 31
0.0
  0
LINE
  5
1794
330
1F
100
AcDbEntity
  8
OBJECT1
100
AcDbLine
 10
8.358324771096988
 20
14.09833365472829
 30
0.0
 11
8.358324771096988
 21
14.16357542700261
 31
0.0
  0
LINE
  5
1795
330
1F
100
AcDbEntity
  8
OBJECT1
100
AcDbLine
 10
8.259887271096985
 20
14.18232542700261
 30
0.0
 11
8.348949771096982
 21
14.18232542700261
 31
0.0
  0
LINE
  5
1796
330
1F
100
AcDbEntity
  8
OBJECT2
100
AcDbLine
 10
8.339582242299869
 20
14.03540320969388
 30
0.0
 11
8.358389615751434
 21
14.09779470054446
 31
0.0
  0
LINE
  5
1797
330
1F
100
AcDbEntity
  8
OBJECT1
100
AcDbLine
 10
7.795824771096988
 20
14.16357542700261
 30
0.0
 11
7.795824771096988
 21
14.0977946825216
 31
0.0
  0
ARC
  5
1798
330
1F
100
AcDbEntity
  8
OBJECT1
100
AcDbCircle
 10
7.894262271096991
 20
14.20107542700261
 30
0.0
 40
0.01875
100
AcDbArc
 50
270.0
 51
0.000000000000007
  0
LINE
  5
1799
330
1F
100
AcDbEntity
  8
OBJECT1
100
AcDbLine
 10
7.80519977109698
 20
14.18232542700261
 30
0.0
 11
7.894262271096991
 21
14.18232542700261
 31
0.0
  0
LINE
  5
179A
330
1F
100
AcDbEntity
  8
OBJECT2
100
AcDbLine
 10
7.889574771096988
 20
14.03540320969388
 30
0.0
 11
7.908382144548554
 21
14.09779470054446
 31
0.0
  0
LINE
  5
179B
330
1F
100
AcDbEntity
  8
OBJECT2
100
AcDbLine
 10
7.889574771096988
 20
14.03540320969388
 30
0.0
 11
7.814567299894108
 21
14.03540320969388
 31
0.0
  0
LINE
  5
179C
330
1F
100
AcDbEntity
  8
OBJECT1
100
AcDbLine
 10
7.80519977109698
 20
14.18232542700261
 30
0.0
 11
7.795824771096988
 21
14.16357542700261
 31
0.0
  0
LINE
  5
179D
330
1F
100
AcDbEntity
  8
OBJECT2
100
AcDbLine
 10
7.814567299894108
 20
14.03540320969388
 30
0.0
 11
7.795759926442542
 21
14.09779470054446
 31
0.0
  0
LINE
  5
179E
330
1F
100
AcDbEntity
  8
OBJECT2
100
AcDbLine
 10
8.266517828174826
 20
14.47783497517643
 30
0.0
 11
8.105127627905432
 21
14.48720997369429
 31
0.0
  0
LINE
  5
179F
330
1F
100
AcDbEntity
  8
OBJECT2
100
AcDbLine
 10
8.266517828174826
 20
14.36125024909614
 30
0.0
 11
8.105127627905432
 21
14.35187525057827
 31
0.0
  0
LINE
  5
17A0
330
1F
100
AcDbEntity
  8
OBJECT2
100
AcDbLine
 10
8.241137271096988
 20
14.27747373338735
 30
0.0
 11
7.913012271096988
 21
14.27747373338735
 31
0.0
  0
LINE
  5
17A1
330
1F
100
AcDbEntity
  8
OBJECT2
100
AcDbLine
 10
7.795824771096988
 20
14.35187525057827
 30
0.0
 11
8.358324771096988
 21
14.35187525057827
 31
0.0
  0
LINE
  5
17A2
330
1F
100
AcDbEntity
  8
OBJECT2
100
AcDbLine
 10
7.795824771096988
 20
14.30128712099085
 30
0.0
 11
8.358324771096988
 21
14.30128712099085
 31
0.0
  0
LINE
  5
17A3
330
1F
100
AcDbEntity
  8
OBJECT2
100
AcDbLine
 10
8.266517828174826
 20
14.47783497418834
 30
0.0
 11
8.266517828174826
 21
14.36125024909614
 31
0.0
  0
LINE
  5
17A4
330
1F
100
AcDbEntity
  8
OBJECT1
100
AcDbLine
 10
8.358324771096988
 20
14.35187525057827
 30
0.0
 11
8.437210885252682
 21
14.35187525057827
 31
0.0
  0
LINE
  5
17A5
330
1F
100
AcDbEntity
  8
OBJECT1
100
AcDbLine
 10
8.455954798127947
 20
14.36125024860212
 30
0.0
 11
8.437210885252682
 21
14.35187525057827
 31
0.0
  0
LINE
  5
17A6
330
1F
100
AcDbEntity
  8
OBJECT1
100
AcDbLine
 10
8.455954798127947
 20
14.36125024860212
 30
0.0
 11
8.455874136870292
 21
14.48547953016094
 31
0.0
  0
LINE
  5
17A7
330
1F
100
AcDbEntity
  8
OBJECT1
100
AcDbLine
 10
8.358324771096988
 20
14.30128712099085
 30
0.0
 11
8.358324771096988
 21
14.35187525057827
 31
0.0
  0
LINE
  5
17A8
330
1F
100
AcDbEntity
  8
OBJECT2
100
AcDbLine
 10
8.266517828174826
 20
14.47783497517643
 30
0.0
 11
8.358324771096988
 21
14.48720997369429
 31
0.0
  0
LINE
  5
17A9
330
1F
100
AcDbEntity
  8
OBJECT2
100
AcDbLine
 10
8.266517828174826
 20
14.36125024909614
 30
0.0
 11
8.358324771096988
 21
14.35187525057827
 31
0.0
  0
LINE
  5
17AA
330
1F
100
AcDbEntity
  8
OBJECT1
100
AcDbLine
 10
8.358324771096988
 20
14.30128712099085
 30
0.0
 11
8.241137271096988
 21
14.27747373338735
 31
0.0
  0
LINE
  5
17AB
330
1F
100
AcDbEntity
  8
OBJECT1
100
AcDbLine
 10
7.795824771096988
 20
14.30128712099085
 30
0.0
 11
7.795824771096988
 21
14.35187525057827
 31
0.0
  0
LINE
  5
17AC
330
1F
100
AcDbEntity
  8
OBJECT2
100
AcDbLine
 10
7.887631714019136
 20
14.47783497517643
 30
0.0
 11
8.04902191428853
 21
14.48720997369429
 31
0.0
  0
LINE
  5
17AD
330
1F
100
AcDbEntity
  8
OBJECT2
100
AcDbLine
 10
7.887631714019136
 20
14.36125024909614
 30
0.0
 11
8.04902191428853
 21
14.35187525057827
 31
0.0
  0
LINE
  5
17AE
330
1F
100
AcDbEntity
  8
OBJECT2
100
AcDbLine
 10
7.887631714019136
 20
14.47783497418834
 30
0.0
 11
7.887631714019136
 21
14.36125025008423
 31
0.0
  0
LINE
  5
17AF
330
1F
100
AcDbEntity
  8
OBJECT2
100
AcDbLine
 10
7.887631714019136
 20
14.47783497517643
 30
0.0
 11
7.795824771096988
 21
14.48720997369429
 31
0.0
  0
LINE
  5
17B0
330
1F
100
AcDbEntity
  8
OBJECT2
100
AcDbLine
 10
7.887631714019136
 20
14.36125024909614
 30
0.0
 11
7.795824771096988
 21
14.35187525057827
 31
0.0
  0
LINE
  5
17B1
330
1F
100
AcDbEntity
  8
OBJECT1
100
AcDbLine
 10
7.913012271096988
 20
14.27747373338735
 30
0.0
 11
7.795824771096988
 21
14.30128712099085
 31
0.0
  0
ARC
  5
17B2
330
1F
100
AcDbEntity
  8
OBJECT2
100
AcDbCircle
 10
7.919513359144673
 20
14.72218775057828
 30
0.0
 40
0.0375
100
AcDbArc
 50
347.1957339347139
 51
90.0
  0
ARC
  5
17B3
330
1F
100
AcDbEntity
  8
OBJECT2
100
AcDbCircle
 10
8.234636183049303
 20
14.72218775057828
 30
0.0
 40
0.0375
100
AcDbArc
 50
90.0
 51
192.8042660652869
  0
LINE
  5
17B4
330
1F
100
AcDbEntity
  8
OBJECT1
100
AcDbLine
 10
8.221866437763651
 20
14.60916691724494
 30
0.0
 11
8.385238790097488
 21
14.77253926957877
 31
0.0
  0
ARC
  5
17B5
330
1F
100
AcDbEntity
  8
OBJECT2
100
AcDbCircle
 10
8.283324771096985
 20
14.83937525057828
 30
0.0
 40
0.0796875
100
AcDbArc
 50
270.0
 51
359.9999999999997
  0
ARC
  5
17B6
330
1F
100
AcDbEntity
  8
OBJECT2
100
AcDbCircle
 10
7.870824771096991
 20
14.83937525057828
 30
0.0
 40
0.0796875
100
AcDbArc
 50
180.0000000000002
 51
270.0
  0
LINE
  5
17B7
330
1F
100
AcDbEntity
  8
OBJECT2
100
AcDbLine
 10
7.973949771096982
 20
14.72747740192599
 30
0.0
 11
8.18019977109698
 21
14.72747740192599
 31
0.0
  0
LINE
  5
17B8
330
1F
100
AcDbEntity
  8
OBJECT1
100
AcDbLine
 10
8.221866437763651
 20
14.60916691724494
 30
0.0
 11
8.228049985616806
 21
14.58195930669103
 31
0.0
  0
LINE
  5
17B9
330
1F
100
AcDbEntity
  8
OBJECT2
100
AcDbLine
 10
8.198068700957122
 20
14.71387695919369
 30
0.0
 11
8.221866437763651
 21
14.60916691724494
 31
0.0
  0
LINE
  5
17BA
330
1F
100
AcDbEntity
  8
OBJECT2
100
AcDbLine
 10
8.234636183049303
 20
14.75968775057828
 30
0.0
 11
8.283324771096985
 21
14.75968775057828
 31
0.0
  0
ARC
  5
17BB
330
1F
100
AcDbEntity
  8
OBJECT1
100
AcDbCircle
 10
8.305755885062694
 20
14.59961973838328
 30
0.0
 40
0.0796875
100
AcDbArc
 50
192.8042660652869
 51
257.7492890750577
  0
LINE
  5
17BC
330
1F
100
AcDbEntity
  8
OBJECT1
100
AcDbLine
 10
7.932283104430311
 20
14.60916691724494
 30
0.0
 11
7.926099556577156
 21
14.58195930669103
 31
0.0
  0
LINE
  5
17BD
330
1F
100
AcDbEntity
  8
OBJECT2
100
AcDbLine
 10
7.870824771096991
 20
14.75968775057828
 30
0.0
 11
7.919513359144673
 21
14.75968775057828
 31
0.0
  0
LINE
  5
17BE
330
1F
100
AcDbEntity
  8
OBJECT2
100
AcDbLine
 10
7.956080841236854
 20
14.71387695919369
 30
0.0
 11
7.932283104430311
 21
14.60916691724494
 31
0.0
  0
LINE
  5
17BF
330
1F
100
AcDbEntity
  8
OBJECT2
100
AcDbLine
 10
8.049234280109715
 20
14.67736540904459
 30
0.0
 11
8.049234280109715
 21
14.72747740192599
 31
0.0
  0
LINE
  5
17C0
330
1F
100
AcDbEntity
  8
OBJECT2
100
AcDbLine
 10
8.056658262557021
 20
14.66901326174841
 30
0.0
 11
8.049234280109715
 21
14.67736540904459
 31
0.0
  0
LINE
  5
17C1
330
1F
100
AcDbEntity
  8
OBJECT2
100
AcDbLine
 10
8.104915262084261
 20
14.67736540904459
 30
0.0
 11
8.09749127963694
 21
14.66901326174841
 31
0.0
  0
LINE
  5
17C2
330
1F
100
AcDbEntity
  8
OBJECT2
100
AcDbLine
 10
8.104915262084261
 20
14.67736540904459
 30
0.0
 11
8.104915262084261
 21
14.72747740192599
 31
0.0
  0
LINE
  5
17C3
330
1F
100
AcDbEntity
  8
OBJECT2
100
AcDbLine
 10
8.09749127963694
 20
14.71912525462981
 30
0.0
 11
8.056658262557021
 21
14.71912525462981
 31
0.0
  0
LINE
  5
17C4
330
1F
100
AcDbEntity
  8
OBJECT2
100
AcDbLine
 10
8.09749127963694
 20
14.70242125700267
 30
0.0
 11
8.056658262557021
 21
14.70242125700267
 31
0.0
  0
LINE
  5
17C5
330
1F
100
AcDbEntity
  8
OBJECT2
100
AcDbLine
 10
8.09749127963694
 20
14.68571725937554
 30
0.0
 11
8.056658262557021
 21
14.68571725937554
 31
0.0
  0
LINE
  5
17C6
330
1F
100
AcDbEntity
  8
OBJECT2
100
AcDbLine
 10
8.09749127963694
 20
14.66901326174841
 30
0.0
 11
8.056658262557021
 21
14.66901326174841
 31
0.0
  0
LINE
  5
17C7
330
1F
100
AcDbEntity
  8
OBJECT2
100
AcDbLine
 10
8.049234280109715
 20
14.71077340429886
 30
0.0
 11
8.104915262084261
 21
14.71077340429886
 31
0.0
  0
LINE
  5
17C8
330
1F
100
AcDbEntity
  8
OBJECT2
100
AcDbLine
 10
8.049234280109715
 20
14.69406940667172
 30
0.0
 11
8.104915262084261
 21
14.69406940667172
 31
0.0
  0
LINE
  5
17C9
330
1F
100
AcDbEntity
  8
OBJECT2
100
AcDbLine
 10
8.049234280109715
 20
14.67736540904459
 30
0.0
 11
8.104915262084261
 21
14.67736540904459
 31
0.0
  0
LINE
  5
17CA
330
1F
100
AcDbEntity
  8
OBJECT2
100
AcDbLine
 10
8.042387271096998
 20
14.72747740192599
 30
0.0
 11
8.111762271096978
 21
14.72747740192599
 31
0.0
  0
ARC
  5
17CB
330
1F
100
AcDbEntity
  8
OBJECT1
100
AcDbCircle
 10
7.848393657131282
 20
14.59961973838328
 30
0.0
 40
0.0796875
100
AcDbArc
 50
282.2507109249426
 51
347.1957339347131
  0
LINE
  5
17CC
330
1F
100
AcDbEntity
  8
OBJECT1
100
AcDbLine
 10
8.20363727109698
 20
14.96125025057827
 30
0.0
 11
8.138949771096989
 21
14.96125025057827
 31
0.0
  0
LINE
  5
17CD
330
1F
100
AcDbEntity
  8
OBJECT2
100
AcDbLine
 10
8.170824771096988
 20
14.87585195242661
 30
0.0
 11
7.983324771096988
 21
14.87585195242661
 31
0.0
  0
LINE
  5
17CE
330
1F
100
AcDbEntity
  8
OBJECT2
100
AcDbLine
 10
8.170824771096988
 20
14.79250025057828
 30
0.0
 11
7.983324771096988
 21
14.79250025057828
 31
0.0
  0
LINE
  5
17CF
330
1F
100
AcDbEntity
  8
OBJECT1
100
AcDbLine
 10
8.20363727109698
 20
14.96125025057827
 30
0.0
 11
8.20363727109698
 21
14.87585195242661
 31
0.0
  0
LINE
  5
17D0
330
1F
100
AcDbEntity
  8
OBJECT1
100
AcDbLine
 10
8.20363727109698
 20
14.87585195242661
 30
0.0
 11
8.170824771096988
 21
14.87585195242661
 31
0.0
  0
LINE
  5
17D1
330
1F
100
AcDbEntity
  8
OBJECT1
100
AcDbLine
 10
8.170824771096988
 20
14.79250025057828
 30
0.0
 11
8.283324771096985
 21
14.79250025057828
 31
0.0
  0
ARC
  5
17D2
330
1F
100
AcDbEntity
  8
OBJECT1
100
AcDbCircle
 10
8.283324771096985
 20
14.83937525057828
 30
0.0
 40
0.046875
100
AcDbArc
 50
270.0
 51
359.9999999999997
  0
ARC
  5
17D3
330
1F
100
AcDbEntity
  8
OBJECT1
100
AcDbCircle
 10
8.283324771096985
 20
14.83937525057828
 30
0.0
 40
0.1218749999999997
100
AcDbArc
 50
326.7428358479532
 51
359.9999999999997
  0
LINE
  5
17D4
330
1F
100
AcDbEntity
  8
OBJECT1
100
AcDbLine
 10
8.170824771096988
 20
14.87585195242661
 30
0.0
 11
8.170824771096988
 21
14.79250025057828
 31
0.0
  0
LINE
  5
17D5
330
1F
100
AcDbEntity
  8
OBJECT2
100
AcDbLine
 10
8.052964163488908
 20
14.99191042649275
 30
0.0
 11
8.068492178776722
 21
14.99837090522798
 31
0.0
  0
LINE
  5
17D6
330
1F
100
AcDbEntity
  8
OBJECT1
100
AcDbLine
 10
7.950512271096982
 20
14.96125025057827
 30
0.0
 11
7.950512271096982
 21
14.87585195242661
 31
0.0
  0
LINE
  5
17D7
330
1F
100
AcDbEntity
  8
OBJECT1
100
AcDbLine
 10
7.983324771096988
 20
14.87585195242661
 30
0.0
 11
7.950512271096982
 21
14.87585195242661
 31
0.0
  0
LINE
  5
17D8
330
1F
100
AcDbEntity
  8
OBJECT2
100
AcDbLine
 10
8.052964163488908
 20
14.99191042649275
 30
0.0
 11
8.052964163488908
 21
14.96125025057827
 31
0.0
  0
LINE
  5
17D9
330
1F
100
AcDbEntity
  8
OBJECT2
100
AcDbLine
 10
8.028853407398216
 20
14.96125025057827
 30
0.0
 11
8.028853407398216
 21
14.99191042649275
 31
0.0
  0
LINE
  5
17DA
330
1F
100
AcDbEntity
  8
OBJECT1
100
AcDbLine
 10
8.015199771096988
 20
14.96125025057827
 30
0.0
 11
7.950512271096982
 21
14.96125025057827
 31
0.0
  0
LINE
  5
17DB
330
1F
100
AcDbEntity
  8
OBJECT2
100
AcDbLine
 10
8.028853407398216
 20
14.99191042649275
 30
0.0
 11
8.035314034616078
 21
14.99837090522798
 31
0.0
  0
LINE
  5
17DC
330
1F
100
AcDbEntity
  8
OBJECT2
100
AcDbLine
 10
8.052964163488908
 20
14.99191042649275
 30
0.0
 11
8.042634079230367
 21
14.99837090522798
 31
0.0
  0
LINE
  5
17DD
330
1F
100
AcDbEntity
  8
OBJECT2
100
AcDbLine
 10
8.101185378705054
 20
14.99191042649275
 30
0.0
 11
8.101185378705054
 21
14.96125025057827
 31
0.0
  0
LINE
  5
17DE
330
1F
100
AcDbEntity
  8
OBJECT2
100
AcDbLine
 10
8.125295986313133
 20
14.96125025057827
 30
0.0
 11
8.125295986313133
 21
14.99191042649275
 31
0.0
  0
LINE
  5
17DF
330
1F
100
AcDbEntity
  8
OBJECT2
100
AcDbLine
 10
8.125295986313133
 20
14.99191042649275
 30
0.0
 11
8.118835507577898
 21
14.99837090522798
 31
0.0
  0
LINE
  5
17E0
330
1F
100
AcDbEntity
  8
OBJECT2
100
AcDbLine
 10
8.101185378705054
 20
14.99191042649275
 30
0.0
 11
8.111515462963595
 21
14.99837090522798
 31
0.0
  0
LINE
  5
17E1
330
1F
100
AcDbEntity
  8
OBJECT2
100
AcDbLine
 10
8.101185378705054
 20
14.99191042649275
 30
0.0
 11
8.085657363417226
 21
14.99837090522798
 31
0.0
  0
LINE
  5
17E2
330
1F
100
AcDbEntity
  8
OBJECT2
100
AcDbLine
 10
8.09749127963694
 20
14.85079595598591
 30
0.0
 11
8.056658262557021
 21
14.85079595598591
 31
0.0
  0
LINE
  5
17E3
330
1F
100
AcDbEntity
  8
OBJECT2
100
AcDbLine
 10
8.049234280109715
 20
14.8591481032821
 30
0.0
 11
8.104915262084261
 21
14.8591481032821
 31
0.0
  0
LINE
  5
17E4
330
1F
100
AcDbEntity
  8
OBJECT2
100
AcDbLine
 10
8.09749127963694
 20
14.8675003990609
 30
0.0
 11
8.056658262557021
 21
14.8675003990609
 31
0.0
  0
LINE
  5
17E5
330
1F
100
AcDbEntity
  8
OBJECT2
100
AcDbLine
 10
8.138949771096989
 20
14.96125025057827
 30
0.0
 11
8.015199771096988
 21
14.96125025057827
 31
0.0
  0
LINE
  5
17E6
330
1F
100
AcDbEntity
  8
OBJECT2
100
AcDbLine
 10
8.035314034616078
 20
14.99837090522798
 30
0.0
 11
8.118835507577898
 21
14.99837090522798
 31
0.0
  0
LINE
  5
17E7
330
1F
100
AcDbEntity
  8
OBJECT1
100
AcDbLine
 10
7.870824771096991
 20
14.79250025057828
 30
0.0
 11
7.983324771096988
 21
14.79250025057828
 31
0.0
  0
ARC
  5
17E8
330
1F
100
AcDbEntity
  8
OBJECT1
100
AcDbCircle
 10
7.870824771096991
 20
14.83937525057828
 30
0.0
 40
0.046875
100
AcDbArc
 50
180.0000000000002
 51
270.0
  0
LINE
  5
17E9
330
1F
100
AcDbEntity
  8
OBJECT2
100
AcDbLine
 10
8.09749127963694
 20
14.80068396310451
 30
0.0
 11
8.056658262557021
 21
14.80068396310451
 31
0.0
  0
LINE
  5
17EA
330
1F
100
AcDbEntity
  8
OBJECT2
100
AcDbLine
 10
8.09749127963694
 20
14.81738796073165
 30
0.0
 11
8.056658262557021
 21
14.81738796073165
 31
0.0
  0
LINE
  5
17EB
330
1F
100
AcDbEntity
  8
OBJECT2
100
AcDbLine
 10
8.09749127963694
 20
14.83409195835878
 30
0.0
 11
8.056658262557021
 21
14.83409195835878
 31
0.0
  0
LINE
  5
17EC
330
1F
100
AcDbEntity
  8
OBJECT2
100
AcDbLine
 10
8.049234280109715
 20
14.8090361104007
 30
0.0
 11
8.104915262084261
 21
14.8090361104007
 31
0.0
  0
LINE
  5
17ED
330
1F
100
AcDbEntity
  8
OBJECT2
100
AcDbLine
 10
8.049234280109715
 20
14.82574010802783
 30
0.0
 11
8.104915262084261
 21
14.82574010802783
 31
0.0
  0
LINE
  5
17EE
330
1F
100
AcDbEntity
  8
OBJECT2
100
AcDbLine
 10
8.049234280109715
 20
14.84244410565496
 30
0.0
 11
8.104915262084261
 21
14.84244410565496
 31
0.0
  0
LINE
  5
17EF
330
1F
100
AcDbEntity
  8
OBJECT2
100
AcDbLine
 10
8.104915262084261
 20
14.79250025057828
 30
0.0
 11
8.104915262084261
 21
14.87585195242661
 31
0.0
  0
LINE
  5
17F0
330
1F
100
AcDbEntity
  8
OBJECT2
100
AcDbLine
 10
8.049234280109715
 20
14.79250025057828
 30
0.0
 11
8.049234280109715
 21
14.87585195242661
 31
0.0
  0
LINE
  5
17F1
330
1F
100
AcDbEntity
  8
OBJECT1
100
AcDbLine
 10
7.983324771096988
 20
14.87585195242661
 30
0.0
 11
7.983324771096988
 21
14.79250025057828
 31
0.0
  0
LINE
  5
17F2
330
1F
100
AcDbEntity
  8
OBJECT1
  6
CONTINUOUS
100
AcDbLine
 10
6.437881616731019
 20
14.43433603680164
 30
0.0
 11
6.512127828755595
 21
14.50858224882623
 31
0.0
  0
LINE
  5
17F3
330
1F
100
AcDbEntity
  8
OBJECT1
100
AcDbLine
 10
7.080906845872533
 20
14.45422341502251
 30
0.0
 11
7.012626847314209
 21
14.52250341358084
 31
0.0
  0
LINE
  5
17F4
330
1F
100
AcDbEntity
  8
OBJECT2
100
AcDbLine
 10
6.851539083725143
 20
14.51388554968513
 30
0.0
 11
7.004008983418486
 21
14.36141564999178
 31
0.0
  0
LINE
  5
17F5
330
1F
100
AcDbEntity
  8
OBJECT2
100
AcDbLine
 10
7.012626847314209
 20
14.52250341358084
 30
0.0
 11
6.927774033571807
 21
14.43765059983845
 31
0.0
  0
LINE
  5
17F6
330
1F
100
AcDbEntity
  8
OBJECT2
100
AcDbLine
 10
6.512127828755595
 20
14.52449215140292
 30
0.0
 11
6.977011537802496
 21
14.05960844235604
 31
0.0
  0
LINE
  5
17F7
330
1F
100
AcDbEntity
  8
OBJECT2
100
AcDbLine
 10
6.646036175442802
 20
14.68226535195518
 30
0.0
 11
7.172388785688539
 21
14.15591274170944
 31
0.0
  0
LINE
  5
17F8
330
1F
100
AcDbEntity
  8
OBJECT2
100
AcDbLine
 10
6.638081224154447
 20
14.67431040066682
 30
0.0
 11
7.164433834400199
 21
14.14795779042109
 31
0.0
  0
LINE
  5
17F9
330
1F
100
AcDbEntity
  8
OBJECT1
100
AcDbLine
 10
7.080906845872533
 20
14.43831351244582
 30
0.0
 11
7.004008983418486
 21
14.36141564999178
 31
0.0
  0
LINE
  5
17FA
330
1F
100
AcDbEntity
  8
OBJECT1
100
AcDbLine
 10
7.182995387406336
 20
14.18242924600394
 30
0.0
 11
7.004008983418486
 21
14.36141564999178
 31
0.0
  0
LINE
  5
17FB
330
1F
100
AcDbEntity
  8
OBJECT2
100
AcDbLine
 10
7.614988764594329
 20
13.98562084583023
 30
0.0
 11
7.723738764581597
 21
13.9856191838436
 31
0.0
  0
ARC
  5
17FC
330
1F
100
AcDbEntity
  8
OBJECT2
100
AcDbCircle
 10
7.723737887801036
 20
13.97437084583154
 30
0.0
 40
0.01125
100
AcDbArc
 50
0.0008756305180008
 51
90.00087563051819
  0
ARC
  5
17FD
330
1F
100
AcDbEntity
  8
OBJECT2
100
AcDbCircle
 10
7.614988592664687
 20
13.97437084583154
 30
0.0
 40
0.01125
100
AcDbArc
 50
89.99912436948182
 51
179.999124369482
  0
LINE
  5
17FE
330
1F
100
AcDbEntity
  8
OBJECT1
  6
CONTINUOUS
100
AcDbLine
 10
7.13329369604429
 20
14.11681765206519
 30
0.0
 11
7.164433834400199
 21
14.14795779042109
 31
0.0
  0
LINE
  5
17FF
330
1F
100
AcDbEntity
  8
OBJECT1
100
AcDbLine
 10
7.182995387406336
 20
14.16651934342723
 30
0.0
 11
7.172388785688539
 21
14.15591274170944
 31
0.0
  0
LINE
  5
1800
330
1F
100
AcDbEntity
  8
OBJECT1
100
AcDbLine
 10
7.164433834400199
 20
14.14795779042109
 30
0.0
 11
7.164433834400199
 21
14.16386769299779
 31
0.0
  0
ARC
  5
1801
330
1F
100
AcDbEntity
  8
OBJECT1
100
AcDbCircle
 10
7.175040436117996
 20
14.17447429471558
 30
0.0
 40
0.01125
100
AcDbArc
 50
314.9999999999999
 51
45.00000000000006
  0
ARC
  5
1802
330
1F
100
AcDbEntity
  8
OBJECT1
  6
CONTINUOUS
100
AcDbCircle
 10
7.141248647332645
 20
14.10886270077684
 30
0.0
 40
0.01125
100
AcDbArc
 50
134.9999999999999
 51
270.0159291031027
  0
LINE
  5
180C
330
1F
100
AcDbEntity
  8
OBJECT1
100
AcDbLine
 10
7.698188656941297
 20
14.36125025057828
 30
0.0
 11
7.716938656941294
 21
14.35187525057827
 31
0.0
  0
LINE
  5
180D
330
1F
100
AcDbEntity
  8
OBJECT1
100
AcDbLine
 10
7.698188656941297
 20
14.36125025057828
 30
0.0
 11
7.698188656941297
 21
14.48546069411369
 31
0.0
  0
ARC
  5
180E
330
1F
100
AcDbEntity
  8
OBJECT1
100
AcDbCircle
 10
7.072951894584178
 20
14.44626846373416
 30
0.0
 40
0.01125
100
AcDbArc
 50
314.9999999999999
 51
45.00000000000015
  0
LINE
  5
1826
330
1F
100
AcDbEntity
  8
OBJECT1
  6
CONTINUOUS
100
AcDbLine
 10
6.285411717037661
 20
14.32164089355003
 30
0.0
 11
6.402084335933437
 21
14.43831351244582
 31
0.0
  0
LINE
  5
1827
330
1F
100
AcDbEntity
  8
OBJECT1
  6
CONTINUOUS
100
AcDbLine
 10
6.42197171415431
 20
14.43433603680164
 30
0.0
 11
6.417994238510146
 21
14.43831351244582
 31
0.0
  0
ARC
  5
1828
330
1F
100
AcDbEntity
  8
OBJECT1
  6
CONTINUOUS
100
AcDbCircle
 10
6.410039287221792
 20
14.43035856115747
 30
0.0
 40
0.01125
100
AcDbArc
 50
45.00000000000006
 51
134.9999999999999
  0
LINE
  5
1829
330
1F
100
AcDbEntity
  8
OBJECT1
  6
CONTINUOUS
100
AcDbLine
 10
6.289389192681838
 20
14.30175351532916
 30
0.0
 11
6.285411717037661
 21
14.30573099097334
 31
0.0
  0
ARC
  5
182A
330
1F
100
AcDbEntity
  8
OBJECT1
  6
CONTINUOUS
100
AcDbCircle
 10
6.293366668326001
 20
14.31368594226168
 30
0.0
 40
0.01125
100
AcDbArc
 50
134.9999999999999
 51
225.0
  0
ARC
  5
182B
330
1F
100
AcDbEntity
  8
OBJECT1
  6
CONTINUOUS
100
AcDbCircle
 10
6.429926665442678
 20
14.44229098808999
 30
0.0
 40
0.01125
100
AcDbArc
 50
225.0
 51
314.9999999999999
  0
ARC
  5
1832
330
1F
100
AcDbEntity
  8
OBJECT1
  6
CONTINUOUS
100
AcDbCircle
 10
6.281434241393483
 20
14.29379856404081
 30
0.0
 40
0.01125
100
AcDbArc
 50
315.0000000000003
 51
45.00000000000006
  0
ARC
  5
1833
330
1F
100
AcDbEntity
  8
OBJECT1
100
AcDbCircle
 10
7.870824771096991
 20
14.83937525057828
 30
0.0
 40
0.1218749999999997
100
AcDbArc
 50
180.0000000000002
 51
213.2571641520462
  0
LINE
  5
1834
330
1F
100
AcDbEntity
  8
OBJECT1
100
AcDbLine
 10
6.638081224154447
 20
14.67431040066682
 30
0.0
 11
6.653991126731156
 21
14.67431040066682
 31
0.0
  0
LINE
  5
1835
330
1F
100
AcDbEntity
  8
OBJECT1
100
AcDbLine
 10
6.656642777160612
 20
14.69287195367297
 30
0.0
 11
6.646036175442802
 21
14.68226535195518
 31
0.0
  0
ARC
  5
1836
330
1F
100
AcDbEntity
  8
OBJECT1
100
AcDbCircle
 10
6.664597728448953
 20
14.68491700238462
 30
0.0
 40
0.01125
100
AcDbArc
 50
45.00000000000006
 51
134.9999999999999
  0
ARC
  5
1837
330
1F
100
AcDbEntity
  8
OBJECT1
100
AcDbCircle
 10
6.93639189746753
 20
14.58282846085082
 30
0.0
 40
0.01125
100
AcDbArc
 50
45.00000000000006
 51
134.9999999999999
  0
LINE
  5
1838
330
1F
100
AcDbEntity
  8
OBJECT1
100
AcDbLine
 10
6.928436946179175
 20
14.59078341213916
 30
0.0
 11
6.851539083725143
 21
14.51388554968513
 31
0.0
  0
LINE
  5
1839
330
1F
100
AcDbEntity
  8
OBJECT1
100
AcDbLine
 10
6.94434684875587
 20
14.59078341213916
 30
0.0
 11
7.012626847314209
 21
14.52250341358084
 31
0.0
  0
LINE
  5
183A
330
1F
100
AcDbEntity
  8
OBJECT1
100
AcDbLine
 10
6.672552679737293
 20
14.69287195367297
 30
0.0
 11
6.851539083725143
 21
14.51388554968513
 31
0.0
  0
ARC
  5
183B
330
1F
100
AcDbEntity
  8
OBJECT1
  6
CONTINUOUS
100
AcDbCircle
 10
6.504172877467254
 20
14.51653720011458
 30
0.0
 40
0.01125
100
AcDbArc
 50
314.9999999999999
 51
45.00000000000123
  0
LINE
  5
183C
330
1F
100
AcDbEntity
  8
OBJECT1
  6
CONTINUOUS
100
AcDbLine
 10
6.512127828755595
 20
14.52449215140292
 30
0.0
 11
6.508150353111432
 21
14.5284696270471
 31
0.0
  0
ARC
  5
183D
330
1F
100
AcDbEntity
  8
OBJECT1
  6
CONTINUOUS
100
AcDbCircle
 10
6.516105304399786
 20
14.53642457833545
 30
0.0
 40
0.01125
100
AcDbArc
 50
134.9999999999999
 51
224.9999999999995
  0
LINE
  5
183E
330
1F
100
AcDbEntity
  8
OBJECT1
  6
CONTINUOUS
100
AcDbLine
 10
6.508150353111432
 20
14.5443795296238
 30
0.0
 11
6.638081224154447
 21
14.67431040066682
 31
0.0
  0
LINE
  5
183F
330
1F
100
AcDbEntity
  8
OBJECT2
100
AcDbLine
 10
10.08813807671313
 20
16.17712524823046
 30
0.0
 11
8.72108098812464
 21
17.54418233681896
 31
0.0
  0
LINE
  5
1842
330
1F
100
AcDbEntity
  8
OBJECT2
100
AcDbLine
 10
10.08758183614709
 20
16.17785673560245
 30
0.0
 11
9.838707615403222
 21
16.57274751308921
 31
0.0
  0
LINE
  5
1843
330
1F
100
AcDbEntity
  8
OBJECT2
100
AcDbLine
 10
9.692691058660329
 20
16.42673095634633
 30
0.0
 11
10.08758183614709
 21
16.17785673560246
 31
0.0
  0
LINE
  5
1844
330
1F
100
AcDbEntity
  8
OBJECT2
100
AcDbLine
 10
9.838707615403222
 20
16.57274751308921
 30
0.0
 11
9.692691058660329
 21
16.42673095634633
 31
0.0
  0
LINE
  5
1845
330
1F
100
AcDbEntity
  8
OBJECT1
100
AcDbLine
 10
7.927074771096982
 20
15.38312525057827
 30
0.0
 11
7.768910752096488
 21
15.22496123157778
 31
0.0
  0
LINE
  5
1846
330
1F
100
AcDbEntity
  8
OBJECT1
100
AcDbLine
 10
7.709438656941301
 20
15.48625025057828
 30
0.0
 11
8.015199771096988
 21
15.48625025057828
 31
0.0
  0
LINE
  5
1847
330
1F
100
AcDbEntity
  8
OBJECT1
100
AcDbLine
 10
7.709438656941301
 20
15.38312525057827
 30
0.0
 11
7.927074771096982
 21
15.38312525057827
 31
0.0
  0
LINE
  5
1848
330
1F
100
AcDbEntity
  8
OBJECT1
100
AcDbLine
 10
8.138949771096989
 20
15.93898017571368
 30
0.0
 11
8.138949771096989
 21
15.48625025057828
 31
0.0
  0
LINE
  5
1849
330
1F
100
AcDbEntity
  8
OBJECT1
100
AcDbLine
 10
8.015199771096988
 20
15.93898017571368
 30
0.0
 11
8.015199771096988
 21
15.48625025057828
 31
0.0
  0
LINE
  5
184A
330
1F
100
AcDbEntity
  8
OBJECT2
100
AcDbLine
 10
7.927074771096982
 20
15.38312525057827
 30
0.0
 11
7.927074771096982
 21
15.26125025057828
 31
0.0
  0
LINE
  5
184B
330
1F
100
AcDbEntity
  8
OBJECT2
100
AcDbLine
 10
8.22707477109698
 20
15.38312525057827
 30
0.0
 11
8.22707477109698
 21
15.26125025057828
 31
0.0
  0
LINE
  5
184C
330
1F
100
AcDbEntity
  8
OBJECT1
100
AcDbLine
 10
8.22707477109698
 20
15.38312525057827
 30
0.0
 11
8.385238790097488
 21
15.22496123157778
 31
0.0
  0
LINE
  5
184D
330
1F
100
AcDbEntity
  8
OBJECT1
100
AcDbLine
 10
8.138949771096989
 20
15.16412525057828
 30
0.0
 11
8.217699771096988
 21
15.16412525057828
 31
0.0
  0
LINE
  5
184E
330
1F
100
AcDbEntity
  8
OBJECT2
100
AcDbLine
 10
7.936449771096988
 20
15.20500025057827
 30
0.0
 11
8.217699771096988
 21
15.20500025057827
 31
0.0
  0
LINE
  5
184F
330
1F
100
AcDbEntity
  8
OBJECT1
100
AcDbLine
 10
8.217699771096988
 20
15.20500025057827
 30
0.0
 11
8.283324771096985
 21
15.20500025057827
 31
0.0
  0
LINE
  5
1850
330
1F
100
AcDbEntity
  8
OBJECT2
100
AcDbLine
 10
8.283324771096985
 20
15.23781275057828
 30
0.0
 11
8.25051227109698
 21
15.23781275057828
 31
0.0
  0
ARC
  5
1851
330
1F
100
AcDbEntity
  8
OBJECT2
100
AcDbCircle
 10
8.25051227109698
 20
15.26125025057828
 30
0.0
 40
0.0234375
100
AcDbArc
 50
180.0
 51
270.0
  0
ARC
  5
1852
330
1F
100
AcDbEntity
  8
OBJECT1
100
AcDbCircle
 10
8.283324771096985
 20
15.15812525057827
 30
0.0
 40
0.046875
100
AcDbArc
 50
359.9999999999997
 51
90.0
  0
LINE
  5
1853
330
1F
100
AcDbEntity
  8
OBJECT1
100
AcDbLine
 10
8.217699771096988
 20
15.20500025057827
 30
0.0
 11
8.217699771096988
 21
15.16412525057828
 31
0.0
  0
ARC
  5
1854
330
1F
100
AcDbEntity
  8
OBJECT1
100
AcDbCircle
 10
8.283324771096985
 20
15.15812525057827
 30
0.0
 40
0.1218749999999997
100
AcDbArc
 50
359.9999999999997
 51
33.25716415204512
  0
ARC
  5
1855
330
1F
100
AcDbEntity
  8
OBJECT2
100
AcDbCircle
 10
8.283324771096985
 20
15.15812525057827
 30
0.0
 40
0.0796875
100
AcDbArc
 50
359.9999999999997
 51
90.0
  0
LINE
  5
1856
330
1F
100
AcDbEntity
  8
OBJECT1
100
AcDbLine
 10
7.870824771096977
 20
15.20500025057827
 30
0.0
 11
7.936449771096988
 21
15.20500025057827
 31
0.0
  0
ARC
  5
1857
330
1F
100
AcDbEntity
  8
OBJECT2
100
AcDbCircle
 10
7.903637271096982
 20
15.26125025057828
 30
0.0
 40
0.0234375
100
AcDbArc
 50
270.0
 51
0.000000000000007
  0
LINE
  5
1858
330
1F
100
AcDbEntity
  8
OBJECT2
100
AcDbLine
 10
7.870824771096991
 20
15.23781275057827
 30
0.0
 11
7.903637271096982
 21
15.23781275057828
 31
0.0
  0
LINE
  5
1859
330
1F
100
AcDbEntity
  8
OBJECT1
100
AcDbLine
 10
7.936449771096988
 20
15.16412525057828
 30
0.0
 11
8.015199771096988
 21
15.16412525057828
 31
0.0
  0
LINE
  5
185A
330
1F
100
AcDbEntity
  8
OBJECT1
100
AcDbLine
 10
7.936449771096988
 20
15.16412525057828
 30
0.0
 11
7.936449771096988
 21
15.20500025057827
 31
0.0
  0
ARC
  5
185B
330
1F
100
AcDbEntity
  8
OBJECT1
100
AcDbCircle
 10
7.870824771096977
 20
15.15812525057827
 30
0.0
 40
0.046875
100
AcDbArc
 50
90.0
 51
180.0000000000002
  0
LINE
  5
185C
330
1F
100
AcDbEntity
  8
OBJECT2
100
AcDbLine
 10
8.077074771096988
 20
15.20500025057827
 30
0.0
 11
8.077074771096988
 21
15.16412525057828
 31
0.0
  0
LINE
  5
185D
330
1F
100
AcDbEntity
  8
OBJECT2
100
AcDbLine
 10
8.015199771096988
 20
15.16412525057828
 30
0.0
 11
8.138949771096989
 21
15.16412525057828
 31
0.0
  0
ARC
  5
185E
330
1F
100
AcDbEntity
  8
OBJECT2
100
AcDbCircle
 10
7.870824771096991
 20
15.15812525057827
 30
0.0
 40
0.0796875
100
AcDbArc
 50
90.0
 51
180.0000000000002
  0
LINE
  5
185F
330
1F
100
AcDbEntity
  8
OBJECT1
100
AcDbLine
 10
8.138949771096989
 20
15.48625025057828
 30
0.0
 11
8.444710885252675
 21
15.48625025057828
 31
0.0
  0
LINE
  5
1860
330
1F
100
AcDbEntity
  8
OBJECT2
100
AcDbLine
 10
8.22707477109698
 20
15.38312525057827
 30
0.0
 11
7.927074771096982
 21
15.38312525057827
 31
0.0
  0
ARC
  5
1861
330
1F
100
AcDbEntity
  8
OBJECT1
100
AcDbCircle
 10
8.444710885252675
 20
15.47500025057828
 30
0.0
 40
0.01125
100
AcDbArc
 50
0.000000000000007
 51
90.0
  0
ARC
  5
1862
330
1F
100
AcDbEntity
  8
OBJECT1
100
AcDbCircle
 10
8.444710885252675
 20
15.39437525057827
 30
0.0
 40
0.01125
100
AcDbArc
 50
270.0
 51
0.000000000000007
  0
LINE
  5
1863
330
1F
100
AcDbEntity
  8
OBJECT1
100
AcDbLine
 10
8.22707477109698
 20
15.38312525057827
 30
0.0
 11
8.444710885252675
 21
15.38312525057827
 31
0.0
  0
LINE
  5
1864
330
1F
100
AcDbEntity
  8
OBJECT1
100
AcDbLine
 10
8.455960885252679
 20
15.47500025057828
 30
0.0
 11
8.455960885252679
 21
15.39437525057827
 31
0.0
  0
LINE
  5
1865
330
1F
100
AcDbEntity
  8
OBJECT2
100
AcDbLine
 10
8.266517828174826
 20
15.48625025057828
 30
0.0
 11
8.266517828174826
 21
15.38312525057827
 31
0.0
  0
LINE
  5
1866
330
1F
100
AcDbEntity
  8
OBJECT2
100
AcDbLine
 10
8.122241413639557
 20
15.51140191308579
 30
0.0
 11
8.031908128554391
 21
15.51140191308579
 31
0.0
  0
LINE
  5
1867
330
1F
100
AcDbEntity
  8
OBJECT2
100
AcDbLine
 10
8.122241413639557
 20
15.56170523810084
 30
0.0
 11
8.031908128554391
 21
15.56170523810084
 31
0.0
  0
LINE
  5
1868
330
1F
100
AcDbEntity
  8
OBJECT2
100
AcDbLine
 10
8.138949771096989
 20
15.53655357559332
 30
0.0
 11
8.015199771096988
 21
15.53655357559332
 31
0.0
  0
LINE
  5
1869
330
1F
100
AcDbEntity
  8
OBJECT2
100
AcDbLine
 10
8.138949771096989
 20
15.58685690060836
 30
0.0
 11
8.015199771096988
 21
15.58685690060836
 31
0.0
  0
LINE
  5
186A
330
1F
100
AcDbEntity
  8
OBJECT2
100
AcDbLine
 10
8.138949771096989
 20
15.48625025057828
 30
0.0
 11
8.015199771096988
 21
15.48625025057828
 31
0.0
  0
LINE
  5
186B
330
1F
100
AcDbEntity
  8
OBJECT2
100
AcDbLine
 10
8.138949771096989
 20
15.58685690060836
 30
0.0
 11
8.015199771096988
 21
15.58685690060836
 31
0.0
  0
LINE
  5
186C
330
1F
100
AcDbEntity
  8
OBJECT2
100
AcDbLine
 10
7.887631714019136
 20
15.48625025057828
 30
0.0
 11
7.887631714019136
 21
15.38312525057827
 31
0.0
  0
LINE
  5
186D
330
1F
100
AcDbEntity
  8
OBJECT2
100
AcDbLine
 10
8.138949771096989
 20
15.83837352568359
 30
0.0
 11
8.015199771096988
 21
15.83837352568359
 31
0.0
  0
LINE
  5
186E
330
1F
100
AcDbEntity
  8
OBJECT2
100
AcDbLine
 10
8.138949771096989
 20
15.78807020066855
 30
0.0
 11
8.015199771096988
 21
15.78807020066855
 31
0.0
  0
LINE
  5
186F
330
1F
100
AcDbEntity
  8
OBJECT2
100
AcDbLine
 10
8.122241413639557
 20
15.81322186317607
 30
0.0
 11
8.031908128554391
 21
15.81322186317607
 31
0.0
  0
LINE
  5
1870
330
1F
100
AcDbEntity
  8
OBJECT2
100
AcDbLine
 10
8.122241413639557
 20
15.71261521314598
 30
0.0
 11
8.031908128554391
 21
15.71261521314598
 31
0.0
  0
LINE
  5
1871
330
1F
100
AcDbEntity
  8
OBJECT2
100
AcDbLine
 10
8.122241413639557
 20
15.76291853816102
 30
0.0
 11
8.031908128554391
 21
15.76291853816102
 31
0.0
  0
LINE
  5
1872
330
1F
100
AcDbEntity
  8
OBJECT2
100
AcDbLine
 10
8.138949771096989
 20
15.7377668756535
 30
0.0
 11
8.015199771096988
 21
15.7377668756535
 31
0.0
  0
LINE
  5
1873
330
1F
100
AcDbEntity
  8
OBJECT2
100
AcDbLine
 10
8.138949771096989
 20
15.68746355063845
 30
0.0
 11
8.015199771096988
 21
15.68746355063845
 31
0.0
  0
LINE
  5
1874
330
1F
100
AcDbEntity
  8
OBJECT2
100
AcDbLine
 10
8.138949771096989
 20
15.63716022562341
 30
0.0
 11
8.015199771096988
 21
15.63716022562341
 31
0.0
  0
LINE
  5
1875
330
1F
100
AcDbEntity
  8
OBJECT2
100
AcDbLine
 10
8.122241413639557
 20
15.61200856311589
 30
0.0
 11
8.031908128554391
 21
15.61200856311589
 31
0.0
  0
LINE
  5
1876
330
1F
100
AcDbEntity
  8
OBJECT2
100
AcDbLine
 10
8.122241413639557
 20
15.66231188813093
 30
0.0
 11
8.031908128554391
 21
15.66231188813093
 31
0.0
  0
LINE
  5
1877
330
1F
100
AcDbEntity
  8
OBJECT1
100
AcDbLine
 10
8.138949771096989
 20
15.93898017571368
 30
0.0
 11
8.015199771096988
 21
15.93898017571368
 31
0.0
  0
LINE
  5
1878
330
1F
100
AcDbEntity
  8
OBJECT2
100
AcDbLine
 10
8.138949771096989
 20
15.88867685069863
 30
0.0
 11
8.015199771096988
 21
15.88867685069863
 31
0.0
  0
LINE
  5
1879
330
1F
100
AcDbEntity
  8
OBJECT2
100
AcDbLine
 10
8.122241413639557
 20
15.91382851320616
 30
0.0
 11
8.031908128554391
 21
15.91382851320616
 31
0.0
  0
LINE
  5
187A
330
1F
100
AcDbEntity
  8
OBJECT2
100
AcDbLine
 10
8.122241413639557
 20
15.86352518819111
 30
0.0
 11
8.031908128554391
 21
15.86352518819111
 31
0.0
  0
ARC
  5
187B
330
1F
100
AcDbEntity
  8
OBJECT1
100
AcDbCircle
 10
7.870824771096977
 20
15.15812525057827
 30
0.0
 40
0.1218749999999997
100
AcDbArc
 50
146.742835847955
 51
180.0000000000002
  0
ARC
  5
187C
330
1F
100
AcDbEntity
  8
OBJECT1
100
AcDbCircle
 10
7.709438656941301
 20
15.47500025057828
 30
0.0
 40
0.01125
100
AcDbArc
 50
90.0
 51
180.0
  0
ARC
  5
187D
330
1F
100
AcDbEntity
  8
OBJECT1
100
AcDbCircle
 10
7.709438656941301
 20
15.39437525057827
 30
0.0
 40
0.01125
100
AcDbArc
 50
180.0
 51
270.0
  0
LINE
  5
187E
330
1F
100
AcDbEntity
  8
OBJECT1
100
AcDbLine
 10
7.698188656941297
 20
15.47500025057828
 30
0.0
 11
7.698188656941297
 21
15.39437525057827
 31
0.0
  0
LINE
  5
187F
330
1F
100
AcDbEntity
  8
OBJECT2
100
AcDbLine
 10
8.72108098812464
 20
17.54418233681896
 30
0.0
 11
8.19598821379553
 21
17.54418233681896
 31
0.0
  0
LINE
  5
1880
330
1F
100
AcDbEntity
  8
OBJECT1
100
AcDbLine
 10
19.9903889493913
 20
12.33279456472628
 30
0.0
 11
19.99038894939128
 21
8.260696762235392
 31
0.0
  0
LINE
  5
1881
330
1F
100
AcDbEntity
  8
OBJECT1
100
AcDbLine
 10
19.2048126676688
 20
7.534599518573898
 30
0.0
 11
19.2048126676688
 21
12.33280048136509
 31
0.0
  0
INSERT
  5
1882
330
1F
100
AcDbEntity
  8
OBJECT2
100
AcDbBlockReference
  2
*X2
 10
56.01770368549465
 20
-4.055792810014878
 30
0.0
 41
-0.4654818478125003
 42
0.4654818478125003
 43
0.4654818478125
1001
ACAD
1000
HATCH
1002
{
1070
    16
1000
AR-CONC
1040
0.35
1040
0.0
1002
}
  0
LINE
  5
1883
330
1F
100
AcDbEntity
  8
OBJECT2
100
AcDbLine
 10
27.25207693521224
 20
11.73337882801739
 30
0.0
 11
27.25207693521224
 21
10.22761484355155
 31
0.0
  0
LINE
  5
1884
330
1F
100
AcDbEntity
  8
OBJECT1
100
AcDbLine
 10
2.919586831808004
 20
16.18092606577367
 30
0.0
 11
2.919586831808004
 21
10.04015377139807
 31
0.0
  0
LINE
  5
1885
330
1F
100
AcDbEntity
  8
OBJECT1
100
AcDbLine
 10
3.035957293761128
 20
9.807412847491828
 30
0.0
 11
3.035957293761114
 21
16.08031941574357
 31
0.0
  0
LINE
  5
1886
330
1F
100
AcDbEntity
  8
OBJECT1
100
AcDbLine
 10
4.189093147937796
 20
13.25982613195779
 30
0.0
 11
4.189093147937796
 21
8.634984082022594
 31
0.0
  0
LINE
  5
1887
330
1F
100
AcDbEntity
  8
OBJECT1
100
AcDbLine
 10
4.65409182559226
 20
13.25979773756507
 30
0.0
 11
4.65409182559226
 21
8.634984082022594
 31
0.0
  0
INSERT
  5
1888
330
1F
100
AcDbEntity
  8
OBJECT2
100
AcDbBlockReference
  2
*X3
 10
31.82232809201208
 20
6.556423762559123
 30
0.0
 41
-0.1875
 42
0.1875
 43
0.1875
1001
ACAD
1000
HATCH
1002
{
1070
    16
1000
AR-CONC
1040
1.0
1040
0.0
1002
}
  0
LINE
  5
1889
330
1F
100
AcDbEntity
  8
OBJECT1
100
AcDbLine
 10
19.2048126676688
 20
7.534599518573898
 30
0.0
 11
25.89546190183465
 21
7.534599518573898
 31
0.0
  0
LINE
  5
188A
330
1F
100
AcDbEntity
  8
OBJECT1
100
AcDbLine
 10
25.86357437760146
 20
8.260696762235408
 30
0.0
 11
19.2048126676688
 21
8.26069676223539
 31
0.0
  0
TEXT
  5
188B
330
1F
100
AcDbEntity
  8
TEXT
100
AcDbText
 10
19.74834782208121
 20
4.804995556414461
 30
0.0
 40
0.28125
  1
DOUBLE CHECK VALVE ASSEMBLY
  7
ROMANS
 72
     1
 11
23.35772282208121
 21
4.945620556414461
 31
0.0
100
AcDbText
 73
     2
  0
TEXT
  5
188C
330
1F
100
AcDbEntity
  8
TEXT
100
AcDbText
 10
19.67468710779551
 20
4.33060269431774
 30
0.0
 40
0.28125
  1
INDOOR HORIZONTAL INSTALLATION
  7
ROMANS
 72
     1
 11
23.35772282208123
 21
4.47122769431774
 31
0.0
100
AcDbText
 73
     2
  0
TEXT
  5
188D
330
1F
100
AcDbEntity
  8
TEXT
100
AcDbText
 10
17.69254425065265
 20
5.325458896054854
 30
0.0
 40
0.5625
  1
WILKINS MODEL 950XLOSY
  7
ROMANS
 72
     1
 11
23.35772282208123
 21
5.606708896054854
 31
0.0
100
AcDbText
 73
     2
  0
LINE
  5
188E
330
1F
100
AcDbEntity
  8
OBJECT1
100
AcDbLine
 10
4.128038221369479
 20
8.504209284288911
 30
0.0
 11
4.12800982697675
 21
8.434631385087136
 31
0.0
  0
LINE
  5
188F
330
1F
100
AcDbEntity
  8
OBJECT1
100
AcDbLine
 10
4.715061568982434
 20
8.504209284288911
 30
0.0
 11
4.715061568982434
 21
8.434617420631703
 31
0.0
  0
LINE
  5
1890
330
1F
100
AcDbEntity
  8
OBJECT1
100
AcDbLine
 10
3.828049134909747
 20
8.262305815690318
 30
0.0
 11
2.339665532589805
 21
8.262334210083036
 31
0.0
  0
LINE
  5
1891
330
1F
100
AcDbEntity
  8
OBJECT1
100
AcDbLine
 10
3.828049134909747
 20
7.797321102491284
 30
0.0
 11
2.339665532589805
 21
7.797349496884002
 31
0.0
  0
ARC
  5
1892
330
1F
100
AcDbEntity
  8
OBJECT1
100
AcDbCircle
 10
4.016803886125103
 20
8.434609041958442
 30
0.0
 40
0.6982572173754881
100
AcDbArc
 50
270.000519
 51
0.0006559999999801
  0
LINE
  5
1893
330
1F
100
AcDbEntity
  8
OBJECT2
100
AcDbLine
 10
3.944391202470143
 20
8.337807436887356
 30
0.0
 11
3.944419596862871
 21
7.721919094409678
 31
0.0
  0
LINE
  5
1894
330
1F
100
AcDbEntity
  8
OBJECT2
100
AcDbLine
 10
3.828049134909747
 20
8.262305815690318
 30
0.0
 11
3.828049134909747
 21
7.797321102491281
 31
0.0
  0
LINE
  5
1895
330
1F
100
AcDbEntity
  8
OBJECT2
100
AcDbLine
 10
3.758244080566242
 20
7.797306905294922
 30
0.0
 11
3.758215686173528
 21
8.26234840727939
 31
0.0
  0
LINE
  5
1896
330
1F
100
AcDbEntity
  8
OBJECT2
100
AcDbLine
 10
3.723355750590854
 20
7.841997352021554
 30
0.0
 11
3.723355750590854
 21
8.217672390490044
 31
0.0
  0
LINE
  5
1897
330
1F
100
AcDbEntity
  8
OBJECT2
100
AcDbLine
 10
3.793132410541645
 20
7.841997352021554
 30
0.0
 11
3.793132410541645
 21
8.217672390490044
 31
0.0
  0
LINE
  5
1898
330
1F
100
AcDbEntity
  8
OBJECT1
100
AcDbLine
 10
3.929986866689603
 20
7.704063210727593
 30
0.0
 11
3.842481865083016
 21
7.704048780790309
 31
0.0
  0
ARC
  5
1899
330
1F
100
AcDbEntity
  8
OBJECT1
100
AcDbCircle
 10
3.929991521508071
 20
7.718491751564236
 30
0.0
 40
0.0144285408366441
100
AcDbArc
 50
269.9823610000001
 51
359.903046
  0
LINE
  5
189A
330
1F
100
AcDbEntity
  8
OBJECT1
100
AcDbLine
 10
3.944419596862871
 20
7.7184670810263
 30
0.0
 11
3.944419596862871
 21
7.721919094409678
 31
0.0
  0
ARC
  5
189B
330
1F
100
AcDbEntity
  8
OBJECT1
100
AcDbCircle
 10
3.842527016822259
 20
7.718526197220974
 30
0.0
 40
0.0144774164306644
100
AcDbArc
 50
180.177429
 51
269.8208009999998
  0
LINE
  5
189C
330
1F
100
AcDbEntity
  8
OBJECT1
100
AcDbLine
 10
3.828049134909747
 20
7.797321102491284
 30
0.0
 11
3.828049134909747
 21
7.718481510963584
 31
0.0
  0
LINE
  5
189D
330
1F
100
AcDbEntity
  8
OBJECT1
100
AcDbLine
 10
3.95885232703614
 20
7.736351824582953
 30
0.0
 11
4.016810402870973
 21
7.736351824582953
 31
0.0
  0
ARC
  5
189E
330
1F
100
AcDbEntity
  8
OBJECT1
100
AcDbCircle
 10
3.958848137699504
 20
7.72192328374631
 30
0.0
 40
0.0144285408366441
100
AcDbArc
 50
89.98237599999987
 51
180.0158690000001
  0
ARC
  5
189F
330
1F
100
AcDbEntity
  8
OBJECT1
100
AcDbCircle
 10
4.016750821194449
 20
8.434634177978225
 30
0.0
 40
0.1112590057822959
100
AcDbArc
 50
270.0013730000001
 51
359.9986270000001
  0
LINE
  5
18A0
330
1F
100
AcDbEntity
  8
OBJECT1
100
AcDbLine
 10
3.929986866689603
 20
8.355677750506721
 30
0.0
 11
3.842453470690301
 21
8.355677750506721
 31
0.0
  0
ARC
  5
18A1
330
1F
100
AcDbEntity
  8
OBJECT1
100
AcDbCircle
 10
3.930010140781988
 20
8.341297619782253
 30
0.0
 40
0.0143801307244716
100
AcDbArc
 50
359.8478999999999
 51
90.09197200000008
  0
LINE
  5
18A2
330
1F
100
AcDbEntity
  8
OBJECT1
100
AcDbLine
 10
3.944391202470143
 20
8.341259450270733
 30
0.0
 11
3.944391202470143
 21
8.337807436887356
 31
0.0
  0
ARC
  5
18A3
330
1F
100
AcDbEntity
  8
OBJECT1
100
AcDbCircle
 10
3.842409249914766
 20
8.341346029894424
 30
0.0
 40
0.0143321860941469
100
AcDbArc
 50
89.82253299999992
 51
180.1756900000001
  0
LINE
  5
18A4
330
1F
100
AcDbEntity
  8
OBJECT1
100
AcDbLine
 10
3.828049134909747
 20
8.262305815690318
 30
0.0
 11
3.828049134909747
 21
8.341259450270733
 31
0.0
  0
LINE
  5
18A5
330
1F
100
AcDbEntity
  8
OBJECT1
100
AcDbLine
 10
3.95885232703614
 20
8.323403101106796
 30
0.0
 11
4.01675361408553
 21
8.32337470671408
 31
0.0
  0
ARC
  5
18A6
330
1F
100
AcDbEntity
  8
OBJECT1
100
AcDbCircle
 10
3.958819743306804
 20
8.337832107425288
 30
0.0
 40
0.0144285408366441
100
AcDbArc
 50
180.0969539999999
 51
270.1304320000001
  0
LINE
  5
18A7
330
1F
100
AcDbEntity
  8
OBJECT1
100
AcDbLine
 10
2.264831877844372
 20
7.829880161300227
 30
0.0
 11
2.219914275976009
 21
7.91191621667685
 31
0.0
  0
LINE
  5
18A8
330
1F
100
AcDbEntity
  8
OBJECT2
100
AcDbLine
 10
2.38276496236061
 20
7.945426720382723
 30
0.0
 11
2.38276496236061
 21
7.885266915407736
 31
0.0
  0
LINE
  5
18A9
330
1F
100
AcDbEntity
  8
OBJECT2
100
AcDbLine
 10
2.38276496236061
 20
7.885266915407736
 30
0.0
 11
2.339665532589805
 21
7.797349496884002
 31
0.0
  0
LINE
  5
18AA
330
1F
100
AcDbEntity
  8
OBJECT1
100
AcDbLine
 10
2.339665532589805
 20
7.797349496884002
 30
0.0
 11
2.264831877844372
 21
7.829880161300227
 31
0.0
  0
LINE
  5
18AB
330
1F
100
AcDbEntity
  8
OBJECT1
100
AcDbLine
 10
2.264831877844372
 20
8.229804011148658
 30
0.0
 11
2.219914275976009
 21
8.147767955772032
 31
0.0
  0
LINE
  5
18AC
330
1F
100
AcDbEntity
  8
OBJECT1
100
AcDbLine
 10
2.219914275976009
 20
7.91191621667685
 30
0.0
 11
2.219914275976009
 21
7.989179221186006
 31
0.0
  0
LINE
  5
18AD
330
1F
100
AcDbEntity
  8
OBJECT1
100
AcDbLine
 10
2.219914275976009
 20
7.989179221186006
 30
0.0
 11
2.253609575975474
 21
8.065731900395405
 31
0.0
  0
LINE
  5
18AE
330
1F
100
AcDbEntity
  8
OBJECT2
100
AcDbLine
 10
2.326596664230606
 20
8.021993364047553
 30
0.0
 11
2.38276496236061
 21
7.945426720382723
 31
0.0
  0
LINE
  5
18AF
330
1F
100
AcDbEntity
  8
OBJECT2
100
AcDbLine
 10
2.253609575975474
 20
8.065731900395405
 30
0.0
 11
2.326596664230606
 21
8.021993364047553
 31
0.0
  0
LINE
  5
18B0
330
1F
100
AcDbEntity
  8
OBJECT1
100
AcDbLine
 10
2.219914275976009
 20
8.147767955772032
 30
0.0
 11
2.253609575975474
 21
8.065731900395405
 31
0.0
  0
LINE
  5
18B1
330
1F
100
AcDbEntity
  8
OBJECT1
100
AcDbLine
 10
2.339665532589805
 20
8.262334210083036
 30
0.0
 11
2.264831877844372
 21
8.229804011148658
 31
0.0
  0
LINE
  5
18B2
330
1F
100
AcDbEntity
  8
OBJECT1
100
AcDbLine
 10
4.189093147937796
 20
9.800878413312236
 30
0.0
 11
3.035957293761128
 21
9.800878413312233
 31
0.0
  0
LINE
  5
18B3
330
1F
100
AcDbEntity
  8
OBJECT2
100
AcDbLine
 10
4.654134649922269
 20
8.704817996240663
 30
0.0
 11
4.189093147937796
 21
8.704789601847942
 31
0.0
  0
LINE
  5
18B4
330
1F
100
AcDbEntity
  8
OBJECT2
100
AcDbLine
 10
4.189093147937796
 20
8.634984082022594
 30
0.0
 11
4.654134649922269
 21
8.634984082022594
 31
0.0
  0
LINE
  5
18B5
330
1F
100
AcDbEntity
  8
OBJECT2
100
AcDbLine
 10
4.609444203195621
 20
8.669929666265268
 30
0.0
 11
4.233769164727135
 21
8.669929666265268
 31
0.0
  0
LINE
  5
18B6
330
1F
100
AcDbEntity
  8
OBJECT2
100
AcDbLine
 10
4.114202238925088
 20
8.518613620069467
 30
0.0
 11
4.732931882601803
 21
8.51862805000675
 31
0.0
  0
LINE
  5
18B7
330
1F
100
AcDbEntity
  8
OBJECT1
100
AcDbLine
 10
4.747364612775086
 20
8.533031920305461
 30
0.0
 11
4.747364612775086
 21
8.620537387393884
 31
0.0
  0
ARC
  5
18B8
330
1F
100
AcDbEntity
  8
OBJECT1
100
AcDbCircle
 10
4.732886730862574
 20
8.533105000955567
 30
0.0
 40
0.01447834739436
100
AcDbArc
 50
270.1791990000001
 51
359.711884
  0
LINE
  5
18B9
330
1F
100
AcDbEntity
  8
OBJECT1
100
AcDbLine
 10
4.732931882601803
 20
8.51862805000675
 30
0.0
 11
4.729465904763003
 21
8.51862805000675
 31
0.0
  0
ARC
  5
18BA
330
1F
100
AcDbEntity
  8
OBJECT1
100
AcDbCircle
 10
4.729513849393327
 20
8.504174838632174
 30
0.0
 40
0.0144522804108825
100
AcDbArc
 50
90.19006300000006
 51
179.862727
  0
ARC
  5
18BB
330
1F
100
AcDbEntity
  8
OBJECT1
100
AcDbCircle
 10
4.732862525806481
 20
8.620481995053996
 30
0.0
 40
0.0145020869685985
100
AcDbArc
 50
0.2174839999999684
 51
89.7264020000002
  0
LINE
  5
18BC
330
1F
100
AcDbEntity
  8
OBJECT1
100
AcDbLine
 10
4.65409182559226
 20
8.634984082022594
 30
0.0
 11
4.732931882601803
 21
8.634984082022594
 31
0.0
  0
LINE
  5
18BD
330
1F
100
AcDbEntity
  8
OBJECT1
100
AcDbLine
 10
4.095678388791384
 20
8.533031920305461
 30
0.0
 11
4.095678388791384
 21
8.620565781786602
 31
0.0
  0
ARC
  5
18BE
330
1F
100
AcDbEntity
  8
OBJECT1
100
AcDbCircle
 10
4.110230282317701
 20
8.533179943533065
 30
0.0
 40
0.0145523590081622
100
AcDbArc
 50
180.582031
 51
269.5315860000001
  0
LINE
  5
18BF
330
1F
100
AcDbEntity
  8
OBJECT1
100
AcDbLine
 10
4.110111118964667
 20
8.51862805000675
 30
0.0
 11
4.113605956678043
 21
8.518642014462184
 31
0.0
  0
ARC
  5
18C0
330
1F
100
AcDbEntity
  8
OBJECT1
100
AcDbCircle
 10
4.113560339456967
 20
8.504164598031522
 30
0.0
 40
0.0144778819125122
100
AcDbArc
 50
0.1774290000000587
 51
89.82080799999994
  0
ARC
  5
18C1
330
1F
100
AcDbEntity
  8
OBJECT1
100
AcDbCircle
 10
4.110229351354007
 20
8.620461979334539
 30
0.0
 40
0.0145509625626188
100
AcDbArc
 50
90.35308800000001
 51
179.5909759999999
  0
LINE
  5
18C2
330
1F
100
AcDbEntity
  8
OBJECT1
100
AcDbLine
 10
4.189093147937796
 20
8.634984082022594
 30
0.0
 11
4.11016790775011
 21
8.634984082022594
 31
0.0
  0
LINE
  5
18C3
330
1F
100
AcDbEntity
  8
OBJECT2
100
AcDbLine
 10
4.609444203195621
 20
8.739706326216058
 30
0.0
 11
4.233769164727135
 21
8.739706326216058
 31
0.0
  0
LINE
  5
18C4
102
{ACAD_REACTORS
330
1C5A
102
}
330
1F
100
AcDbEntity
  8
OBJECT1
100
AcDbLine
 10
3.035957293761128
 20
8.941586645687415
 30
0.0
 11
3.035957293761128
 21
9.807412847491828
 31
0.0
  0
LINE
  5
18C5
102
{ACAD_REACTORS
330
1C5A
102
}
330
1F
100
AcDbEntity
  8
OBJECT1
100
AcDbLine
 10
1.498234955139778
 20
9.800878413312236
 30
0.0
 11
1.498234955139778
 21
8.941586645687415
 31
0.0
  0
LINE
  5
18C6
102
{ACAD_REACTORS
330
1C5A
102
}
330
1F
100
AcDbEntity
  8
OBJECT1
100
AcDbLine
 10
3.035957293761128
 20
8.941586645687415
 30
0.0
 11
1.498234955139778
 21
8.941586645687415
 31
0.0
  0
LINE
  5
18C7
330
1F
100
AcDbEntity
  8
OBJECT1
100
AcDbLine
 10
2.919586831808004
 20
10.04015377139807
 30
0.0
 11
2.147524674570746
 21
10.04015377139807
 31
0.0
  0
LINE
  5
18C8
330
1F
100
AcDbEntity
  8
OBJECT1
100
AcDbLine
 10
2.147524674570746
 20
10.04015377139807
 30
0.0
 11
2.147524674570746
 21
9.800878413312236
 31
0.0
  0
LINE
  5
18C9
330
1F
100
AcDbEntity
  8
OBJECT2
100
AcDbLine
 10
27.14882763777383
 20
8.71590735797482
 30
0.0
 11
27.25207693521224
 21
8.260696762235401
 31
0.0
  0
LINE
  5
18CA
330
1F
100
AcDbEntity
  8
OBJECT2
100
AcDbLine
 10
27.25207693521224
 20
8.260696762235394
 30
0.0
 11
27.25207693521224
 21
9.334841620532738
 31
0.0
  0
LINE
  5
18CB
330
1F
100
AcDbEntity
  8
OBJECT2
100
AcDbLine
 10
27.25207693521224
 20
8.260696762235394
 30
0.0
 11
27.35532623265065
 21
8.71590735797482
 31
0.0
  0
LINE
  5
18CC
330
1F
100
AcDbEntity
  8
OBJECT2
100
AcDbLine
 10
27.78319385877569
 20
8.260760765989477
 30
0.0
 11
26.13418217404394
 21
8.260696762235401
 31
0.0
  0
LINE
  5
18CD
330
1F
100
AcDbEntity
  8
OBJECT1
100
AcDbLine
 10
25.99112424425773
 20
8.11836884800344
 30
0.0
 11
25.62441840640555
 21
7.783729452055155
 31
0.0
  0
LINE
  5
18CE
330
1F
100
AcDbEntity
  8
OBJECT1
100
AcDbLine
 10
25.62441840640555
 20
7.783729452055155
 30
0.0
 11
25.89546190183465
 21
7.534599518573898
 31
0.0
  0
LINE
  5
18CF
330
1F
100
AcDbEntity
  8
OBJECT1
100
AcDbLine
 10
25.86357437760146
 20
8.260696762235394
 30
0.0
 11
25.99112424425773
 21
8.11836884800344
 31
0.0
  0
TEXT
  5
18D0
330
1F
100
AcDbEntity
  8
TEXT
100
AcDbText
 10
26.20033509989832
 20
9.878739306831231
 30
0.0
 40
0.349111385859375
  1
12" MIN.
  7
ROMANS
 72
     1
 11
27.37235189528337
 21
10.05329499976092
 31
0.0
100
AcDbText
 73
     2
  0
TEXT
  5
18D1
330
1F
100
AcDbEntity
  8
TEXT
100
AcDbText
 10
26.05902811038382
 20
9.368287307737841
 30
0.0
 40
0.349111385859375
  1
30" MAX.
  7
ROMANS
 72
     1
 11
27.27260578503784
 21
9.542843000667527
 31
0.0
100
AcDbText
 73
     2
  0
LINE
  5
18D2
330
1F
100
AcDbEntity
  8
OBJECT2
100
AcDbLine
 10
27.35532623265065
 20
8.71590735797482
 30
0.0
 11
27.14882763777383
 21
8.71590735797482
 31
0.0
  0
LINE
  5
18D3
330
1F
100
AcDbEntity
  8
OBJECT2
100
AcDbLine
 10
27.78319385877569
 20
11.73192193016566
 30
0.0
 11
23.72143902866027
 21
11.73198593391974
 31
0.0
  0
LINE
  5
18D4
330
1F
100
AcDbEntity
  8
OBJECT1
100
AcDbLine
 10
27.99267748869523
 20
12.79786497645721
 30
0.0
 11
24.41764910659334
 21
12.79789559464634
 31
0.0
  0
LINE
  5
18D5
330
1F
100
AcDbEntity
  8
OBJECT1
100
AcDbLine
 10
27.9928194606588
 20
12.33280904453546
 30
0.0
 11
24.41764910659334
 21
12.33280904453546
 31
0.0
  0
LINE
  5
18D6
330
1F
100
AcDbEntity
  8
OBJECT1
100
AcDbLine
 10
5.433422888665404
 20
15.15763788228297
 30
0.0
 11
5.433422888665404
 21
14.83888788228296
 31
0.0
  0
LINE
  5
18D7
330
1F
100
AcDbEntity
  8
OBJECT2
100
AcDbLine
 10
5.475610388665401
 20
15.15763788228297
 30
0.0
 11
5.475610388665415
 21
14.83888788228297
 31
0.0
  0
LINE
  5
18D8
330
1F
100
AcDbEntity
  8
OBJECT1
100
AcDbLine
 10
5.508422888665393
 20
15.15763788228297
 30
0.0
 11
5.508422888665393
 21
14.83888788228296
 31
0.0
  0
LINE
  5
18D9
330
1F
100
AcDbEntity
  8
OBJECT1
100
AcDbLine
 10
5.823422888665405
 20
15.16363788228297
 30
0.0
 11
5.823422888665405
 21
14.96076288228296
 31
0.0
  0
LINE
  5
18DA
330
1F
100
AcDbEntity
  8
OBJECT1
100
AcDbLine
 10
5.699672888665389
 20
15.16363788228297
 30
0.0
 11
5.699672888665389
 21
14.96076288228296
 31
0.0
  0
LINE
  5
18DB
330
1F
100
AcDbEntity
  8
OBJECT2
100
AcDbLine
 10
6.047485388665393
 20
15.15763788228297
 30
0.0
 11
6.047485388665393
 21
14.83888788228297
 31
0.0
  0
LINE
  5
18DC
330
1F
100
AcDbEntity
  8
OBJECT1
100
AcDbLine
 10
6.014672888665415
 20
15.15763788228297
 30
0.0
 11
6.014672888665415
 21
14.83888788228297
 31
0.0
  0
LINE
  5
18DD
330
1F
100
AcDbEntity
  8
OBJECT1
100
AcDbLine
 10
6.089672888665404
 20
15.15763788228297
 30
0.0
 11
6.089672888665404
 21
14.83888788228297
 31
0.0
  0
LINE
  5
18DE
330
1F
100
AcDbEntity
  8
OBJECT2
100
AcDbLine
 10
5.499040417462538
 20
14.03491584139857
 30
0.0
 11
5.480297888665404
 21
13.92162319186004
 31
0.0
  0
LINE
  5
18DF
330
1F
100
AcDbEntity
  8
OBJECT2
100
AcDbLine
 10
5.574047888665404
 20
14.03491584139857
 30
0.0
 11
5.592790417462538
 21
13.92162319186004
 31
0.0
  0
LINE
  5
18E0
330
1F
100
AcDbEntity
  8
OBJECT2
100
AcDbLine
 10
5.375609472291955
 20
13.67696978600432
 30
0.0
 11
5.375637866684684
 21
14.05264482447281
 31
0.0
  0
LINE
  5
18E1
330
1F
100
AcDbEntity
  8
OBJECT2
100
AcDbLine
 10
5.445386132242745
 20
13.67699818039703
 30
0.0
 11
5.445386132242745
 21
14.05267321886552
 31
0.0
  0
LINE
  5
18E2
330
1F
100
AcDbEntity
  8
OBJECT2
100
AcDbLine
 10
5.410497802267343
 20
13.6323077336704
 30
0.0
 11
5.410497802267343
 21
14.09733527119944
 31
0.0
  0
LINE
  5
18E3
330
1F
100
AcDbEntity
  8
OBJECT2
100
AcDbLine
 10
5.480274462218133
 20
13.6323077336704
 30
0.0
 11
5.480274462218133
 21
14.09752014746954
 31
0.0
  0
LINE
  5
18E4
330
1F
100
AcDbEntity
  8
OBJECT2
100
AcDbLine
 10
5.084941358445675
 20
13.63248135693861
 30
0.0
 11
5.084941358445675
 21
14.09750889446765
 31
0.0
  0
LINE
  5
18E5
330
1F
100
AcDbEntity
  8
OBJECT2
100
AcDbLine
 10
5.050053028470273
 20
13.67717180366524
 30
0.0
 11
5.050053028470273
 21
14.05284684213373
 31
0.0
  0
LINE
  5
18E6
330
1F
100
AcDbEntity
  8
OBJECT2
100
AcDbLine
 10
5.119829688421063
 20
13.67714340927252
 30
0.0
 11
5.119801294028349
 21
14.05281844774102
 31
0.0
  0
LINE
  5
18E7
330
1F
100
AcDbEntity
  8
OBJECT2
100
AcDbLine
 10
4.898793771059899
 20
13.55700277709304
 30
0.0
 11
4.898765376667185
 21
14.17289111957071
 31
0.0
  0
LINE
  5
18E8
330
1F
100
AcDbEntity
  8
OBJECT2
100
AcDbLine
 10
5.015135838620324
 20
13.6324957868759
 30
0.0
 11
5.015135838620324
 21
14.09749446453037
 31
0.0
  0
ARC
  5
18E9
330
1F
100
AcDbEntity
  8
OBJECT1
100
AcDbCircle
 10
4.82638015644126
 20
13.4602016375038
 30
0.0
 40
0.6982567518936404
100
AcDbArc
 50
90.00043499999982
 51
180.0007019999999
  0
LINE
  5
18EA
330
1F
100
AcDbEntity
  8
OBJECT2
100
AcDbLine
 10
6.103797975137183
 20
13.97439689661238
 30
0.0
 11
6.103736984302074
 21
13.75502189751885
 31
0.0
  0
LINE
  5
18EB
330
1F
100
AcDbEntity
  8
OBJECT2
100
AcDbLine
 10
5.627207381321355
 20
14.27698636509204
 30
0.0
 11
5.627207381321355
 21
13.87959266292297
 31
0.0
  0
LINE
  5
18EC
330
1F
100
AcDbEntity
  8
OBJECT2
100
AcDbLine
 10
5.895888396009453
 20
14.27698636509204
 30
0.0
 11
5.895888396009453
 21
13.87959266292297
 31
0.0
  0
LINE
  5
18ED
330
1F
100
AcDbEntity
  8
OBJECT2
100
AcDbLine
 10
6.02405535986827
 20
14.03491584139857
 30
0.0
 11
6.042797888665404
 21
13.92162319186004
 31
0.0
  0
LINE
  5
18EE
330
1F
100
AcDbEntity
  8
OBJECT2
100
AcDbLine
 10
5.949047888665404
 20
14.03491584139857
 30
0.0
 11
5.93030535986827
 21
13.92162319186004
 31
0.0
  0
LINE
  5
18EF
330
1F
100
AcDbEntity
  8
OBJECT2
100
AcDbLine
 10
6.235044298546668
 20
13.96115450006258
 30
0.0
 11
6.234986987173385
 21
13.75501398006213
 31
0.0
  0
LINE
  5
18F0
330
1F
100
AcDbEntity
  8
OBJECT2
100
AcDbLine
 10
6.058567287576209
 20
14.07736534718168
 30
0.0
 11
6.058567287576209
 21
13.65226673386695
 31
0.0
  0
LINE
  5
18F1
330
1F
100
AcDbEntity
  8
OBJECT2
100
AcDbLine
 10
6.074153145131504
 20
13.63231601349197
 30
0.0
 11
6.074282973164571
 21
14.09731606755666
 31
0.0
  0
LINE
  5
18F2
330
1F
100
AcDbEntity
  8
OBJECT2
100
AcDbLine
 10
6.042862733319836
 20
14.09730733224915
 30
0.0
 11
6.042733061816107
 21
13.63230727822798
 31
0.0
  0
ARC
  5
18F3
330
1F
100
AcDbEntity
  8
OBJECT1
100
AcDbCircle
 10
4.826435083299301
 20
13.46017603600216
 30
0.0
 40
0.1112594712641437
100
AcDbArc
 50
90.00183099999985
 51
179.9983999999999
  0
LINE
  5
18F4
330
1F
100
AcDbEntity
  8
OBJECT1
100
AcDbLine
 10
5.489672888665396
 20
13.54777655176983
 30
0.0
 11
5.56844997993808
 21
13.54777655176983
 31
0.0
  0
LINE
  5
18F5
330
1F
100
AcDbEntity
  8
OBJECT2
100
AcDbLine
 10
5.574047888665404
 20
13.69469876907855
 30
0.0
 11
5.499040417462538
 21
13.69469876907855
 31
0.0
  0
LINE
  5
18F6
330
1F
100
AcDbEntity
  8
OBJECT2
100
AcDbLine
 10
5.574047888665404
 20
13.69469876907855
 30
0.0
 11
5.59285526211697
 21
13.63230727822798
 31
0.0
  0
LINE
  5
18F7
330
1F
100
AcDbEntity
  8
OBJECT2
100
AcDbLine
 10
6.02405535986827
 20
13.69469876907855
 30
0.0
 11
6.042862733319836
 21
13.63230727822798
 31
0.0
  0
LINE
  5
18F8
330
1F
100
AcDbEntity
  8
OBJECT2
100
AcDbLine
 10
5.949047888665404
 20
13.69469876907855
 30
0.0
 11
5.930240515213839
 21
13.63230727822798
 31
0.0
  0
ARC
  5
18F9
330
1F
100
AcDbEntity
  8
OBJECT1
100
AcDbCircle
 10
5.761547888665404
 20
13.99741105592675
 30
0.0
 40
0.4496345041569306
100
AcDbArc
 50
249.6624761045531
 51
290.3375238954467
  0
LINE
  5
18FA
330
1F
100
AcDbEntity
  8
OBJECT1
100
AcDbLine
 10
5.954645797392728
 20
13.54777655176983
 30
0.0
 11
6.033422888665398
 21
13.54777655176983
 31
0.0
  0
LINE
  5
18FB
330
1F
100
AcDbEntity
  8
OBJECT1
100
AcDbLine
 10
6.033422888665398
 20
13.54777655176983
 30
0.0
 11
6.042797888665404
 21
13.56652655176982
 31
0.0
  0
LINE
  5
18FC
330
1F
100
AcDbEntity
  8
OBJECT1
100
AcDbLine
 10
6.042797888665404
 20
13.56652655176982
 30
0.0
 11
6.042797888665404
 21
13.63230729625084
 31
0.0
  0
LINE
  5
18FD
330
1F
100
AcDbEntity
  8
OBJECT1
100
AcDbLine
 10
5.945671896926782
 20
13.55224189183529
 30
0.0
 11
5.930702113356275
 21
13.57204205117339
 31
0.0
  0
ARC
  5
18FE
330
1F
100
AcDbEntity
  8
OBJECT1
100
AcDbCircle
 10
5.954645797392728
 20
13.55902655176983
 30
0.0
 40
0.01125
100
AcDbArc
 50
217.090869772526
 51
270.0
  0
ARC
  5
18FF
330
1F
100
AcDbEntity
  8
OBJECT1
100
AcDbCircle
 10
5.921728212890329
 20
13.56525739123886
 30
0.0
 40
0.01125
100
AcDbArc
 50
37.09086977252655
 51
110.3375238954463
  0
ARC
  5
1900
330
1F
100
AcDbEntity
  8
OBJECT1
  6
CONTINUOUS
100
AcDbCircle
 10
6.215941781568147
 20
13.62110543246795
 30
0.0
 40
0.01125
100
AcDbArc
 50
56.89750683576958
 51
90.01592910310113
  0
LINE
  5
1901
330
1F
100
AcDbEntity
  8
OBJECT1
  6
CONTINUOUS
100
AcDbLine
 10
6.215938653896103
 20
13.63235543203318
 30
0.0
 11
6.042733061816107
 21
13.63230727822798
 31
0.0
  0
LINE
  5
1902
330
1F
100
AcDbEntity
  8
OBJECT1
100
AcDbLine
 10
5.577423880404026
 20
13.55224189183529
 30
0.0
 11
5.592393663974519
 21
13.57204205117339
 31
0.0
  0
ARC
  5
1903
330
1F
100
AcDbEntity
  8
OBJECT1
100
AcDbCircle
 10
5.56844997993808
 20
13.55902655176983
 30
0.0
 40
0.01125
100
AcDbArc
 50
270.0
 51
322.9091302274739
  0
ARC
  5
1904
330
1F
100
AcDbEntity
  8
OBJECT1
100
AcDbCircle
 10
5.601367564440465
 20
13.56525739123886
 30
0.0
 40
0.01125
100
AcDbArc
 50
69.66247610455361
 51
142.9091302274734
  0
ARC
  5
1905
330
1F
100
AcDbEntity
  8
OBJECT2
  6
CONTINUOUS
100
AcDbCircle
 10
6.114986983867282
 20
13.75501876978383
 30
0.0
 40
0.01125
100
AcDbArc
 50
179.9840705761124
 51
269.9991243694822
  0
ARC
  5
1906
330
1F
100
AcDbEntity
  8
OBJECT2
100
AcDbCircle
 10
6.223736987608162
 20
13.75501710779716
 30
0.0
 40
0.01125
100
AcDbArc
 50
269.9991243694818
 51
359.9840705761126
  0
LINE
  5
1907
330
1F
100
AcDbEntity
  8
OBJECT2
100
AcDbLine
 10
6.114986811937626
 20
13.74376876978514
 30
0.0
 11
6.22373681567852
 21
13.74376710779848
 31
0.0
  0
LINE
  5
1908
330
1F
100
AcDbEntity
  8
OBJECT2
100
AcDbLine
 10
5.949047888665404
 20
13.69469876907855
 30
0.0
 11
6.02405535986827
 21
13.69469876907855
 31
0.0
  0
LINE
  5
1909
330
1F
100
AcDbEntity
  8
OBJECT2
100
AcDbLine
 10
5.949047888665404
 20
13.69469876907855
 30
0.0
 11
5.93030535986827
 21
13.80799141861708
 31
0.0
  0
LINE
  5
190A
330
1F
100
AcDbEntity
  8
OBJECT2
100
AcDbLine
 10
6.02405535986827
 20
13.69469876907855
 30
0.0
 11
6.042797888665404
 21
13.80799141861708
 31
0.0
  0
LINE
  5
190B
330
1F
100
AcDbEntity
  8
OBJECT2
100
AcDbLine
 10
5.574047888665404
 20
13.69469876907855
 30
0.0
 11
5.592790417462538
 21
13.80799141861708
 31
0.0
  0
LINE
  5
190C
330
1F
100
AcDbEntity
  8
OBJECT2
100
AcDbLine
 10
5.499040417462538
 20
13.69469876907855
 30
0.0
 11
5.480233044010958
 21
13.63230727822798
 31
0.0
  0
LINE
  5
190D
330
1F
100
AcDbEntity
  8
OBJECT1
100
AcDbLine
 10
5.015135838620324
 20
13.63250113991715
 30
0.0
 11
5.480297888665404
 21
13.63247218003768
 31
0.0
  0
LINE
  5
190E
330
1F
100
AcDbEntity
  8
OBJECT1
100
AcDbLine
 10
5.489672888665396
 20
13.54777655176983
 30
0.0
 11
5.480297888665404
 21
13.56652655176982
 31
0.0
  0
LINE
  5
190F
330
1F
100
AcDbEntity
  8
OBJECT1
100
AcDbLine
 10
5.480297888665404
 20
13.56652655176982
 30
0.0
 11
5.480297888665404
 21
13.63324872309333
 31
0.0
  0
ARC
  5
1910
330
1F
100
AcDbEntity
  8
OBJECT1
100
AcDbCircle
 10
4.913174367266222
 20
13.55351259419814
 30
0.0
 40
0.0143801307244716
100
AcDbArc
 50
179.8478909999999
 51
270.0955199999999
  0
ARC
  5
1911
330
1F
100
AcDbEntity
  8
OBJECT1
100
AcDbCircle
 10
5.000775258133444
 20
13.55346464956781
 30
0.0
 40
0.0143321860941469
100
AcDbArc
 50
269.8260799999999
 51
0.1739199999999241
  0
LINE
  5
1912
330
1F
100
AcDbEntity
  8
OBJECT1
100
AcDbLine
 10
4.898793771059899
 20
13.55355076370966
 30
0.0
 11
4.898793771059899
 21
13.55700277709304
 31
0.0
  0
ARC
  5
1913
330
1F
100
AcDbEntity
  8
OBJECT1
100
AcDbCircle
 10
4.884365695705099
 20
13.55697857203695
 30
0.0
 40
0.0144285408366441
100
AcDbArc
 50
0.0969539999999413
 51
90.13044699999982
  0
LINE
  5
1914
330
1F
100
AcDbEntity
  8
OBJECT1
100
AcDbLine
 10
4.913198106840454
 20
13.53913246347367
 30
0.0
 11
5.000731502839755
 21
13.53913246347367
 31
0.0
  0
LINE
  5
1915
330
1F
100
AcDbEntity
  8
OBJECT1
100
AcDbLine
 10
4.884332646493902
 20
13.57140711287359
 30
0.0
 11
4.826431824926373
 21
13.5714355072663
 31
0.0
  0
LINE
  5
1916
330
1F
100
AcDbEntity
  8
OBJECT1
100
AcDbLine
 10
5.015135838620324
 20
13.63250439829007
 30
0.0
 11
5.015135838620324
 21
13.55355076370966
 31
0.0
  0
LINE
  5
1917
330
1F
100
AcDbEntity
  8
OBJECT2
100
AcDbLine
 10
5.499040417462538
 20
13.69469876907855
 30
0.0
 11
5.480297888665404
 21
13.80799141861708
 31
0.0
  0
ARC
  5
1918
330
1F
100
AcDbEntity
  8
OBJECT1
100
AcDbCircle
 10
4.113670658654882
 20
13.39063537534821
 30
0.0
 40
0.0144532113745781
100
AcDbArc
 50
270.193573
 51
359.864502
  0
ARC
  5
1919
330
1F
100
AcDbEntity
  8
OBJECT1
100
AcDbCircle
 10
4.72962370310941
 20
13.39064561594887
 30
0.0
 40
0.0144769509488166
100
AcDbArc
 50
180.1774600000001
 51
269.8243100000002
  0
LINE
  5
191A
330
1F
100
AcDbEntity
  8
OBJECT2
100
AcDbLine
 10
4.233740770334435
 20
13.15513228215704
 30
0.0
 11
4.609415808802921
 21
13.15516067654977
 31
0.0
  0
LINE
  5
191B
330
1F
100
AcDbEntity
  8
OBJECT2
100
AcDbLine
 10
4.728982734604983
 20
13.37619659391092
 30
0.0
 11
4.110253090928239
 21
13.37618262945548
 31
0.0
  0
LINE
  5
191C
330
1F
100
AcDbEntity
  8
OBJECT2
100
AcDbLine
 10
4.233769164727135
 20
13.22490894210783
 30
0.0
 11
4.609444203195621
 21
13.22490894210783
 31
0.0
  0
LINE
  5
191D
330
1F
100
AcDbEntity
  8
OBJECT2
100
AcDbLine
 10
4.189078718000502
 20
13.19002061213244
 30
0.0
 11
4.654106255529541
 21
13.19002061213244
 31
0.0
  0
LINE
  5
191E
330
1F
100
AcDbEntity
  8
OBJECT2
100
AcDbLine
 10
4.189093147937796
 20
13.2598261319578
 30
0.0
 11
4.65409182559226
 21
13.2598261319578
 31
0.0
  0
ARC
  5
191F
330
1F
100
AcDbEntity
  8
OBJECT1
100
AcDbCircle
 10
4.732955622176049
 20
13.36163120141102
 30
0.0
 40
0.0145514280444666
100
AcDbArc
 50
0.5785679999999576
 51
89.53505700000009
  0
LINE
  5
1920
330
1F
100
AcDbEntity
  8
OBJECT1
100
AcDbLine
 10
4.73307385456539
 20
13.37618262945548
 30
0.0
 11
4.729579482333861
 21
13.3761681995182
 31
0.0
  0
LINE
  5
1921
330
1F
100
AcDbEntity
  8
OBJECT1
100
AcDbLine
 10
4.747506584738673
 20
13.36177829367493
 30
0.0
 11
4.747506584738673
 21
13.27424489767563
 31
0.0
  0
ARC
  5
1922
330
1F
100
AcDbEntity
  8
OBJECT1
100
AcDbCircle
 10
4.732955622176049
 20
13.2743487001277
 30
0.0
 40
0.0145509625626188
100
AcDbArc
 50
270.353088
 51
359.5909729999999
  0
LINE
  5
1923
330
1F
100
AcDbEntity
  8
OBJECT1
100
AcDbLine
 10
4.65409182559226
 20
13.25982613195779
 30
0.0
 11
4.733017065779961
 21
13.25982613195779
 31
0.0
  0
ARC
  5
1924
330
1F
100
AcDbEntity
  8
OBJECT1
100
AcDbCircle
 10
4.110297777185635
 20
13.36170521302482
 30
0.0
 40
0.0144774164306644
100
AcDbArc
 50
90.17568199999983
 51
179.7101149999999
  0
LINE
  5
1925
330
1F
100
AcDbEntity
  8
OBJECT1
100
AcDbLine
 10
4.110253090928239
 20
13.37618262945548
 30
0.0
 11
4.113719534248915
 21
13.37618262945548
 31
0.0
  0
LINE
  5
1926
330
1F
100
AcDbEntity
  8
OBJECT1
100
AcDbLine
 10
4.095820826236817
 20
13.36177829367493
 30
0.0
 11
4.095820826236817
 21
13.27427329206835
 31
0.0
  0
ARC
  5
1927
330
1F
100
AcDbEntity
  8
OBJECT1
100
AcDbCircle
 10
4.110323378687269
 20
13.2743282189264
 30
0.0
 40
0.0145030179322941
100
AcDbArc
 50
180.2174680000001
 51
269.7228999999999
  0
LINE
  5
1928
330
1F
100
AcDbEntity
  8
OBJECT1
100
AcDbLine
 10
4.189093147937796
 20
13.25982613195779
 30
0.0
 11
4.110253090928239
 21
13.25982613195779
 31
0.0
  0
LINE
  5
1929
330
1F
100
AcDbEntity
  8
OBJECT1
100
AcDbLine
 10
4.715146752160592
 20
13.39060092969148
 30
0.0
 11
4.715175146553306
 21
13.46017882889325
 31
0.0
  0
LINE
  5
192A
330
1F
100
AcDbEntity
  8
OBJECT1
100
AcDbLine
 10
4.128123870029469
 20
13.39060092969148
 30
0.0
 11
4.128123870029469
 21
13.46019325883053
 31
0.0
  0
LINE
  5
192B
330
1F
100
AcDbEntity
  8
OBJECT1
100
AcDbLine
 10
5.549775649196348
 20
14.52125947609073
 30
0.0
 11
5.382661774509699
 21
14.48497332581838
 31
0.0
  0
LINE
  5
192C
330
1F
100
AcDbEntity
  8
OBJECT1
100
AcDbLine
 10
5.97332012813446
 20
14.52125947609073
 30
0.0
 11
6.140347254438722
 21
14.48499216186563
 31
0.0
  0
LINE
  5
192D
330
1F
100
AcDbEntity
  8
OBJECT2
100
AcDbLine
 10
5.572104831587552
 20
14.47734760688112
 30
0.0
 11
5.480297888665404
 21
14.48672260539898
 31
0.0
  0
LINE
  5
192E
330
1F
100
AcDbEntity
  8
OBJECT2
100
AcDbLine
 10
5.572104831587552
 20
14.36076288080083
 30
0.0
 11
5.480297888665404
 21
14.35138788228296
 31
0.0
  0
LINE
  5
192F
330
1F
100
AcDbEntity
  8
OBJECT1
100
AcDbLine
 10
5.489672888665396
 20
14.1818380587073
 30
0.0
 11
5.578735388665393
 21
14.1818380587073
 31
0.0
  0
LINE
  5
1930
330
1F
100
AcDbEntity
  8
OBJECT2
100
AcDbLine
 10
5.574047888665404
 20
14.03491584139857
 30
0.0
 11
5.499040417462538
 21
14.03491584139857
 31
0.0
  0
LINE
  5
1931
330
1F
100
AcDbEntity
  8
OBJECT1
100
AcDbLine
 10
5.597485388665404
 20
14.27698636509204
 30
0.0
 11
5.480297888665404
 21
14.30079975269554
 31
0.0
  0
LINE
  5
1932
330
1F
100
AcDbEntity
  8
OBJECT2
100
AcDbLine
 10
5.480297888665404
 20
14.35138788228296
 30
0.0
 11
6.042797888665404
 21
14.35138788228296
 31
0.0
  0
LINE
  5
1933
330
1F
100
AcDbEntity
  8
OBJECT2
100
AcDbLine
 10
5.480297888665404
 20
14.30079975269554
 30
0.0
 11
6.042797888665404
 21
14.30079975269554
 31
0.0
  0
LINE
  5
1934
330
1F
100
AcDbEntity
  8
OBJECT1
100
AcDbLine
 10
5.597485388665404
 20
14.27698636509204
 30
0.0
 11
5.597485388665404
 21
14.2005880587073
 31
0.0
  0
LINE
  5
1935
330
1F
100
AcDbEntity
  8
OBJECT1
100
AcDbLine
 10
5.925610388665404
 20
14.27698636509204
 30
0.0
 11
5.925610388665404
 21
14.2005880587073
 31
0.0
  0
LINE
  5
1936
330
1F
100
AcDbEntity
  8
OBJECT1
100
AcDbLine
 10
5.944360388665415
 20
14.1818380587073
 30
0.0
 11
6.033422888665398
 21
14.1818380587073
 31
0.0
  0
LINE
  5
1937
330
1F
100
AcDbEntity
  8
OBJECT1
100
AcDbLine
 10
6.033422888665398
 20
14.1818380587073
 30
0.0
 11
6.042797888665404
 21
14.1630880587073
 31
0.0
  0
ARC
  5
1938
330
1F
100
AcDbEntity
  8
OBJECT1
100
AcDbCircle
 10
5.944360388665415
 20
14.2005880587073
 30
0.0
 40
0.01875
100
AcDbArc
 50
180.0
 51
270.0
  0
LINE
  5
1939
330
1F
100
AcDbEntity
  8
OBJECT2
100
AcDbLine
 10
5.949047888665404
 20
14.03491584139857
 30
0.0
 11
6.02405535986827
 21
14.03491584139857
 31
0.0
  0
LINE
  5
193A
330
1F
100
AcDbEntity
  8
OBJECT2
100
AcDbLine
 10
6.02405535986827
 20
14.03491584139857
 30
0.0
 11
6.042862733319836
 21
14.09730733224915
 31
0.0
  0
LINE
  5
193B
330
1F
100
AcDbEntity
  8
OBJECT1
  6
CONTINUOUS
100
AcDbLine
 10
6.096210968464873
 20
14.09732216387492
 30
0.0
 11
6.042862733319836
 21
14.09730733224915
 31
0.0
  0
ARC
  5
193C
330
1F
100
AcDbEntity
  8
OBJECT1
  6
CONTINUOUS
100
AcDbCircle
 10
6.096207840792828
 20
14.10857216344015
 30
0.0
 40
0.01125
100
AcDbArc
 50
270.0159291031084
 51
315.0000000000009
  0
LINE
  5
193D
330
1F
100
AcDbEntity
  8
OBJECT2
100
AcDbLine
 10
5.949047888665404
 20
14.03491584139857
 30
0.0
 11
5.930240515213839
 21
14.09730733224915
 31
0.0
  0
LINE
  5
193E
330
1F
100
AcDbEntity
  8
OBJECT1
100
AcDbLine
 10
6.042797888665404
 20
14.1630880587073
 30
0.0
 11
6.042797888665404
 21
14.09730731422629
 31
0.0
  0
ARC
  5
193F
330
1F
100
AcDbEntity
  8
OBJECT2
100
AcDbCircle
 10
6.115047974702392
 20
13.97439376887735
 30
0.0
 40
0.01125
100
AcDbArc
 50
89.99912436948182
 51
179.9840705761124
  0
LINE
  5
1940
330
1F
100
AcDbEntity
  8
OBJECT2
100
AcDbLine
 10
6.115048146632048
 20
13.98564376887604
 30
0.0
 11
6.210556489352413
 21
13.98564230925684
 31
0.0
  0
ARC
  5
1941
330
1F
100
AcDbEntity
  8
OBJECT1
100
AcDbCircle
 10
5.578735388665393
 20
14.2005880587073
 30
0.0
 40
0.01875
100
AcDbArc
 50
270.0
 51
0.000000000000007
  0
LINE
  5
1942
330
1F
100
AcDbEntity
  8
OBJECT2
100
AcDbLine
 10
5.574047888665404
 20
14.03491584139857
 30
0.0
 11
5.59285526211697
 21
14.09730733224915
 31
0.0
  0
LINE
  5
1943
330
1F
100
AcDbEntity
  8
OBJECT2
100
AcDbLine
 10
5.950990945743242
 20
14.36076288080083
 30
0.0
 11
5.789600745473848
 21
14.35138788228296
 31
0.0
  0
LINE
  5
1944
330
1F
100
AcDbEntity
  8
OBJECT2
100
AcDbLine
 10
5.950990945743242
 20
14.47734760688112
 30
0.0
 11
5.789600745473848
 21
14.48672260539898
 31
0.0
  0
LINE
  5
1945
330
1F
100
AcDbEntity
  8
OBJECT2
100
AcDbLine
 10
5.925610388665404
 20
14.27698636509204
 30
0.0
 11
5.597485388665404
 21
14.27698636509204
 31
0.0
  0
LINE
  5
1946
330
1F
100
AcDbEntity
  8
OBJECT2
100
AcDbLine
 10
5.950990945743242
 20
14.47734760688112
 30
0.0
 11
6.042797888665404
 21
14.48672260539898
 31
0.0
  0
LINE
  5
1947
330
1F
100
AcDbEntity
  8
OBJECT2
100
AcDbLine
 10
5.950990945743242
 20
14.36076288080083
 30
0.0
 11
6.042797888665404
 21
14.35138788228296
 31
0.0
  0
LINE
  5
1948
330
1F
100
AcDbEntity
  8
OBJECT1
100
AcDbLine
 10
6.042797888665404
 20
14.35138788228296
 30
0.0
 11
6.121684002821098
 21
14.35138788228296
 31
0.0
  0
LINE
  5
1949
330
1F
100
AcDbEntity
  8
OBJECT1
100
AcDbLine
 10
6.140427915696363
 20
14.3607628803068
 30
0.0
 11
6.121684002821098
 21
14.35138788228296
 31
0.0
  0
LINE
  5
194A
330
1F
100
AcDbEntity
  8
OBJECT1
100
AcDbLine
 10
6.042797888665404
 20
14.30079975269554
 30
0.0
 11
6.042797888665404
 21
14.35138788228296
 31
0.0
  0
LINE
  5
194B
330
1F
100
AcDbEntity
  8
OBJECT1
100
AcDbLine
 10
6.140427915696363
 20
14.3607628803068
 30
0.0
 11
6.140347254438722
 21
14.48499216186563
 31
0.0
  0
LINE
  5
194C
330
1F
100
AcDbEntity
  8
OBJECT2
100
AcDbLine
 10
5.950990945743242
 20
14.47734760589303
 30
0.0
 11
5.950990945743242
 21
14.36076288080083
 31
0.0
  0
LINE
  5
194D
330
1F
100
AcDbEntity
  8
OBJECT1
100
AcDbLine
 10
6.042797888665404
 20
14.30079975269554
 30
0.0
 11
5.925610388665404
 21
14.27698636509204
 31
0.0
  0
LINE
  5
194E
330
1F
100
AcDbEntity
  8
OBJECT2
100
AcDbLine
 10
5.572104831587552
 20
14.47734760589303
 30
0.0
 11
5.572104831587552
 21
14.36076288178892
 31
0.0
  0
LINE
  5
194F
330
1F
100
AcDbEntity
  8
OBJECT2
100
AcDbLine
 10
5.572104831587552
 20
14.47734760688112
 30
0.0
 11
5.733495031856946
 21
14.48672260539898
 31
0.0
  0
LINE
  5
1950
330
1F
100
AcDbEntity
  8
OBJECT2
100
AcDbLine
 10
5.572104831587552
 20
14.36076288080083
 30
0.0
 11
5.733495031856946
 21
14.35138788228296
 31
0.0
  0
LINE
  5
1951
330
1F
100
AcDbEntity
  8
OBJECT1
100
AcDbLine
 10
5.015135838620324
 20
14.09748911148911
 30
0.0
 11
5.480297888665404
 21
14.09752014939753
 31
0.0
  0
LINE
  5
1952
330
1F
100
AcDbEntity
  8
OBJECT1
100
AcDbLine
 10
5.489672888665396
 20
14.1818380587073
 30
0.0
 11
5.480297888665404
 21
14.1630880587073
 31
0.0
  0
LINE
  5
1953
330
1F
100
AcDbEntity
  8
OBJECT2
100
AcDbLine
 10
5.499040417462538
 20
14.03491584139857
 30
0.0
 11
5.480233044010958
 21
14.09730733224915
 31
0.0
  0
LINE
  5
1954
330
1F
100
AcDbEntity
  8
OBJECT1
100
AcDbLine
 10
5.480297888665404
 20
14.09752014939753
 30
0.0
 11
5.480297888665404
 21
14.1630880587073
 31
0.0
  0
ARC
  5
1955
330
1F
100
AcDbEntity
  8
OBJECT1
100
AcDbCircle
 10
4.913194382985693
 20
14.17631846241615
 30
0.0
 40
0.0144285408366441
100
AcDbArc
 50
89.98590100000013
 51
179.90305
  0
LINE
  5
1956
330
1F
100
AcDbEntity
  8
OBJECT1
100
AcDbLine
 10
4.898765376667185
 20
14.17634313295409
 30
0.0
 11
4.898765376667185
 21
14.17289111957071
 31
0.0
  0
ARC
  5
1957
330
1F
100
AcDbEntity
  8
OBJECT1
100
AcDbCircle
 10
4.884337301312399
 20
14.17288786119778
 30
0.0
 40
0.0144290063184919
100
AcDbArc
 50
269.9823610000001
 51
0.0140990000001075
  0
LINE
  5
1958
330
1F
100
AcDbEntity
  8
OBJECT1
100
AcDbLine
 10
4.913198106840454
 20
14.19074746873464
 30
0.0
 11
5.000703108447041
 21
14.19076143319008
 31
0.0
  0
ARC
  5
1959
330
1F
100
AcDbEntity
  8
OBJECT1
100
AcDbCircle
 10
5.000658887671491
 20
14.17628401675941
 30
0.0
 40
0.0144774164306644
100
AcDbArc
 50
0.1774440000000162
 51
89.82431800000018
  0
LINE
  5
195A
330
1F
100
AcDbEntity
  8
OBJECT1
100
AcDbLine
 10
4.884332646493902
 20
14.15845838939743
 30
0.0
 11
4.826375036140944
 21
14.15845838939743
 31
0.0
  0
LINE
  5
195B
330
1F
100
AcDbEntity
  8
OBJECT1
100
AcDbLine
 10
5.015135838620324
 20
14.09748911148911
 30
0.0
 11
5.015135838620324
 21
14.1763287030168
 31
0.0
  0
LINE
  5
195C
330
1F
100
AcDbEntity
  8
OBJECT1
100
AcDbLine
 10
5.40141177450971
 20
14.35138788228296
 30
0.0
 11
5.480297888665404
 21
14.35138788228296
 31
0.0
  0
LINE
  5
195D
330
1F
100
AcDbEntity
  8
OBJECT1
100
AcDbLine
 10
5.480297888665404
 20
14.30079975269554
 30
0.0
 11
5.480297888665404
 21
14.35138788228296
 31
0.0
  0
LINE
  5
195E
330
1F
100
AcDbEntity
  8
OBJECT1
100
AcDbLine
 10
5.382661774509699
 20
14.36076288228297
 30
0.0
 11
5.40141177450971
 21
14.35138788228296
 31
0.0
  0
LINE
  5
195F
330
1F
100
AcDbEntity
  8
OBJECT1
100
AcDbLine
 10
5.382661774509699
 20
14.36076288228297
 30
0.0
 11
5.382661774509699
 21
14.48497332581838
 31
0.0
  0
ARC
  5
1960
330
1F
100
AcDbEntity
  8
OBJECT2
100
AcDbCircle
 10
5.555297888665393
 20
14.83888788228297
 30
0.0
 40
0.0796875
100
AcDbArc
 50
180.0000000000002
 51
270.0
  0
ARC
  5
1961
330
1F
100
AcDbEntity
  8
OBJECT1
100
AcDbCircle
 10
5.555297888665393
 20
14.83888788228297
 30
0.0
 40
0.046875
100
AcDbArc
 50
180.0000000000002
 51
270.0
  0
LINE
  5
1962
330
1F
100
AcDbEntity
  8
OBJECT1
100
AcDbLine
 10
5.616756221998741
 20
14.60867954894963
 30
0.0
 11
5.453383869664889
 21
14.77205190128346
 31
0.0
  0
ARC
  5
1963
330
1F
100
AcDbEntity
  8
OBJECT2
100
AcDbCircle
 10
5.603986476713089
 20
14.72170038228297
 30
0.0
 40
0.0375
100
AcDbArc
 50
347.1957339347139
 51
90.0
  0
LINE
  5
1964
330
1F
100
AcDbEntity
  8
OBJECT1
100
AcDbLine
 10
5.906339555332067
 20
14.60867954894963
 30
0.0
 11
6.069711907665904
 21
14.77205190128346
 31
0.0
  0
ARC
  5
1965
330
1F
100
AcDbEntity
  8
OBJECT2
100
AcDbCircle
 10
5.967797888665401
 20
14.83888788228297
 30
0.0
 40
0.0796875
100
AcDbArc
 50
270.0
 51
359.9999999999997
  0
ARC
  5
1966
330
1F
100
AcDbEntity
  8
OBJECT2
100
AcDbCircle
 10
5.919109300617719
 20
14.72170038228297
 30
0.0
 40
0.0375
100
AcDbArc
 50
90.0
 51
192.8042660652869
  0
LINE
  5
1967
330
1F
100
AcDbEntity
  8
OBJECT2
100
AcDbLine
 10
5.882541818525538
 20
14.71338959089838
 30
0.0
 11
5.906339555332067
 21
14.60867954894963
 31
0.0
  0
ARC
  5
1968
330
1F
100
AcDbEntity
  8
OBJECT1
100
AcDbCircle
 10
5.99022900263111
 20
14.59913237008797
 30
0.0
 40
0.0796875
100
AcDbArc
 50
192.8042660652869
 51
257.7492890750577
  0
LINE
  5
1969
330
1F
100
AcDbEntity
  8
OBJECT1
100
AcDbLine
 10
5.906339555332067
 20
14.60867954894963
 30
0.0
 11
5.912523103185236
 21
14.58147193839572
 31
0.0
  0
LINE
  5
196A
330
1F
100
AcDbEntity
  8
OBJECT2
100
AcDbLine
 10
5.919109300617719
 20
14.75920038228297
 30
0.0
 11
5.967797888665401
 21
14.75920038228297
 31
0.0
  0
LINE
  5
196B
330
1F
100
AcDbEntity
  8
OBJECT1
100
AcDbLine
 10
5.616756221998741
 20
14.60867954894963
 30
0.0
 11
5.610572674145572
 21
14.58147193839572
 31
0.0
  0
LINE
  5
196C
330
1F
100
AcDbEntity
  8
OBJECT2
100
AcDbLine
 10
5.733707397678116
 20
14.71028603600355
 30
0.0
 11
5.789388379652677
 21
14.71028603600355
 31
0.0
  0
LINE
  5
196D
330
1F
100
AcDbEntity
  8
OBJECT2
100
AcDbLine
 10
5.789388379652677
 20
14.67687804074928
 30
0.0
 11
5.781964397205356
 21
14.6685258934531
 31
0.0
  0
LINE
  5
196E
330
1F
100
AcDbEntity
  8
OBJECT2
100
AcDbLine
 10
5.733707397678116
 20
14.69358203837642
 30
0.0
 11
5.789388379652677
 21
14.69358203837642
 31
0.0
  0
LINE
  5
196F
330
1F
100
AcDbEntity
  8
OBJECT2
100
AcDbLine
 10
5.733707397678116
 20
14.67687804074928
 30
0.0
 11
5.789388379652677
 21
14.67687804074928
 31
0.0
  0
LINE
  5
1970
330
1F
100
AcDbEntity
  8
OBJECT2
100
AcDbLine
 10
5.7268603886654
 20
14.72699003363068
 30
0.0
 11
5.796235388665394
 21
14.72699003363068
 31
0.0
  0
LINE
  5
1971
330
1F
100
AcDbEntity
  8
OBJECT2
100
AcDbLine
 10
5.658422888665398
 20
14.72699003363068
 30
0.0
 11
5.864672888665396
 21
14.72699003363068
 31
0.0
  0
LINE
  5
1972
330
1F
100
AcDbEntity
  8
OBJECT2
100
AcDbLine
 10
5.789388379652677
 20
14.67687804074928
 30
0.0
 11
5.789388379652677
 21
14.72699003363068
 31
0.0
  0
LINE
  5
1973
330
1F
100
AcDbEntity
  8
OBJECT2
100
AcDbLine
 10
5.781964397205356
 20
14.7186378863345
 30
0.0
 11
5.741131380125437
 21
14.7186378863345
 31
0.0
  0
LINE
  5
1974
330
1F
100
AcDbEntity
  8
OBJECT2
100
AcDbLine
 10
5.741131380125437
 20
14.6685258934531
 30
0.0
 11
5.733707397678116
 21
14.67687804074928
 31
0.0
  0
LINE
  5
1975
330
1F
100
AcDbEntity
  8
OBJECT2
100
AcDbLine
 10
5.733707397678116
 20
14.67687804074928
 30
0.0
 11
5.733707397678116
 21
14.72699003363068
 31
0.0
  0
LINE
  5
1976
330
1F
100
AcDbEntity
  8
OBJECT2
100
AcDbLine
 10
5.781964397205356
 20
14.70193388870737
 30
0.0
 11
5.741131380125437
 21
14.70193388870737
 31
0.0
  0
LINE
  5
1977
330
1F
100
AcDbEntity
  8
OBJECT2
100
AcDbLine
 10
5.781964397205356
 20
14.68522989108023
 30
0.0
 11
5.741131380125437
 21
14.68522989108023
 31
0.0
  0
LINE
  5
1978
330
1F
100
AcDbEntity
  8
OBJECT2
100
AcDbLine
 10
5.781964397205356
 20
14.6685258934531
 30
0.0
 11
5.741131380125437
 21
14.6685258934531
 31
0.0
  0
LINE
  5
1979
330
1F
100
AcDbEntity
  8
OBJECT2
100
AcDbLine
 10
5.64055395880527
 20
14.71338959089838
 30
0.0
 11
5.616756221998741
 21
14.60867954894963
 31
0.0
  0
ARC
  5
197A
330
1F
100
AcDbEntity
  8
OBJECT1
100
AcDbCircle
 10
5.532866774699698
 20
14.59913237008797
 30
0.0
 40
0.0796875
100
AcDbArc
 50
282.2507109249426
 51
347.1957339347131
  0
LINE
  5
197B
330
1F
100
AcDbEntity
  8
OBJECT2
100
AcDbLine
 10
5.555297888665393
 20
14.75920038228297
 30
0.0
 11
5.603986476713089
 21
14.75920038228297
 31
0.0
  0
LINE
  5
197C
330
1F
100
AcDbEntity
  8
OBJECT1
100
AcDbLine
 10
5.855297888665404
 20
14.79201288228297
 30
0.0
 11
5.967797888665415
 21
14.79201288228297
 31
0.0
  0
ARC
  5
197D
330
1F
100
AcDbEntity
  8
OBJECT1
100
AcDbCircle
 10
5.967797888665415
 20
14.83888788228297
 30
0.0
 40
0.046875
100
AcDbArc
 50
270.0
 51
359.9999999999997
  0
ARC
  5
197E
330
1F
100
AcDbEntity
  8
OBJECT1
100
AcDbCircle
 10
5.967797888665415
 20
14.83888788228297
 30
0.0
 40
0.1218749999999997
100
AcDbArc
 50
326.7428358479532
 51
359.9999999999997
  0
LINE
  5
197F
330
1F
100
AcDbEntity
  8
OBJECT2
100
AcDbLine
 10
5.733707397678116
 20
14.85866073498678
 30
0.0
 11
5.789388379652677
 21
14.85866073498678
 31
0.0
  0
LINE
  5
1980
330
1F
100
AcDbEntity
  8
OBJECT2
100
AcDbLine
 10
5.78565849627347
 20
14.99142305819744
 30
0.0
 11
5.770130480985642
 21
14.99788353693267
 31
0.0
  0
LINE
  5
1981
330
1F
100
AcDbEntity
  8
OBJECT2
100
AcDbLine
 10
5.71978715218448
 20
14.99788353693267
 30
0.0
 11
5.803308625146314
 21
14.99788353693267
 31
0.0
  0
LINE
  5
1982
330
1F
100
AcDbEntity
  8
OBJECT2
100
AcDbLine
 10
5.823422888665405
 20
14.96076288228296
 30
0.0
 11
5.699672888665389
 21
14.96076288228296
 31
0.0
  0
LINE
  5
1983
330
1F
100
AcDbEntity
  8
OBJECT2
100
AcDbLine
 10
5.855297888665404
 20
14.8753645841313
 30
0.0
 11
5.667797888665404
 21
14.8753645841313
 31
0.0
  0
LINE
  5
1984
330
1F
100
AcDbEntity
  8
OBJECT2
100
AcDbLine
 10
5.78565849627347
 20
14.99142305819744
 30
0.0
 11
5.78565849627347
 21
14.96076288228296
 31
0.0
  0
LINE
  5
1985
330
1F
100
AcDbEntity
  8
OBJECT2
100
AcDbLine
 10
5.809769103881549
 20
14.96076288228296
 30
0.0
 11
5.809769103881549
 21
14.99142305819744
 31
0.0
  0
LINE
  5
1986
330
1F
100
AcDbEntity
  8
OBJECT2
100
AcDbLine
 10
5.809769103881549
 20
14.99142305819744
 30
0.0
 11
5.803308625146314
 21
14.99788353693267
 31
0.0
  0
LINE
  5
1987
330
1F
100
AcDbEntity
  8
OBJECT2
100
AcDbLine
 10
5.78565849627347
 20
14.99142305819744
 30
0.0
 11
5.795988580532025
 21
14.99788353693267
 31
0.0
  0
LINE
  5
1988
330
1F
100
AcDbEntity
  8
OBJECT1
100
AcDbLine
 10
5.634985388665398
 20
14.96076288228296
 30
0.0
 11
5.634985388665398
 21
14.8753645841313
 31
0.0
  0
LINE
  5
1989
330
1F
100
AcDbEntity
  8
OBJECT2
100
AcDbLine
 10
5.781964397205356
 20
14.8503085876906
 30
0.0
 11
5.741131380125437
 21
14.8503085876906
 31
0.0
  0
LINE
  5
198A
330
1F
100
AcDbEntity
  8
OBJECT2
100
AcDbLine
 10
5.781964397205356
 20
14.86701303076559
 30
0.0
 11
5.741131380125437
 21
14.86701303076559
 31
0.0
  0
LINE
  5
198B
330
1F
100
AcDbEntity
  8
OBJECT1
100
AcDbLine
 10
5.667797888665404
 20
14.8753645841313
 30
0.0
 11
5.634985388665398
 21
14.8753645841313
 31
0.0
  0
LINE
  5
198C
330
1F
100
AcDbEntity
  8
OBJECT1
100
AcDbLine
 10
5.699672888665389
 20
14.96076288228296
 30
0.0
 11
5.634985388665398
 21
14.96076288228296
 31
0.0
  0
LINE
  5
198D
330
1F
100
AcDbEntity
  8
OBJECT2
100
AcDbLine
 10
5.713326524966618
 20
14.99142305819744
 30
0.0
 11
5.71978715218448
 21
14.99788353693267
 31
0.0
  0
LINE
  5
198E
330
1F
100
AcDbEntity
  8
OBJECT2
100
AcDbLine
 10
5.737437281057324
 20
14.99142305819744
 30
0.0
 11
5.737437281057324
 21
14.96076288228296
 31
0.0
  0
LINE
  5
198F
330
1F
100
AcDbEntity
  8
OBJECT2
100
AcDbLine
 10
5.737437281057324
 20
14.99142305819744
 30
0.0
 11
5.752965296345152
 21
14.99788353693267
 31
0.0
  0
LINE
  5
1990
330
1F
100
AcDbEntity
  8
OBJECT2
100
AcDbLine
 10
5.737437281057324
 20
14.99142305819744
 30
0.0
 11
5.727107196798783
 21
14.99788353693267
 31
0.0
  0
LINE
  5
1991
330
1F
100
AcDbEntity
  8
OBJECT2
100
AcDbLine
 10
5.713326524966618
 20
14.96076288228296
 30
0.0
 11
5.713326524966618
 21
14.99142305819744
 31
0.0
  0
LINE
  5
1992
330
1F
100
AcDbEntity
  8
OBJECT1
100
AcDbLine
 10
5.888110388665396
 20
14.96076288228296
 30
0.0
 11
5.888110388665396
 21
14.8753645841313
 31
0.0
  0
LINE
  5
1993
330
1F
100
AcDbEntity
  8
OBJECT1
100
AcDbLine
 10
5.888110388665396
 20
14.8753645841313
 30
0.0
 11
5.855297888665404
 21
14.8753645841313
 31
0.0
  0
LINE
  5
1994
330
1F
100
AcDbEntity
  8
OBJECT1
100
AcDbLine
 10
5.888110388665396
 20
14.96076288228296
 30
0.0
 11
5.823422888665405
 21
14.96076288228296
 31
0.0
  0
LINE
  5
1995
330
1F
100
AcDbEntity
  8
OBJECT2
100
AcDbLine
 10
5.733707397678116
 20
14.82525273973252
 30
0.0
 11
5.789388379652677
 21
14.82525273973252
 31
0.0
  0
LINE
  5
1996
330
1F
100
AcDbEntity
  8
OBJECT2
100
AcDbLine
 10
5.733707397678116
 20
14.84195673735965
 30
0.0
 11
5.789388379652677
 21
14.84195673735965
 31
0.0
  0
LINE
  5
1997
330
1F
100
AcDbEntity
  8
OBJECT2
100
AcDbLine
 10
5.733707397678116
 20
14.80854874210539
 30
0.0
 11
5.789388379652677
 21
14.80854874210539
 31
0.0
  0
LINE
  5
1998
330
1F
100
AcDbEntity
  8
OBJECT2
100
AcDbLine
 10
5.855297888665404
 20
14.79201288228297
 30
0.0
 11
5.667797888665404
 21
14.79201288228297
 31
0.0
  0
LINE
  5
1999
330
1F
100
AcDbEntity
  8
OBJECT2
100
AcDbLine
 10
5.781964397205356
 20
14.83360459006347
 30
0.0
 11
5.741131380125437
 21
14.83360459006347
 31
0.0
  0
LINE
  5
199A
330
1F
100
AcDbEntity
  8
OBJECT2
100
AcDbLine
 10
5.781964397205356
 20
14.8001965948092
 30
0.0
 11
5.741131380125437
 21
14.8001965948092
 31
0.0
  0
LINE
  5
199B
330
1F
100
AcDbEntity
  8
OBJECT2
100
AcDbLine
 10
5.781964397205356
 20
14.81690059243634
 30
0.0
 11
5.741131380125437
 21
14.81690059243634
 31
0.0
  0
LINE
  5
199C
330
1F
100
AcDbEntity
  8
OBJECT2
100
AcDbLine
 10
5.789388379652677
 20
14.79201288228297
 30
0.0
 11
5.789388379652677
 21
14.8753645841313
 31
0.0
  0
LINE
  5
199D
330
1F
100
AcDbEntity
  8
OBJECT1
100
AcDbLine
 10
5.855297888665404
 20
14.8753645841313
 30
0.0
 11
5.855297888665404
 21
14.79201288228297
 31
0.0
  0
LINE
  5
199E
330
1F
100
AcDbEntity
  8
OBJECT2
100
AcDbLine
 10
5.733707397678116
 20
14.79201288228297
 30
0.0
 11
5.733707397678131
 21
14.8753645841313
 31
0.0
  0
LINE
  5
199F
330
1F
100
AcDbEntity
  8
OBJECT1
100
AcDbLine
 10
5.667797888665404
 20
14.8753645841313
 30
0.0
 11
5.667797888665404
 21
14.79201288228297
 31
0.0
  0
LINE
  5
19A0
330
1F
100
AcDbEntity
  8
OBJECT1
100
AcDbLine
 10
5.555297888665393
 20
14.79201288228297
 30
0.0
 11
5.667797888665404
 21
14.79201288228297
 31
0.0
  0
ARC
  5
19A1
330
1F
100
AcDbEntity
  8
OBJECT1
100
AcDbCircle
 10
5.555297888665393
 20
14.83888788228297
 30
0.0
 40
0.1218749999999997
100
AcDbArc
 50
180.0000000000002
 51
213.2571641520462
  0
LINE
  5
19A2
330
1F
100
AcDbEntity
  8
OBJECT2
100
AcDbLine
 10
28.07884702288042
 20
12.60121984243958
 30
0.0
 11
28.00585993462528
 21
12.55748130609173
 31
0.0
  0
LINE
  5
19A3
330
1F
100
AcDbEntity
  8
OBJECT1
100
AcDbLine
 10
28.11254232287989
 20
12.52466716323019
 30
0.0
 11
28.07884702288042
 21
12.60121984243958
 31
0.0
  0
LINE
  5
19A4
330
1F
100
AcDbEntity
  8
OBJECT2
100
AcDbLine
 10
27.94969210197713
 20
12.4809146624269
 30
0.0
 11
27.94969210197713
 21
12.42075485745192
 31
0.0
  0
LINE
  5
19A5
330
1F
100
AcDbEntity
  8
OBJECT1
100
AcDbLine
 10
28.11254232287989
 20
12.44740415872103
 30
0.0
 11
28.11254232287989
 21
12.52466716323019
 31
0.0
  0
LINE
  5
19A6
330
1F
100
AcDbEntity
  8
OBJECT1
100
AcDbLine
 10
27.99279106626609
 20
12.33283743892818
 30
0.0
 11
28.06762472101151
 21
12.3653681033444
 31
0.0
  0
LINE
  5
19A7
330
1F
100
AcDbEntity
  8
OBJECT2
100
AcDbLine
 10
27.94969210197713
 20
12.42075485745192
 30
0.0
 11
27.99279106626609
 21
12.33283743892818
 31
0.0
  0
LINE
  5
19A8
330
1F
100
AcDbEntity
  8
OBJECT1
100
AcDbLine
 10
28.06762472101151
 20
12.3653681033444
 30
0.0
 11
28.11254232287989
 21
12.44740415872103
 31
0.0
  0
LINE
  5
19A9
330
1F
100
AcDbEntity
  8
OBJECT2
100
AcDbLine
 10
28.00585993462528
 20
12.55748130609173
 30
0.0
 11
27.94969210197713
 21
12.4809146624269
 31
0.0
  0
LINE
  5
19AA
330
1F
100
AcDbEntity
  8
OBJECT1
100
AcDbLine
 10
27.99279106626609
 20
12.79782215212721
 30
0.0
 11
28.06762472101151
 21
12.76529195319284
 31
0.0
  0
LINE
  5
19AB
330
1F
100
AcDbEntity
  8
OBJECT1
100
AcDbLine
 10
28.06762472101151
 20
12.76529195319284
 30
0.0
 11
28.11254232287989
 21
12.68325589781621
 31
0.0
  0
LINE
  5
19AC
330
1F
100
AcDbEntity
  8
OBJECT1
100
AcDbLine
 10
28.11254232287989
 20
12.68325589781621
 30
0.0
 11
28.07884702288042
 21
12.60121984243958
 31
0.0
  0
LINE
  5
19AD
330
1F
100
AcDbEntity
  8
OBJECT2
100
AcDbLine
 10
27.14895155597869
 20
11.27725767112064
 30
0.0
 11
27.2522008534171
 21
11.73246826686006
 31
0.0
  0
LINE
  5
19AE
330
1F
100
AcDbEntity
  8
OBJECT2
100
AcDbLine
 10
27.2522008534171
 20
11.73246826686007
 30
0.0
 11
27.35545015085552
 21
11.27725767112064
 31
0.0
  0
LINE
  5
19AF
330
1F
100
AcDbEntity
  8
OBJECT2
100
AcDbLine
 10
27.35545015085552
 20
11.27725767112064
 30
0.0
 11
27.14895155597869
 21
11.27725767112064
 31
0.0
  0
LINE
  5
19B0
330
1F
100
AcDbEntity
  8
OBJECT1
100
AcDbLine
 10
11.02037655512253
 20
16.18092606577366
 30
0.0
 11
2.919586831808004
 21
16.18092606577367
 31
0.0
  0
LINE
  5
19B1
330
1F
100
AcDbEntity
  8
OBJECT1
100
AcDbLine
 10
5.823422888665405
 20
15.93849280741837
 30
0.0
 11
5.823422888665419
 21
15.48576288228296
 31
0.0
  0
LINE
  5
19B2
330
1F
100
AcDbEntity
  8
OBJECT1
100
AcDbLine
 10
5.699672888665389
 20
15.93849280741837
 30
0.0
 11
5.699672888665389
 21
15.48576288228296
 31
0.0
  0
ARC
  5
19B3
330
1F
100
AcDbEntity
  8
OBJECT2
100
AcDbCircle
 10
5.555297888665393
 20
15.15763788228297
 30
0.0
 40
0.0796875
100
AcDbArc
 50
90.0
 51
180.0000000000002
  0
ARC
  5
19B4
330
1F
100
AcDbEntity
  8
OBJECT1
100
AcDbCircle
 10
5.555297888665393
 20
15.15763788228297
 30
0.0
 40
0.046875
100
AcDbArc
 50
90.0
 51
180.0000000000002
  0
LINE
  5
19B5
330
1F
100
AcDbEntity
  8
OBJECT1
100
AcDbLine
 10
5.611547888665398
 20
15.38263788228296
 30
0.0
 11
5.453383869664889
 21
15.22447386328247
 31
0.0
  0
LINE
  5
19B6
330
1F
100
AcDbEntity
  8
OBJECT1
100
AcDbLine
 10
5.393911774509703
 20
15.48576288228296
 30
0.0
 11
5.699672888665389
 21
15.48576288228296
 31
0.0
  0
LINE
  5
19B7
330
1F
100
AcDbEntity
  8
OBJECT1
100
AcDbLine
 10
5.393911774509703
 20
15.38263788228296
 30
0.0
 11
5.611547888665398
 21
15.38263788228296
 31
0.0
  0
LINE
  5
19B8
330
1F
100
AcDbEntity
  8
OBJECT2
100
AcDbLine
 10
5.611547888665398
 20
15.38263788228296
 30
0.0
 11
5.611547888665398
 21
15.26076288228297
 31
0.0
  0
LINE
  5
19B9
330
1F
100
AcDbEntity
  8
OBJECT1
100
AcDbLine
 10
5.911547888665396
 20
15.38263788228296
 30
0.0
 11
6.069711907665919
 21
15.22447386328247
 31
0.0
  0
LINE
  5
19BA
330
1F
100
AcDbEntity
  8
OBJECT2
100
AcDbLine
 10
5.911547888665396
 20
15.38263788228296
 30
0.0
 11
5.911547888665396
 21
15.26076288228297
 31
0.0
  0
LINE
  5
19BB
330
1F
100
AcDbEntity
  8
OBJECT1
100
AcDbLine
 10
5.902172888665404
 20
15.20451288228296
 30
0.0
 11
5.967797888665415
 21
15.20451288228296
 31
0.0
  0
LINE
  5
19BC
330
1F
100
AcDbEntity
  8
OBJECT2
100
AcDbLine
 10
5.967797888665415
 20
15.23732538228297
 30
0.0
 11
5.934985388665396
 21
15.23732538228297
 31
0.0
  0
ARC
  5
19BD
330
1F
100
AcDbEntity
  8
OBJECT2
100
AcDbCircle
 10
5.934985388665396
 20
15.26076288228297
 30
0.0
 40
0.0234375
100
AcDbArc
 50
180.0
 51
270.0
  0
ARC
  5
19BE
330
1F
100
AcDbEntity
  8
OBJECT2
100
AcDbCircle
 10
5.967797888665415
 20
15.15763788228297
 30
0.0
 40
0.0796875
100
AcDbArc
 50
359.9999999999997
 51
90.0
  0
ARC
  5
19BF
330
1F
100
AcDbEntity
  8
OBJECT1
100
AcDbCircle
 10
5.967797888665415
 20
15.15763788228297
 30
0.0
 40
0.1218749999999997
100
AcDbArc
 50
359.9999999999997
 51
33.25716415204512
  0
ARC
  5
19C0
330
1F
100
AcDbEntity
  8
OBJECT1
100
AcDbCircle
 10
5.967797888665415
 20
15.15763788228297
 30
0.0
 40
0.046875
100
AcDbArc
 50
359.9999999999997
 51
90.0
  0
LINE
  5
19C1
330
1F
100
AcDbEntity
  8
OBJECT2
100
AcDbLine
 10
5.555297888665393
 20
15.23732538228296
 30
0.0
 11
5.588110388665398
 21
15.23732538228297
 31
0.0
  0
LINE
  5
19C2
330
1F
100
AcDbEntity
  8
OBJECT2
100
AcDbLine
 10
5.699672888665389
 20
15.16363788228297
 30
0.0
 11
5.823422888665405
 21
15.16363788228297
 31
0.0
  0
LINE
  5
19C3
330
1F
100
AcDbEntity
  8
OBJECT1
100
AcDbLine
 10
5.620922888665404
 20
15.16363788228297
 30
0.0
 11
5.699672888665389
 21
15.16363788228297
 31
0.0
  0
LINE
  5
19C4
330
1F
100
AcDbEntity
  8
OBJECT2
100
AcDbLine
 10
5.761547888665404
 20
15.20451288228296
 30
0.0
 11
5.761547888665404
 21
15.16363788228297
 31
0.0
  0
LINE
  5
19C5
330
1F
100
AcDbEntity
  8
OBJECT1
100
AcDbLine
 10
5.620922888665404
 20
15.16363788228297
 30
0.0
 11
5.620922888665404
 21
15.20451288228296
 31
0.0
  0
LINE
  5
19C6
330
1F
100
AcDbEntity
  8
OBJECT1
100
AcDbLine
 10
5.902172888665404
 20
15.20451288228296
 30
0.0
 11
5.902172888665404
 21
15.16363788228297
 31
0.0
  0
LINE
  5
19C7
330
1F
100
AcDbEntity
  8
OBJECT2
100
AcDbLine
 10
5.620922888665404
 20
15.20451288228296
 30
0.0
 11
5.902172888665404
 21
15.20451288228296
 31
0.0
  0
LINE
  5
19C8
330
1F
100
AcDbEntity
  8
OBJECT1
100
AcDbLine
 10
5.823422888665405
 20
15.16363788228297
 30
0.0
 11
5.902172888665404
 21
15.16363788228297
 31
0.0
  0
LINE
  5
19C9
330
1F
100
AcDbEntity
  8
OBJECT1
100
AcDbLine
 10
5.555297888665393
 20
15.20451288228296
 30
0.0
 11
5.620922888665404
 21
15.20451288228296
 31
0.0
  0
ARC
  5
19CA
330
1F
100
AcDbEntity
  8
OBJECT2
100
AcDbCircle
 10
5.588110388665398
 20
15.26076288228297
 30
0.0
 40
0.0234375
100
AcDbArc
 50
270.0
 51
0.000000000000007
  0
LINE
  5
19CB
330
1F
100
AcDbEntity
  8
OBJECT1
100
AcDbLine
 10
5.823422888665405
 20
15.48576288228296
 30
0.0
 11
6.129184002821091
 21
15.48576288228296
 31
0.0
  0
LINE
  5
19CC
330
1F
100
AcDbEntity
  8
OBJECT2
100
AcDbLine
 10
5.911547888665396
 20
15.38263788228296
 30
0.0
 11
5.611547888665398
 21
15.38263788228296
 31
0.0
  0
ARC
  5
19CD
330
1F
100
AcDbEntity
  8
OBJECT1
100
AcDbCircle
 10
6.129184002821091
 20
15.47451288228296
 30
0.0
 40
0.01125
100
AcDbArc
 50
0.000000000000007
 51
90.0
  0
LINE
  5
19CE
330
1F
100
AcDbEntity
  8
OBJECT1
100
AcDbLine
 10
5.911547888665396
 20
15.38263788228296
 30
0.0
 11
6.129184002821091
 21
15.38263788228296
 31
0.0
  0
ARC
  5
19CF
330
1F
100
AcDbEntity
  8
OBJECT1
100
AcDbCircle
 10
6.129184002821091
 20
15.39388788228296
 30
0.0
 40
0.01125
100
AcDbArc
 50
270.0
 51
0.000000000000007
  0
LINE
  5
19D0
330
1F
100
AcDbEntity
  8
OBJECT1
100
AcDbLine
 10
6.140434002821095
 20
15.47451288228296
 30
0.0
 11
6.140434002821095
 21
15.39388788228296
 31
0.0
  0
LINE
  5
19D1
330
1F
100
AcDbEntity
  8
OBJECT2
100
AcDbLine
 10
5.950990945743242
 20
15.48576288228296
 30
0.0
 11
5.950990945743242
 21
15.38263788228296
 31
0.0
  0
LINE
  5
19D2
330
1F
100
AcDbEntity
  8
OBJECT2
100
AcDbLine
 10
5.572104831587552
 20
15.48576288228296
 30
0.0
 11
5.572104831587552
 21
15.38263788228296
 31
0.0
  0
LINE
  5
19D3
330
1F
100
AcDbEntity
  8
OBJECT2
100
AcDbLine
 10
5.823422888665405
 20
15.58636953231305
 30
0.0
 11
5.699672888665389
 21
15.58636953231305
 31
0.0
  0
LINE
  5
19D4
330
1F
100
AcDbEntity
  8
OBJECT2
100
AcDbLine
 10
5.823422888665405
 20
15.48576288228296
 30
0.0
 11
5.699672888665389
 21
15.48576288228296
 31
0.0
  0
LINE
  5
19D5
330
1F
100
AcDbEntity
  8
OBJECT2
100
AcDbLine
 10
5.823422888665405
 20
15.58636953231305
 30
0.0
 11
5.699672888665389
 21
15.58636953231305
 31
0.0
  0
LINE
  5
19D6
330
1F
100
AcDbEntity
  8
OBJECT2
100
AcDbLine
 10
5.823422888665405
 20
15.53606620729801
 30
0.0
 11
5.699672888665389
 21
15.53606620729801
 31
0.0
  0
LINE
  5
19D7
330
1F
100
AcDbEntity
  8
OBJECT2
100
AcDbLine
 10
5.806714531207987
 20
15.56121786980553
 30
0.0
 11
5.716381246122807
 21
15.56121786980553
 31
0.0
  0
LINE
  5
19D8
330
1F
100
AcDbEntity
  8
OBJECT2
100
AcDbLine
 10
5.806714531207987
 20
15.51091454479048
 30
0.0
 11
5.716381246122807
 21
15.51091454479048
 31
0.0
  0
ARC
  5
19D9
330
1F
100
AcDbEntity
  8
OBJECT1
100
AcDbCircle
 10
5.555297888665393
 20
15.15763788228297
 30
0.0
 40
0.1218749999999997
100
AcDbArc
 50
146.742835847955
 51
180.0000000000002
  0
ARC
  5
19DA
330
1F
100
AcDbEntity
  8
OBJECT1
100
AcDbCircle
 10
5.393911774509703
 20
15.47451288228296
 30
0.0
 40
0.01125
100
AcDbArc
 50
90.0
 51
180.0
  0
ARC
  5
19DB
330
1F
100
AcDbEntity
  8
OBJECT1
100
AcDbCircle
 10
5.393911774509703
 20
15.39388788228296
 30
0.0
 40
0.01125
100
AcDbArc
 50
180.0
 51
270.0
  0
LINE
  5
19DC
330
1F
100
AcDbEntity
  8
OBJECT1
100
AcDbLine
 10
5.382661774509699
 20
15.47451288228296
 30
0.0
 11
5.382661774509699
 21
15.39388788228296
 31
0.0
  0
LINE
  5
19DD
330
1F
100
AcDbEntity
  8
OBJECT2
100
AcDbLine
 10
5.823422888665405
 20
15.73727950735819
 30
0.0
 11
5.699672888665389
 21
15.73727950735819
 31
0.0
  0
LINE
  5
19DE
330
1F
100
AcDbEntity
  8
OBJECT2
100
AcDbLine
 10
5.806714531207987
 20
15.76243116986571
 30
0.0
 11
5.716381246122807
 21
15.76243116986571
 31
0.0
  0
LINE
  5
19DF
330
1F
100
AcDbEntity
  8
OBJECT2
100
AcDbLine
 10
5.806714531207987
 20
15.71212784485067
 30
0.0
 11
5.716381246122807
 21
15.71212784485067
 31
0.0
  0
LINE
  5
19E0
330
1F
100
AcDbEntity
  8
OBJECT2
100
AcDbLine
 10
5.806714531207987
 20
15.81273449488076
 30
0.0
 11
5.716381246122807
 21
15.81273449488076
 31
0.0
  0
LINE
  5
19E1
330
1F
100
AcDbEntity
  8
OBJECT2
100
AcDbLine
 10
5.823422888665405
 20
15.78758283237323
 30
0.0
 11
5.699672888665389
 21
15.78758283237323
 31
0.0
  0
LINE
  5
19E2
330
1F
100
AcDbEntity
  8
OBJECT2
100
AcDbLine
 10
5.823422888665405
 20
15.83788615738828
 30
0.0
 11
5.699672888665389
 21
15.83788615738828
 31
0.0
  0
LINE
  5
19E3
330
1F
100
AcDbEntity
  8
OBJECT2
100
AcDbLine
 10
5.806714531207987
 20
15.66182451983562
 30
0.0
 11
5.716381246122807
 21
15.66182451983562
 31
0.0
  0
LINE
  5
19E4
330
1F
100
AcDbEntity
  8
OBJECT2
100
AcDbLine
 10
5.806714531207987
 20
15.61152119482057
 30
0.0
 11
5.716381246122807
 21
15.61152119482057
 31
0.0
  0
LINE
  5
19E5
330
1F
100
AcDbEntity
  8
OBJECT2
100
AcDbLine
 10
5.823422888665405
 20
15.6366728573281
 30
0.0
 11
5.699672888665389
 21
15.6366728573281
 31
0.0
  0
LINE
  5
19E6
330
1F
100
AcDbEntity
  8
OBJECT2
100
AcDbLine
 10
5.823422888665405
 20
15.68697618234314
 30
0.0
 11
5.699672888665389
 21
15.68697618234314
 31
0.0
  0
LINE
  5
19E7
330
1F
100
AcDbEntity
  8
OBJECT2
100
AcDbLine
 10
5.806714531207987
 20
15.8630378198958
 30
0.0
 11
5.716381246122807
 21
15.8630378198958
 31
0.0
  0
LINE
  5
19E8
330
1F
100
AcDbEntity
  8
OBJECT2
100
AcDbLine
 10
5.806714531207987
 20
15.91334114491085
 30
0.0
 11
5.716381246122807
 21
15.91334114491085
 31
0.0
  0
LINE
  5
19E9
330
1F
100
AcDbEntity
  8
OBJECT2
100
AcDbLine
 10
5.823422888665405
 20
15.88818948240332
 30
0.0
 11
5.699672888665389
 21
15.88818948240332
 31
0.0
  0
LINE
  5
19EA
330
1F
100
AcDbEntity
  8
OBJECT1
100
AcDbLine
 10
5.823422888665405
 20
15.93849280741837
 30
0.0
 11
5.699672888665389
 21
15.93849280741837
 31
0.0
  0
LINE
  5
19EB
330
1F
100
AcDbEntity
  8
OBJECT1
100
AcDbLine
 10
21.53962222416176
 20
12.79774411430309
 30
0.0
 11
18.27846699925238
 21
12.79779934351668
 31
0.0
  0
LINE
  5
19EC
330
1F
100
AcDbEntity
  8
OBJECT1
100
AcDbLine
 10
21.53962222416176
 20
12.33275951608731
 30
0.0
 11
18.27846699925238
 21
12.33281463031765
 31
0.0
  0
LINE
  5
19ED
330
1F
100
AcDbEntity
  8
OBJECT1
100
AcDbLine
 10
21.53962222416176
 20
12.79774411430309
 30
0.0
 11
21.53962222416176
 21
12.86259885170127
 31
0.0
  0
LINE
  5
19EE
330
1F
100
AcDbEntity
  8
OBJECT1
100
AcDbLine
 10
22.10212222416175
 20
12.86259885170127
 30
0.0
 11
22.10212222416175
 21
12.79681810722026
 31
0.0
  0
LINE
  5
19EF
330
1F
100
AcDbEntity
  8
OBJECT1
  6
CONTINUOUS
100
AcDbLine
 10
22.34871352817819
 20
12.98535440574644
 30
0.0
 11
22.16348712757754
 21
12.80012800514578
 31
0.0
  0
LINE
  5
19F5
330
1F
100
AcDbEntity
  8
OBJECT2
100
AcDbLine
 10
21.95521273150582
 20
12.97649715808602
 30
0.0
 11
21.95521273150582
 21
12.57910345591695
 31
0.0
  0
LINE
  5
19F6
330
1F
100
AcDbEntity
  8
OBJECT2
100
AcDbLine
 10
21.68653171681769
 20
12.97649715808602
 30
0.0
 11
21.68653171681769
 21
12.57910345591695
 31
0.0
  0
LINE
  5
19F7
330
1F
100
AcDbEntity
  8
OBJECT1
100
AcDbLine
 10
19.2048126676688
 20
12.79778848573567
 30
0.0
 11
19.20481266766882
 21
14.45848628380885
 31
0.0
  0
LINE
  5
19F8
330
1F
100
AcDbEntity
  8
OBJECT1
100
AcDbLine
 10
19.9903889493913
 20
14.45848628380885
 30
0.0
 11
19.9903889493913
 21
12.79777927792532
 31
0.0
  0
LINE
  5
19F9
330
1F
100
AcDbEntity
  8
OBJECT1
  6
CONTINUOUS
100
AcDbLine
 10
23.19261803154064
 20
12.81632844505917
 30
0.0
 11
23.22375816989655
 21
12.84746858341506
 31
0.0
  0
LINE
  5
19FA
330
1F
100
AcDbEntity
  8
OBJECT1
100
AcDbLine
 10
23.85514910659334
 20
12.86308621999658
 30
0.0
 11
23.85514910659334
 21
12.79730547551557
 31
0.0
  0
LINE
  5
19FB
330
1F
100
AcDbEntity
  8
OBJECT1
100
AcDbLine
 10
24.41764910659334
 20
12.79789559464634
 30
0.0
 11
24.41764910659334
 21
12.86308621999658
 31
0.0
  0
LINE
  5
19FC
330
1F
100
AcDbEntity
  8
OBJECT2
100
AcDbLine
 10
24.27073961393739
 20
12.97698452638132
 30
0.0
 11
24.27073961393739
 21
12.57959082421226
 31
0.0
  0
LINE
  5
19FD
330
1F
100
AcDbEntity
  8
OBJECT2
100
AcDbLine
 10
24.00205859924929
 20
12.97698452638132
 30
0.0
 11
24.00205859924929
 21
12.57959082421226
 31
0.0
  0
LINE
  5
19FE
330
1F
100
AcDbEntity
  8
OBJECT2
100
AcDbLine
 10
22.57145216425196
 20
13.2240029443969
 30
0.0
 11
23.03633587329885
 21
12.75911923535001
 31
0.0
  0
ARC
  5
19FF
330
1F
100
AcDbEntity
  8
OBJECT1
100
AcDbCircle
 10
21.82087222416176
 20
12.69692184892073
 30
0.0
 40
0.4496345041569306
100
AcDbArc
 50
249.6624761045531
 51
290.3375238954467
  0
LINE
  5
1A00
330
1F
100
AcDbEntity
  8
OBJECT1
  6
CONTINUOUS
100
AcDbLine
 10
23.85514910659334
 20
12.79730547551557
 30
0.0
 11
23.20057611050103
 21
12.79712349420559
 31
0.0
  0
LINE
  5
1A01
330
1F
100
AcDbEntity
  8
OBJECT1
100
AcDbLine
 10
23.22244464656201
 20
11.74849918311428
 30
0.0
 11
23.40143105054984
 21
11.92748558710212
 31
0.0
  0
LINE
  5
1A02
330
1F
100
AcDbEntity
  8
OBJECT2
  6
CONTINUOUS
100
AcDbLine
 10
23.72228075251324
 20
12.28545839507781
 30
0.0
 11
23.19592814226751
 21
11.75910578483208
 31
0.0
  0
LINE
  5
1A03
330
1F
100
AcDbEntity
  8
OBJECT2
100
AcDbLine
 10
23.06201979558031
 20
11.91687898538432
 30
0.0
 11
23.51323688143564
 21
12.36809607123965
 31
0.0
  0
LINE
  5
1A04
330
1F
100
AcDbEntity
  8
OBJECT2
  6
CONTINUOUS
100
AcDbLine
 10
23.18797319097915
 20
11.76706073612042
 30
0.0
 11
23.7143258012249
 21
12.29341334636616
 31
0.0
  0
LINE
  5
1A06
330
1F
100
AcDbEntity
  8
OBJECT1
100
AcDbLine
 10
23.7143258012249
 20
12.29341334636616
 30
0.0
 11
23.7143258012249
 21
12.27750344378946
 31
0.0
  0
LINE
  5
1A07
330
1F
100
AcDbEntity
  8
OBJECT1
100
AcDbLine
 10
23.85514910659334
 20
12.26652471305911
 30
0.0
 11
23.85514910659334
 21
12.33230545754012
 31
0.0
  0
LINE
  5
1A08
330
1F
100
AcDbEntity
  8
OBJECT1
100
AcDbLine
 10
24.41764910659334
 20
12.26652471305911
 30
0.0
 11
24.41764910659334
 21
12.33280904453546
 31
0.0
  0
ARC
  5
1A09
330
1F
100
AcDbEntity
  8
OBJECT1
100
AcDbCircle
 10
24.13639910659334
 20
12.69740921721604
 30
0.0
 40
0.4496345041569306
100
AcDbArc
 50
249.6624761045531
 51
290.3375238954467
  0
ARC
  5
1A0A
330
1F
100
AcDbEntity
  8
OBJECT1
100
AcDbCircle
 10
24.29657943081827
 20
12.26525555252814
 30
0.0
 40
0.01125
100
AcDbArc
 50
37.09086977252655
 51
110.3375238954463
  0
ARC
  5
1A0B
330
1F
100
AcDbEntity
  8
OBJECT1
100
AcDbCircle
 10
24.32949701532068
 20
12.25902471305911
 30
0.0
 40
0.01125
100
AcDbArc
 50
217.090869772526
 51
270.0
  0
LINE
  5
1A0C
330
1F
100
AcDbEntity
  8
OBJECT1
100
AcDbLine
 10
24.32949701532068
 20
12.24777471305911
 30
0.0
 11
24.40827410659334
 21
12.24777471305911
 31
0.0
  0
LINE
  5
1A0D
330
1F
100
AcDbEntity
  8
OBJECT1
100
AcDbLine
 10
24.32052311485472
 20
12.25224005312458
 30
0.0
 11
24.30555333128423
 21
12.27204021246267
 31
0.0
  0
LINE
  5
1A0E
330
1F
100
AcDbEntity
  8
OBJECT1
100
AcDbLine
 10
24.40827410659334
 20
12.24777471305911
 30
0.0
 11
24.41764910659334
 21
12.26652471305911
 31
0.0
  0
LINE
  5
1A0F
330
1F
100
AcDbEntity
  8
OBJECT1
100
AcDbLine
 10
23.63079881269723
 20
12.00305762434143
 30
0.0
 11
23.5539009502432
 21
12.07995548679548
 31
0.0
  0
LINE
  5
1A10
330
1F
100
AcDbEntity
  8
OBJECT2
100
AcDbLine
 10
23.5539009502432
 20
12.07995548679548
 30
0.0
 11
23.40143105054984
 21
11.92748558710212
 31
0.0
  0
LINE
  5
1A11
330
1F
100
AcDbEntity
  8
OBJECT2
100
AcDbLine
 10
23.56251881413891
 20
11.91886772320641
 30
0.0
 11
23.47766600039652
 21
12.0037205369488
 31
0.0
  0
ARC
  5
1A12
330
1F
100
AcDbEntity
  8
OBJECT1
100
AcDbCircle
 10
23.62284386140889
 20
11.99510267305309
 30
0.0
 40
0.01125
100
AcDbArc
 50
314.9999999999998
 51
45.00000000000006
  0
LINE
  5
1A13
330
1F
100
AcDbEntity
  8
OBJECT1
100
AcDbLine
 10
23.63079881269723
 20
11.98714772176474
 30
0.0
 11
23.56251881413891
 21
11.91886772320641
 31
0.0
  0
ARC
  5
1A14
330
1F
100
AcDbEntity
  8
OBJECT1
100
AcDbCircle
 10
23.48628386429224
 20
11.85854267593643
 30
0.0
 40
0.01125
100
AcDbArc
 50
225.0
 51
314.9999999999999
  0
LINE
  5
1A15
330
1F
100
AcDbEntity
  8
OBJECT1
100
AcDbLine
 10
23.49423881558058
 20
11.85058772464808
 30
0.0
 11
23.56251881413891
 21
11.91886772320641
 31
0.0
  0
LINE
  5
1A16
330
1F
100
AcDbEntity
  8
OBJECT1
100
AcDbLine
 10
23.47832891300389
 20
11.85058772464808
 30
0.0
 11
23.40143105054984
 21
11.92748558710212
 31
0.0
  0
LINE
  5
1A17
330
1F
100
AcDbEntity
  8
OBJECT1
100
AcDbLine
 10
23.73288735423103
 20
12.25894189078331
 30
0.0
 11
23.5539009502432
 21
12.07995548679548
 31
0.0
  0
ARC
  5
1A18
330
1F
100
AcDbEntity
  8
OBJECT1
100
AcDbCircle
 10
23.97621878236841
 20
12.26525555252814
 30
0.0
 40
0.01125
100
AcDbArc
 50
69.66247610455361
 51
142.9091302274734
  0
ARC
  5
1A19
330
1F
100
AcDbEntity
  8
OBJECT1
100
AcDbCircle
 10
23.94330119786602
 20
12.25902471305911
 30
0.0
 40
0.01125
100
AcDbArc
 50
270.0
 51
322.9091302274739
  0
LINE
  5
1A1A
330
1F
100
AcDbEntity
  8
OBJECT1
100
AcDbLine
 10
23.86452410659335
 20
12.24777471305911
 30
0.0
 11
23.94330119786602
 21
12.24777471305911
 31
0.0
  0
LINE
  5
1A1B
330
1F
100
AcDbEntity
  8
OBJECT1
100
AcDbLine
 10
23.95227509833196
 20
12.25224005312458
 30
0.0
 11
23.96724488190247
 21
12.27204021246267
 31
0.0
  0
LINE
  5
1A1C
330
1F
100
AcDbEntity
  8
OBJECT1
100
AcDbLine
 10
23.86452410659335
 20
12.24777471305911
 30
0.0
 11
23.85514910659334
 21
12.26652471305911
 31
0.0
  0
ARC
  5
1A1D
330
1F
100
AcDbEntity
  8
OBJECT1
100
AcDbCircle
 10
23.72493240294269
 20
12.26689684207167
 30
0.0
 40
0.01125
100
AcDbArc
 50
314.9999999999999
 51
45.00000000000006
  0
LINE
  5
1A1E
330
1F
100
AcDbEntity
  8
OBJECT1
100
AcDbLine
 10
23.73288735423103
 20
12.27485179336001
 30
0.0
 11
23.72228075251324
 21
12.28545839507781
 31
0.0
  0
LINE
  5
1A1F
330
1F
100
AcDbEntity
  8
OBJECT2
100
AcDbLine
 10
24.41764910659334
 20
12.33181852666438
 30
0.0
 11
24.41764910659334
 21
12.79684606419341
 31
0.0
  0
LINE
  5
1A20
330
1F
100
AcDbEntity
  8
OBJECT2
100
AcDbLine
 10
24.52231409651953
 20
12.37648057899829
 30
0.0
 11
24.5222857021268
 21
12.75215561746679
 31
0.0
  0
LINE
  5
1A21
330
1F
100
AcDbEntity
  8
OBJECT2
100
AcDbLine
 10
24.45253743656874
 20
12.37650897339101
 30
0.0
 11
24.45253743656874
 21
12.75218401185949
 31
0.0
  0
LINE
  5
1A22
330
1F
100
AcDbEntity
  8
OBJECT2
100
AcDbLine
 10
24.48742576654412
 20
12.33181852666438
 30
0.0
 11
24.48742576654412
 21
12.79684606419341
 31
0.0
  0
LINE
  5
1A23
330
1F
100
AcDbEntity
  8
OBJECT2
100
AcDbLine
 10
24.39890657779622
 20
12.39469693036784
 30
0.0
 11
24.41764910659334
 21
12.50798957990636
 31
0.0
  0
LINE
  5
1A24
330
1F
100
AcDbEntity
  8
OBJECT2
100
AcDbLine
 10
24.32389910659334
 20
12.39469693036784
 30
0.0
 11
24.30515657779622
 21
12.50798957990636
 31
0.0
  0
LINE
  5
1A25
330
1F
100
AcDbEntity
  8
OBJECT2
100
AcDbLine
 10
24.32389910659334
 20
12.39469693036784
 30
0.0
 11
24.30509173314177
 21
12.33230543951726
 31
0.0
  0
LINE
  5
1A26
330
1F
100
AcDbEntity
  8
OBJECT2
100
AcDbLine
 10
24.39890657779622
 20
12.39469693036784
 30
0.0
 11
24.41771395124779
 21
12.33230543951726
 31
0.0
  0
LINE
  5
1A27
330
1F
100
AcDbEntity
  8
OBJECT2
100
AcDbLine
 10
24.32389910659334
 20
12.39469693036784
 30
0.0
 11
24.39890657779622
 21
12.39469693036784
 31
0.0
  0
LINE
  5
1A28
330
1F
100
AcDbEntity
  8
OBJECT2
100
AcDbLine
 10
24.32389910659334
 20
12.73491400268786
 30
0.0
 11
24.30509173314177
 21
12.79730549353843
 31
0.0
  0
LINE
  5
1A29
330
1F
100
AcDbEntity
  8
OBJECT2
100
AcDbLine
 10
24.39890657779622
 20
12.73491400268786
 30
0.0
 11
24.41771395124779
 21
12.79730549353843
 31
0.0
  0
LINE
  5
1A2A
330
1F
100
AcDbEntity
  8
OBJECT2
100
AcDbLine
 10
24.32389910659334
 20
12.73491400268786
 30
0.0
 11
24.39890657779622
 21
12.73491400268786
 31
0.0
  0
LINE
  5
1A2B
330
1F
100
AcDbEntity
  8
OBJECT2
100
AcDbLine
 10
24.39890657779622
 20
12.73491400268786
 30
0.0
 11
24.41764910659334
 21
12.62162135314933
 31
0.0
  0
LINE
  5
1A2C
330
1F
100
AcDbEntity
  8
OBJECT2
100
AcDbLine
 10
24.32389910659334
 20
12.73491400268786
 30
0.0
 11
24.30515657779622
 21
12.62162135314933
 31
0.0
  0
LINE
  5
1A31
330
1F
100
AcDbEntity
  8
OBJECT2
100
AcDbLine
 10
23.66305957553414
 20
12.45450681078074
 30
0.0
 11
23.66306292816236
 21
12.67388181075516
 31
0.0
  0
LINE
  5
1A32
330
1F
100
AcDbEntity
  8
OBJECT2
100
AcDbLine
 10
23.79431557592428
 20
12.45450681078074
 30
0.0
 11
23.79431222329607
 21
12.67388181075516
 31
0.0
  0
LINE
  5
1A33
330
1F
100
AcDbEntity
  8
OBJECT2
100
AcDbLine
 10
23.8238587637597
 20
12.79678620076071
 30
0.0
 11
23.82372909225595
 21
12.33178614673955
 31
0.0
  0
LINE
  5
1A34
330
1F
100
AcDbEntity
  8
OBJECT2
100
AcDbLine
 10
23.85514910659334
 20
12.79730547551557
 30
0.0
 11
23.85527892533977
 21
12.3317774114538
 31
0.0
  0
LINE
  5
1A35
330
1F
100
AcDbEntity
  8
OBJECT2
100
AcDbLine
 10
23.83944469957965
 20
12.7768354804075
 30
0.0
 11
23.83944469957965
 21
12.35173686709277
 31
0.0
  0
LINE
  5
1A36
330
1F
100
AcDbEntity
  8
OBJECT2
100
AcDbLine
 10
23.85508426193891
 20
12.79730549353843
 30
0.0
 11
23.85521393344264
 21
12.33230543951726
 31
0.0
  0
LINE
  5
1A37
330
1F
100
AcDbEntity
  8
OBJECT2
100
AcDbLine
 10
23.67430940360319
 20
12.4432566388524
 30
0.0
 11
23.78306574785524
 21
12.4432566388524
 31
0.0
  0
ARC
  5
1A38
330
1F
100
AcDbEntity
  8
OBJECT1
  6
CONTINUOUS
100
AcDbCircle
 10
23.70263599403669
 20
12.32101305613105
 30
0.0
 40
0.01125
100
AcDbArc
 50
90.01592910310318
 51
225.0000000000002
  0
LINE
  5
1A39
330
1F
100
AcDbEntity
  8
OBJECT2
100
AcDbLine
 10
23.94889910659334
 20
12.39469693036784
 30
0.0
 11
23.96764163539047
 21
12.50798957990636
 31
0.0
  0
LINE
  5
1A3A
330
1F
100
AcDbEntity
  8
OBJECT2
100
AcDbLine
 10
23.87389163539047
 20
12.39469693036784
 30
0.0
 11
23.85514910659334
 21
12.50798957990636
 31
0.0
  0
LINE
  5
1A3B
330
1F
100
AcDbEntity
  8
OBJECT2
100
AcDbLine
 10
23.94889910659334
 20
12.39469693036784
 30
0.0
 11
23.87389163539047
 21
12.39469693036784
 31
0.0
  0
LINE
  5
1A3C
330
1F
100
AcDbEntity
  8
OBJECT2
100
AcDbLine
 10
23.94889910659334
 20
12.39469693036784
 30
0.0
 11
23.96770648004491
 21
12.33230543951726
 31
0.0
  0
LINE
  5
1A3D
330
1F
100
AcDbEntity
  8
OBJECT2
100
AcDbLine
 10
23.87389163539047
 20
12.39469693036784
 30
0.0
 11
23.85508426193891
 21
12.33230543951726
 31
0.0
  0
ARC
  5
1A3E
330
1F
100
AcDbEntity
  8
OBJECT2
100
AcDbCircle
 10
23.78306557592559
 20
12.45450663885109
 30
0.0
 40
0.01125
100
AcDbArc
 50
270.0008756305186
 51
0.0008756305267537
  0
LINE
  5
1A3F
330
1F
100
AcDbEntity
  8
OBJECT1
  6
CONTINUOUS
100
AcDbLine
 10
23.85521409849047
 20
12.33230547561382
 30
0.0
 11
23.70263286636466
 21
12.33226305569628
 31
0.0
  0
LINE
  5
1A40
330
1F
100
AcDbEntity
  8
OBJECT1
  6
CONTINUOUS
100
AcDbLine
 10
23.69468104274835
 20
12.31305810484271
 30
0.0
 11
23.7143258012249
 21
12.29341334636616
 31
0.0
  0
ARC
  5
1A43
330
1F
100
AcDbEntity
  8
OBJECT2
100
AcDbCircle
 10
23.67430957553283
 20
12.45450663885109
 30
0.0
 40
0.01125
100
AcDbArc
 50
179.9991243694732
 51
269.9991243694814
  0
LINE
  5
1A44
330
1F
100
AcDbEntity
  8
OBJECT2
100
AcDbLine
 10
23.6743131000907
 20
12.6851316388242
 30
0.0
 11
23.78306310007797
 21
12.68512997683758
 31
0.0
  0
LINE
  5
1A45
330
1F
100
AcDbEntity
  8
OBJECT2
100
AcDbLine
 10
23.94889910659334
 20
12.73491400268786
 30
0.0
 11
23.87389163539047
 21
12.73491400268786
 31
0.0
  0
LINE
  5
1A46
330
1F
100
AcDbEntity
  8
OBJECT2
100
AcDbLine
 10
23.94889910659334
 20
12.73491400268786
 30
0.0
 11
23.96770648004491
 21
12.79730549353843
 31
0.0
  0
LINE
  5
1A47
330
1F
100
AcDbEntity
  8
OBJECT2
100
AcDbLine
 10
23.87389163539047
 20
12.73491400268786
 30
0.0
 11
23.85508426193891
 21
12.79730549353843
 31
0.0
  0
ARC
  5
1A48
330
1F
100
AcDbEntity
  8
OBJECT2
100
AcDbCircle
 10
23.78306222329739
 20
12.67388163882551
 30
0.0
 40
0.01125
100
AcDbArc
 50
0.0008756305180008
 51
90.00087563051819
  0
LINE
  5
1A49
330
1F
100
AcDbEntity
  8
OBJECT2
100
AcDbLine
 10
23.94889910659334
 20
12.73491400268786
 30
0.0
 11
23.96764163539047
 21
12.62162135314933
 31
0.0
  0
LINE
  5
1A4A
330
1F
100
AcDbEntity
  8
OBJECT2
100
AcDbLine
 10
23.87389163539047
 20
12.73491400268786
 30
0.0
 11
23.85514910659334
 21
12.62162135314933
 31
0.0
  0
ARC
  5
1A56
330
1F
100
AcDbEntity
  8
OBJECT2
100
AcDbCircle
 10
23.67431292816105
 20
12.67388163882551
 30
0.0
 40
0.01125
100
AcDbArc
 50
89.99912436948182
 51
179.999124369482
  0
LINE
  5
1A59
330
1F
100
AcDbEntity
  8
OBJECT1
100
AcDbLine
 10
22.10212222416175
 20
12.2660373447638
 30
0.0
 11
22.10212222416175
 21
12.33181808924481
 31
0.0
  0
LINE
  5
1A5A
330
1F
100
AcDbEntity
  8
OBJECT1
  6
CONTINUOUS
100
AcDbLine
 10
22.68150795895429
 20
12.28943587072199
 30
0.0
 11
22.68548543459847
 21
12.29341334636616
 31
0.0
  0
LINE
  5
1A5B
330
1F
100
AcDbEntity
  8
OBJECT1
  6
CONTINUOUS
100
AcDbLine
 10
22.58152370688983
 20
12.37351022020975
 30
0.0
 11
22.6655980563776
 21
12.28943587072199
 31
0.0
  0
ARC
  5
1A5C
330
1F
100
AcDbEntity
  8
OBJECT1
  6
CONTINUOUS
100
AcDbCircle
 10
22.3991712694972
 20
12.51066826787565
 30
0.0
 40
0.215625
100
AcDbArc
 50
236.897506835771
 51
320.2367693756052
  0
LINE
  5
1A5D
330
1F
100
AcDbEntity
  8
OBJECT2
100
AcDbLine
 10
23.23729146618781
 20
12.29454904974577
 30
0.0
 11
23.23728377237165
 21
12.26687602794957
 31
0.0
  0
LINE
  5
1A5E
330
1F
100
AcDbEntity
  8
OBJECT2
100
AcDbLine
 10
23.3025111322066
 20
12.33206712807783
 30
0.0
 11
23.23728377237165
 21
12.26687602794957
 31
0.0
  0
LINE
  5
1A5F
330
1F
100
AcDbEntity
  8
OBJECT1
  6
CONTINUOUS
100
AcDbLine
 10
22.70139533717515
 20
12.29341334636616
 30
0.0
 11
23.06201979558031
 21
11.93278888796103
 31
0.0
  0
ARC
  5
1A60
330
1F
100
AcDbEntity
  8
OBJECT1
  6
CONTINUOUS
100
AcDbCircle
 10
23.06599727122449
 20
11.9049465584518
 30
0.0
 40
0.01125
100
AcDbArc
 50
134.9999999999999
 51
225.0
  0
LINE
  5
1A61
330
1F
100
AcDbEntity
  8
OBJECT1
  6
CONTINUOUS
100
AcDbLine
 10
23.05804231993612
 20
11.91290150974015
 30
0.0
 11
23.06201979558031
 21
11.91687898538432
 31
0.0
  0
ARC
  5
1A62
330
1F
100
AcDbEntity
  8
OBJECT1
  6
CONTINUOUS
100
AcDbCircle
 10
23.05406484429197
 20
11.92483393667267
 30
0.0
 40
0.01125
100
AcDbArc
 50
314.9999999999987
 51
45.00000000000015
  0
LINE
  5
1A63
330
1F
100
AcDbEntity
  8
OBJECT1
100
AcDbLine
 10
23.20653474398531
 20
11.74849918311428
 30
0.0
 11
23.19592814226751
 21
11.75910578483208
 31
0.0
  0
ARC
  5
1A64
330
1F
100
AcDbEntity
  8
OBJECT1
100
AcDbCircle
 10
23.21448969527365
 20
11.75645413440263
 30
0.0
 40
0.01125
100
AcDbArc
 50
225.0
 51
314.9999999999999
  0
LINE
  5
1A65
330
1F
100
AcDbEntity
  8
OBJECT1
100
AcDbLine
 10
23.18797319097915
 20
11.76706073612042
 30
0.0
 11
23.20388309355585
 21
11.76706073612042
 31
0.0
  0
LINE
  5
1A66
330
1F
100
AcDbEntity
  8
OBJECT1
  6
CONTINUOUS
100
AcDbLine
 10
23.05804231993612
 20
11.89699160716345
 30
0.0
 11
23.18797319097915
 21
11.76706073612042
 31
0.0
  0
ARC
  5
1A67
330
1F
100
AcDbEntity
  8
OBJECT1
  6
CONTINUOUS
100
AcDbCircle
 10
22.67355300766594
 20
12.29739082201034
 30
0.0
 40
0.01125
100
AcDbArc
 50
224.9999999999996
 51
315.0000000000015
  0
ARC
  5
1A68
330
1F
100
AcDbEntity
  8
OBJECT1
100
AcDbCircle
 10
21.98105254838668
 20
12.26476818423283
 30
0.0
 40
0.01125
100
AcDbArc
 50
37.09086977252655
 51
110.3375238954463
  0
ARC
  5
1A69
330
1F
100
AcDbEntity
  8
OBJECT1
100
AcDbCircle
 10
22.0139701328891
 20
12.2585373447638
 30
0.0
 40
0.01125
100
AcDbArc
 50
217.090869772526
 51
270.0
  0
LINE
  5
1A6A
330
1F
100
AcDbEntity
  8
OBJECT1
100
AcDbLine
 10
22.00499623242315
 20
12.25175268482927
 30
0.0
 11
21.99002644885263
 21
12.27155284416736
 31
0.0
  0
LINE
  5
1A6B
330
1F
100
AcDbEntity
  8
OBJECT1
100
AcDbLine
 10
22.09274722416176
 20
12.2472873447638
 30
0.0
 11
22.10212222416175
 21
12.2660373447638
 31
0.0
  0
LINE
  5
1A6C
330
1F
100
AcDbEntity
  8
OBJECT1
100
AcDbLine
 10
22.0139701328891
 20
12.2472873447638
 30
0.0
 11
22.09274722416176
 21
12.2472873447638
 31
0.0
  0
LINE
  5
1A6D
330
1F
100
AcDbEntity
  8
OBJECT2
100
AcDbLine
 10
22.58152370688983
 20
12.37351022020975
 30
0.0
 11
22.45707978871492
 21
12.49795413838466
 31
0.0
  0
ARC
  5
1A6E
330
1F
100
AcDbEntity
  8
OBJECT1
  6
CONTINUOUS
100
AcDbCircle
 10
22.57356875560149
 20
12.3655552689214
 30
0.0
 40
0.01125
100
AcDbArc
 50
45.00000000000006
 51
140.2367693756058
  0
LINE
  5
1A6F
330
1F
100
AcDbEntity
  8
OBJECT2
100
AcDbLine
 10
23.19261803154064
 20
12.81632844505917
 30
0.0
 11
22.73441295594922
 21
12.35812336946774
 31
0.0
  0
LINE
  5
1A70
330
1F
100
AcDbEntity
  8
OBJECT2
100
AcDbLine
 10
23.23732003207834
 20
12.39729448791279
 30
0.0
 11
23.23731231813097
 21
12.36954905840616
 31
0.0
  0
LINE
  5
1A71
330
1F
100
AcDbEntity
  8
OBJECT2
100
AcDbLine
 10
23.23732003207834
 20
12.39729448791279
 30
0.0
 11
23.3025111322066
 21
12.33206712807783
 31
0.0
  0
LINE
  5
1A72
330
1F
100
AcDbEntity
  8
OBJECT2
100
AcDbLine
 10
23.23731231813097
 20
12.36954905840616
 30
0.0
 11
23.03625074858389
 21
12.36949333030414
 31
0.0
  0
LINE
  5
1A73
330
1F
100
AcDbEntity
  8
OBJECT2
100
AcDbLine
 10
23.23729146618781
 20
12.29454904974577
 30
0.0
 11
23.03627153628339
 21
12.294493333185
 31
0.0
  0
LINE
  5
1A74
330
1F
100
AcDbEntity
  8
OBJECT2
100
AcDbLine
 10
23.03625074858389
 20
12.36949333030413
 30
0.0
 11
23.03627153628339
 21
12.29449333318499
 31
0.0
  0
ARC
  5
1A75
330
1F
100
AcDbEntity
  8
OBJECT1
  6
CONTINUOUS
100
AcDbCircle
 10
22.69344038588681
 20
12.28545839507782
 30
0.0
 40
0.01125
100
AcDbArc
 50
45.00000000000015
 51
134.9999999999999
  0
ARC
  5
1A76
330
1F
100
AcDbEntity
  8
OBJECT1
  6
CONTINUOUS
100
AcDbCircle
 10
23.200572982829
 20
12.80837349377082
 30
0.0
 40
0.01125
100
AcDbArc
 50
134.9999999999999
 51
270.0159291031027
  0
LINE
  5
1A7B
330
1F
100
AcDbEntity
  8
OBJECT2
100
AcDbLine
 10
22.29436863404303
 20
12.66066529305656
 30
0.0
 11
22.29431132266974
 21
12.45452477305611
 31
0.0
  0
LINE
  5
1A7C
330
1F
100
AcDbEntity
  8
OBJECT2
100
AcDbLine
 10
22.16312231063354
 20
12.67390768960635
 30
0.0
 11
22.16306131979842
 21
12.45453269051283
 31
0.0
  0
LINE
  5
1A7D
330
1F
100
AcDbEntity
  8
OBJECT2
100
AcDbLine
 10
22.1021870688162
 20
12.79681812524312
 30
0.0
 11
22.10205739731246
 21
12.33181807122195
 31
0.0
  0
LINE
  5
1A7E
330
1F
100
AcDbEntity
  8
OBJECT2
100
AcDbLine
 10
22.13347748062786
 20
12.33182680648595
 30
0.0
 11
22.13360730866092
 21
12.79682686055063
 31
0.0
  0
LINE
  5
1A7F
330
1F
100
AcDbEntity
  8
OBJECT2
100
AcDbLine
 10
22.11789162307258
 20
12.77687614017565
 30
0.0
 11
22.11789162307258
 21
12.35177752686092
 31
0.0
  0
LINE
  5
1A83
330
1F
100
AcDbEntity
  8
OBJECT2
100
AcDbLine
 10
22.17431114743399
 20
12.44327956277912
 30
0.0
 11
22.28306115117489
 21
12.44327790079245
 31
0.0
  0
LINE
  5
1A84
330
1F
100
AcDbEntity
  8
OBJECT1
  6
CONTINUOUS
100
AcDbLine
 10
22.27526298939247
 20
12.33186622502715
 30
0.0
 11
22.10205739731246
 21
12.33181807122195
 31
0.0
  0
ARC
  5
1A85
330
1F
100
AcDbEntity
  8
OBJECT2
100
AcDbCircle
 10
22.28306132310453
 20
12.45452790079113
 30
0.0
 40
0.01125
100
AcDbArc
 50
269.9991243694818
 51
359.9840705761126
  0
ARC
  5
1A86
330
1F
100
AcDbEntity
  8
OBJECT1
  6
CONTINUOUS
100
AcDbCircle
 10
22.2752661170645
 20
12.32061622546192
 30
0.0
 40
0.01125
100
AcDbArc
 50
56.89750683576958
 51
90.01592910310113
  0
LINE
  5
1A89
330
1F
100
AcDbEntity
  8
OBJECT2
100
AcDbLine
 10
22.00837222416176
 20
12.39420956207253
 30
0.0
 11
21.98962969536464
 21
12.50750221161105
 31
0.0
  0
LINE
  5
1A8A
330
1F
100
AcDbEntity
  8
OBJECT2
100
AcDbLine
 10
22.00837222416176
 20
12.39420956207253
 30
0.0
 11
22.08337969536464
 21
12.39420956207253
 31
0.0
  0
LINE
  5
1A8B
330
1F
100
AcDbEntity
  8
OBJECT2
100
AcDbLine
 10
22.00837222416176
 20
12.39420956207253
 30
0.0
 11
21.98956485071019
 21
12.33181807122195
 31
0.0
  0
ARC
  5
1A8C
330
1F
100
AcDbEntity
  8
OBJECT2
  6
CONTINUOUS
100
AcDbCircle
 10
22.17431131936363
 20
12.45452956277781
 30
0.0
 40
0.01125
100
AcDbArc
 50
179.9840705761124
 51
269.9991243694822
  0
LINE
  5
1A8D
330
1F
100
AcDbEntity
  8
OBJECT2
100
AcDbLine
 10
22.08337969536464
 20
12.39420956207253
 30
0.0
 11
22.10212222416175
 21
12.50750221161105
 31
0.0
  0
LINE
  5
1A8E
330
1F
100
AcDbEntity
  8
OBJECT2
100
AcDbLine
 10
22.08337969536464
 20
12.39420956207253
 30
0.0
 11
22.1021870688162
 21
12.33181807122195
 31
0.0
  0
LINE
  5
1A8F
330
1F
100
AcDbEntity
  8
OBJECT2
100
AcDbLine
 10
22.1743724821284
 20
12.68515456187001
 30
0.0
 11
22.26988082484877
 21
12.68515310225082
 31
0.0
  0
LINE
  5
1A90
330
1F
100
AcDbEntity
  8
OBJECT2
100
AcDbLine
 10
22.34819781128986
 20
12.60683611580972
 30
0.0
 11
22.15820022934065
 21
12.79683369775893
 31
0.0
  0
LINE
  5
1A9E
330
1F
100
AcDbEntity
  8
OBJECT2
100
AcDbLine
 10
22.00837222416176
 20
12.73442663439254
 30
0.0
 11
22.08337969536464
 21
12.73442663439254
 31
0.0
  0
LINE
  5
1A9F
330
1F
100
AcDbEntity
  8
OBJECT2
100
AcDbLine
 10
22.00837222416176
 20
12.73442663439254
 30
0.0
 11
21.98956485071019
 21
12.79681812524312
 31
0.0
  0
LINE
  5
1AA0
330
1F
100
AcDbEntity
  8
OBJECT2
100
AcDbLine
 10
22.00837222416176
 20
12.73442663439254
 30
0.0
 11
21.98962969536464
 21
12.62113398485402
 31
0.0
  0
ARC
  5
1AA1
330
1F
100
AcDbEntity
  8
OBJECT1
  6
CONTINUOUS
100
AcDbCircle
 10
22.15553217628918
 20
12.80808295643412
 30
0.0
 40
0.01125
100
AcDbArc
 50
270.0159291031084
 51
315.0000000000009
  0
LINE
  5
1AA2
330
1F
100
AcDbEntity
  8
OBJECT1
  6
CONTINUOUS
100
AcDbLine
 10
22.15553530396122
 20
12.79683295686889
 30
0.0
 11
22.1021870688162
 21
12.79681812524312
 31
0.0
  0
ARC
  5
1AA3
330
1F
100
AcDbEntity
  8
OBJECT2
100
AcDbCircle
 10
22.17437231019876
 20
12.67390456187132
 30
0.0
 40
0.01125
100
AcDbArc
 50
89.99912436948182
 51
179.9840705761124
  0
LINE
  5
1AA4
330
1F
100
AcDbEntity
  8
OBJECT2
100
AcDbLine
 10
22.08337969536464
 20
12.73442663439254
 30
0.0
 11
22.1021870688162
 21
12.79681812524312
 31
0.0
  0
LINE
  5
1AA5
330
1F
100
AcDbEntity
  8
OBJECT2
100
AcDbLine
 10
22.08337969536464
 20
12.73442663439254
 30
0.0
 11
22.10212222416175
 21
12.62113398485402
 31
0.0
  0
LINE
  5
1AA6
330
1F
100
AcDbEntity
  8
OBJECT1
100
AcDbLine
 10
21.53962222416176
 20
12.2660373447638
 30
0.0
 11
21.53962222416176
 21
12.33275951608731
 31
0.0
  0
ARC
  5
1AA7
330
1F
100
AcDbEntity
  8
OBJECT1
100
AcDbCircle
 10
21.66069189993683
 20
12.26476818423283
 30
0.0
 40
0.01125
100
AcDbArc
 50
69.66247610455361
 51
142.9091302274734
  0
ARC
  5
1AA8
330
1F
100
AcDbEntity
  8
OBJECT1
100
AcDbCircle
 10
21.62777431543443
 20
12.2585373447638
 30
0.0
 40
0.01125
100
AcDbArc
 50
270.0
 51
322.9091302274739
  0
LINE
  5
1AA9
330
1F
100
AcDbEntity
  8
OBJECT1
100
AcDbLine
 10
21.54899722416176
 20
12.2472873447638
 30
0.0
 11
21.62777431543443
 21
12.2472873447638
 31
0.0
  0
LINE
  5
1AAA
330
1F
100
AcDbEntity
  8
OBJECT1
100
AcDbLine
 10
21.63674821590038
 20
12.25175268482927
 30
0.0
 11
21.65171799947088
 21
12.27155284416736
 31
0.0
  0
LINE
  5
1AAB
330
1F
100
AcDbEntity
  8
OBJECT1
100
AcDbLine
 10
21.54899722416176
 20
12.2472873447638
 30
0.0
 11
21.53962222416176
 21
12.2660373447638
 31
0.0
  0
LINE
  5
1AAC
330
1F
100
AcDbEntity
  8
OBJECT2
100
AcDbLine
 10
21.5395987977145
 20
12.33181852666438
 30
0.0
 11
21.5395987977145
 21
12.79684606419341
 31
0.0
  0
LINE
  5
1AAD
330
1F
100
AcDbEntity
  8
OBJECT2
100
AcDbLine
 10
21.46982213776369
 20
12.33181852666438
 30
0.0
 11
21.46982213776369
 21
12.79684606419341
 31
0.0
  0
LINE
  5
1AAE
330
1F
100
AcDbEntity
  8
OBJECT2
100
AcDbLine
 10
21.50471046773911
 20
12.37650897339101
 30
0.0
 11
21.50471046773911
 21
12.75218401185949
 31
0.0
  0
LINE
  5
1AAF
330
1F
100
AcDbEntity
  8
OBJECT2
100
AcDbLine
 10
21.43493380778831
 20
12.37648057899829
 30
0.0
 11
21.43496220218104
 21
12.75215561746679
 31
0.0
  0
LINE
  5
1AB0
330
1F
100
AcDbEntity
  8
OBJECT2
100
AcDbLine
 10
21.63337222416175
 20
12.39420956207253
 30
0.0
 11
21.65211475295888
 21
12.50750221161105
 31
0.0
  0
LINE
  5
1AB1
330
1F
100
AcDbEntity
  8
OBJECT2
100
AcDbLine
 10
21.55836475295888
 20
12.39420956207253
 30
0.0
 11
21.53962222416176
 21
12.50750221161105
 31
0.0
  0
LINE
  5
1AB2
330
1F
100
AcDbEntity
  8
OBJECT2
100
AcDbLine
 10
21.55836475295888
 20
12.39420956207253
 30
0.0
 11
21.53955737950731
 21
12.33181807122195
 31
0.0
  0
LINE
  5
1AB3
330
1F
100
AcDbEntity
  8
OBJECT2
100
AcDbLine
 10
21.63337222416175
 20
12.39420956207253
 30
0.0
 11
21.65217959761331
 21
12.33181807122195
 31
0.0
  0
LINE
  5
1AB4
330
1F
100
AcDbEntity
  8
OBJECT2
100
AcDbLine
 10
21.63337222416175
 20
12.39420956207253
 30
0.0
 11
21.55836475295888
 21
12.39420956207253
 31
0.0
  0
LINE
  5
1AB5
330
1F
100
AcDbEntity
  8
OBJECT2
100
AcDbLine
 10
21.55836475295888
 20
12.73442663439254
 30
0.0
 11
21.53955737950731
 21
12.79681812524312
 31
0.0
  0
LINE
  5
1AB6
330
1F
100
AcDbEntity
  8
OBJECT2
100
AcDbLine
 10
21.63337222416175
 20
12.73442663439254
 30
0.0
 11
21.65217959761331
 21
12.79681812524312
 31
0.0
  0
LINE
  5
1AB7
330
1F
100
AcDbEntity
  8
OBJECT2
100
AcDbLine
 10
21.63337222416175
 20
12.73442663439254
 30
0.0
 11
21.55836475295888
 21
12.73442663439254
 31
0.0
  0
LINE
  5
1AB8
330
1F
100
AcDbEntity
  8
OBJECT2
100
AcDbLine
 10
21.63337222416175
 20
12.73442663439254
 30
0.0
 11
21.65211475295888
 21
12.62113398485402
 31
0.0
  0
LINE
  5
1AB9
330
1F
100
AcDbEntity
  8
OBJECT2
100
AcDbLine
 10
21.55836475295888
 20
12.73442663439254
 30
0.0
 11
21.53962222416176
 21
12.62113398485402
 31
0.0
  0
LINE
  5
1ABA
330
1F
100
AcDbEntity
  8
OBJECT2
100
AcDbLine
 10
21.88274722416176
 20
14.48571821667374
 30
0.0
 11
21.75899722416176
 21
14.48571821667374
 31
0.0
  0
LINE
  5
1ABB
330
1F
100
AcDbEntity
  8
OBJECT2
100
AcDbLine
 10
21.88274722416176
 20
14.435725382765
 30
0.0
 11
21.75899722416176
 21
14.435725382765
 31
0.0
  0
LINE
  5
1ABC
330
1F
100
AcDbEntity
  8
OBJECT2
100
AcDbLine
 10
21.88274722416176
 20
14.53571105058249
 30
0.0
 11
21.75899722416176
 21
14.53571105058249
 31
0.0
  0
LINE
  5
1ABD
330
1F
100
AcDbEntity
  8
OBJECT2
100
AcDbLine
 10
21.88274722416176
 20
14.33587315921577
 30
0.0
 11
21.75899722416176
 21
14.33587315921577
 31
0.0
  0
LINE
  5
1ABE
330
1F
100
AcDbEntity
  8
OBJECT2
100
AcDbLine
 10
21.88274722416176
 20
14.28588032530703
 30
0.0
 11
21.75899722416176
 21
14.28588032530703
 31
0.0
  0
LINE
  5
1ABF
330
1F
100
AcDbEntity
  8
OBJECT1
100
AcDbLine
 10
21.88274722416176
 20
14.58632486670383
 30
0.0
 11
21.75899722416176
 21
14.58632486670383
 31
0.0
  0
LINE
  5
1AC0
330
1F
100
AcDbEntity
  8
OBJECT2
100
AcDbLine
 10
21.88274722416176
 20
14.38579927099039
 30
0.0
 11
21.75899722416176
 21
14.38579927099039
 31
0.0
  0
LINE
  5
1AC1
330
1F
100
AcDbEntity
  8
OBJECT2
100
AcDbLine
 10
21.97087222416176
 20
14.08214867527694
 30
0.0
 11
21.67087222416177
 21
14.08214867527694
 31
0.0
  0
LINE
  5
1AC2
330
1F
100
AcDbEntity
  8
OBJECT2
100
AcDbLine
 10
21.68024722416176
 20
13.90402367527694
 30
0.0
 11
21.96149722416176
 21
13.90402367527694
 31
0.0
  0
LINE
  5
1AC3
330
1F
100
AcDbEntity
  8
OBJECT2
100
AcDbLine
 10
21.88274722416176
 20
14.23588749139828
 30
0.0
 11
21.75899722416176
 21
14.23588749139828
 31
0.0
  0
LINE
  5
1AC4
330
1F
100
AcDbEntity
  8
OBJECT2
100
AcDbLine
 10
21.88274722416176
 20
14.18527367527694
 30
0.0
 11
21.75899722416176
 21
14.18527367527694
 31
0.0
  0
LINE
  5
1AC5
330
1F
100
AcDbEntity
  8
OBJECT2
100
AcDbLine
 10
21.75899722416176
 20
13.86314867527694
 30
0.0
 11
21.88274722416176
 21
13.86314867527694
 31
0.0
  0
LINE
  5
1AC6
330
1F
100
AcDbEntity
  8
OBJECT2
100
AcDbLine
 10
21.86603886670436
 20
14.21033937474112
 30
0.0
 11
21.77570558161917
 21
14.21033937474112
 31
0.0
  0
LINE
  5
1AC7
330
1F
100
AcDbEntity
  8
OBJECT2
100
AcDbLine
 10
21.86603886670436
 20
14.46127349942216
 30
0.0
 11
21.77570558161917
 21
14.46127349942216
 31
0.0
  0
LINE
  5
1AC8
330
1F
100
AcDbEntity
  8
OBJECT2
100
AcDbLine
 10
21.86603886670436
 20
14.41017726610784
 30
0.0
 11
21.77570558161917
 21
14.41017726610784
 31
0.0
  0
LINE
  5
1AC9
330
1F
100
AcDbEntity
  8
OBJECT2
100
AcDbLine
 10
21.86603886670436
 20
14.56125916723965
 30
0.0
 11
21.77570558161917
 21
14.56125916723965
 31
0.0
  0
LINE
  5
1ACA
330
1F
100
AcDbEntity
  8
OBJECT2
100
AcDbLine
 10
21.86603886670436
 20
14.51016293392533
 30
0.0
 11
21.77570558161917
 21
14.51016293392533
 31
0.0
  0
LINE
  5
1ACB
330
1F
100
AcDbEntity
  8
OBJECT2
100
AcDbLine
 10
21.86603886670436
 20
14.36142127587293
 30
0.0
 11
21.77570558161917
 21
14.36142127587293
 31
0.0
  0
LINE
  5
1ACC
330
1F
100
AcDbEntity
  8
OBJECT2
100
AcDbLine
 10
21.86603886670436
 20
14.31032504255861
 30
0.0
 11
21.77570558161917
 21
14.31032504255861
 31
0.0
  0
LINE
  5
1ACD
330
1F
100
AcDbEntity
  8
OBJECT2
100
AcDbLine
 10
21.86603886670436
 20
14.26143560805544
 30
0.0
 11
21.77570558161917
 21
14.26143560805544
 31
0.0
  0
LINE
  5
1ACE
330
1F
100
AcDbEntity
  8
OBJECT2
100
AcDbLine
 10
21.91462222416176
 20
13.49152367527694
 30
0.0
 11
21.72712222416176
 21
13.49152367527694
 31
0.0
  0
LINE
  5
1ACF
330
1F
100
AcDbEntity
  8
OBJECT2
100
AcDbLine
 10
21.88274722416176
 20
13.66027367527694
 30
0.0
 11
21.75899722416176
 21
13.66027367527694
 31
0.0
  0
LINE
  5
1AD0
330
1F
100
AcDbEntity
  8
OBJECT2
100
AcDbLine
 10
21.91462222416176
 20
13.57487537712527
 30
0.0
 11
21.72712222416176
 21
13.57487537712527
 31
0.0
  0
LINE
  5
1AD1
330
1F
100
AcDbEntity
  8
OBJECT2
100
AcDbLine
 10
21.71774722416177
 20
13.42650082662465
 30
0.0
 11
21.92399722416176
 21
13.42650082662465
 31
0.0
  0
LINE
  5
1AD2
330
1F
100
AcDbEntity
  8
OBJECT2
100
AcDbLine
 10
21.53962222416176
 20
13.00031054568951
 30
0.0
 11
22.10212222416175
 21
13.00031054568951
 31
0.0
  0
LINE
  5
1AD3
330
1F
100
AcDbEntity
  8
OBJECT2
100
AcDbLine
 10
21.53962222416176
 20
13.05089867527694
 30
0.0
 11
22.10212222416175
 21
13.05089867527694
 31
0.0
  0
LINE
  5
1AD4
330
1F
100
AcDbEntity
  8
OBJECT2
100
AcDbLine
 10
21.98493472416175
 20
12.97649715808602
 30
0.0
 11
21.65680972416176
 21
12.97649715808602
 31
0.0
  0
LINE
  5
1AD5
330
1F
100
AcDbEntity
  8
OBJECT2
100
AcDbLine
 10
21.84128873270171
 20
13.53311538305745
 30
0.0
 11
21.8004557156218
 21
13.53311538305745
 31
0.0
  0
LINE
  5
1AD6
330
1F
100
AcDbEntity
  8
OBJECT2
100
AcDbLine
 10
21.79303173317448
 20
13.5247635327265
 30
0.0
 11
21.84871271514903
 21
13.5247635327265
 31
0.0
  0
LINE
  5
1AD7
330
1F
100
AcDbEntity
  8
OBJECT2
100
AcDbLine
 10
21.84128873270171
 20
13.51641138543031
 30
0.0
 11
21.8004557156218
 21
13.51641138543031
 31
0.0
  0
LINE
  5
1AD8
330
1F
100
AcDbEntity
  8
OBJECT2
100
AcDbLine
 10
21.79303173317448
 20
13.50805953509937
 30
0.0
 11
21.84871271514903
 21
13.50805953509937
 31
0.0
  0
LINE
  5
1AD9
330
1F
100
AcDbEntity
  8
OBJECT2
100
AcDbLine
 10
21.84128873270171
 20
13.49970738780318
 30
0.0
 11
21.8004557156218
 21
13.49970738780318
 31
0.0
  0
LINE
  5
1ADA
330
1F
100
AcDbEntity
  8
OBJECT2
100
AcDbLine
 10
21.78618472416177
 20
13.42650082662465
 30
0.0
 11
21.85555972416175
 21
13.42650082662465
 31
0.0
  0
LINE
  5
1ADB
330
1F
100
AcDbEntity
  8
OBJECT2
100
AcDbLine
 10
21.84128873270171
 20
13.36803668644707
 30
0.0
 11
21.8004557156218
 21
13.36803668644707
 31
0.0
  0
LINE
  5
1ADC
330
1F
100
AcDbEntity
  8
OBJECT2
100
AcDbLine
 10
21.79303173317448
 20
13.37638883374326
 30
0.0
 11
21.84871271514903
 21
13.37638883374326
 31
0.0
  0
LINE
  5
1ADD
330
1F
100
AcDbEntity
  8
OBJECT2
100
AcDbLine
 10
21.84128873270171
 20
13.3847406840742
 30
0.0
 11
21.8004557156218
 21
13.3847406840742
 31
0.0
  0
LINE
  5
1ADE
330
1F
100
AcDbEntity
  8
OBJECT2
100
AcDbLine
 10
21.79303173317448
 20
13.39309283137039
 30
0.0
 11
21.84871271514903
 21
13.39309283137039
 31
0.0
  0
LINE
  5
1ADF
330
1F
100
AcDbEntity
  8
OBJECT2
100
AcDbLine
 10
21.84128873270171
 20
13.40144468170134
 30
0.0
 11
21.8004557156218
 21
13.40144468170134
 31
0.0
  0
LINE
  5
1AE0
330
1F
100
AcDbEntity
  8
OBJECT2
100
AcDbLine
 10
21.84128873270171
 20
13.41814867932847
 30
0.0
 11
21.8004557156218
 21
13.41814867932847
 31
0.0
  0
LINE
  5
1AE1
330
1F
100
AcDbEntity
  8
OBJECT2
100
AcDbLine
 10
21.79303173317448
 20
13.40979682899752
 30
0.0
 11
21.84871271514903
 21
13.40979682899752
 31
0.0
  0
LINE
  5
1AE2
330
1F
100
AcDbEntity
  8
OBJECT2
100
AcDbLine
 10
21.77911148768085
 20
13.69739432992665
 30
0.0
 11
21.86263296064267
 21
13.69739432992665
 31
0.0
  0
LINE
  5
1AE3
330
1F
100
AcDbEntity
  8
OBJECT2
100
AcDbLine
 10
21.84128873270171
 20
13.56652382375956
 30
0.0
 11
21.8004557156218
 21
13.56652382375956
 31
0.0
  0
LINE
  5
1AE4
330
1F
100
AcDbEntity
  8
OBJECT2
100
AcDbLine
 10
21.79303173317448
 20
13.55817152798076
 30
0.0
 11
21.84871271514903
 21
13.55817152798076
 31
0.0
  0
LINE
  5
1AE5
330
1F
100
AcDbEntity
  8
OBJECT2
100
AcDbLine
 10
21.84128873270171
 20
13.54981938068458
 30
0.0
 11
21.8004557156218
 21
13.54981938068458
 31
0.0
  0
LINE
  5
1AE6
330
1F
100
AcDbEntity
  8
OBJECT2
100
AcDbLine
 10
21.79303173317448
 20
13.54146753035363
 30
0.0
 11
21.84871271514903
 21
13.54146753035363
 31
0.0
  0
ARC
  5
1AE7
330
1F
100
AcDbEntity
  8
OBJECT2
100
AcDbCircle
 10
21.99430972416176
 20
13.96027367527694
 30
0.0
 40
0.0234375
100
AcDbArc
 50
180.0
 51
270.0
  0
ARC
  5
1AE8
330
1F
100
AcDbEntity
  8
OBJECT2
100
AcDbCircle
 10
22.02712222416175
 20
13.85714867527694
 30
0.0
 40
0.0796875
100
AcDbArc
 50
359.9999999999997
 51
90.0
  0
LINE
  5
1AE9
330
1F
100
AcDbEntity
  8
OBJECT1
100
AcDbLine
 10
21.97087222416176
 20
14.08214867527694
 30
0.0
 11
22.12903624316226
 21
13.92398465627644
 31
0.0
  0
ARC
  5
1AEA
330
1F
100
AcDbEntity
  8
OBJECT2
100
AcDbCircle
 10
23.93014910659333
 20
13.85763604357225
 30
0.0
 40
0.0796875
100
AcDbArc
 50
90.0
 51
180.0000000000002
  0
ARC
  5
1AEB
330
1F
100
AcDbEntity
  8
OBJECT2
100
AcDbCircle
 10
23.96296160659333
 20
13.96076104357225
 30
0.0
 40
0.0234375
100
AcDbArc
 50
270.0
 51
0.000000000000007
  0
LINE
  5
1AEC
330
1F
100
AcDbEntity
  8
OBJECT1
100
AcDbLine
 10
23.98639910659333
 20
14.08263604357225
 30
0.0
 11
23.82823508759283
 21
13.92447202457175
 31
0.0
  0
ARC
  5
1AED
330
1F
100
AcDbEntity
  8
OBJECT2
100
AcDbCircle
 10
24.34264910659335
 20
13.85763604357225
 30
0.0
 40
0.0796875
100
AcDbArc
 50
359.9999999999997
 51
90.0
  0
ARC
  5
1AEE
330
1F
100
AcDbEntity
  8
OBJECT2
100
AcDbCircle
 10
24.30983660659335
 20
13.96076104357225
 30
0.0
 40
0.0234375
100
AcDbArc
 50
180.0
 51
270.0
  0
LINE
  5
1AEF
330
1F
100
AcDbEntity
  8
OBJECT1
100
AcDbLine
 10
24.28639910659335
 20
14.08263604357225
 30
0.0
 11
24.44456312559386
 21
13.92447202457175
 31
0.0
  0
LINE
  5
1AF0
330
1F
100
AcDbEntity
  8
OBJECT1
100
AcDbLine
 10
23.99160743992668
 20
13.30867771023892
 30
0.0
 11
23.82823508759284
 21
13.47205006257275
 31
0.0
  0
LINE
  5
1AF1
330
1F
100
AcDbEntity
  8
OBJECT2
100
AcDbLine
 10
24.16423959758061
 20
13.37687620203857
 30
0.0
 11
24.16423959758061
 21
13.42698819491996
 31
0.0
  0
LINE
  5
1AF2
330
1F
100
AcDbEntity
  8
OBJECT2
100
AcDbLine
 10
24.25739303645348
 20
13.41338775218767
 30
0.0
 11
24.28119077326
 21
13.30867771023892
 31
0.0
  0
LINE
  5
1AF3
330
1F
100
AcDbEntity
  8
OBJECT2
100
AcDbLine
 10
24.10855861560607
 20
13.37687620203857
 30
0.0
 11
24.10855861560607
 21
13.42698819491996
 31
0.0
  0
LINE
  5
1AF4
330
1F
100
AcDbEntity
  8
OBJECT1
100
AcDbLine
 10
24.28119077326
 20
13.30867771023892
 30
0.0
 11
24.44456312559384
 21
13.47205006257275
 31
0.0
  0
LINE
  5
1AF5
330
1F
100
AcDbEntity
  8
OBJECT2
100
AcDbLine
 10
24.01540517673321
 20
13.41338775218767
 30
0.0
 11
23.99160743992668
 21
13.30867771023892
 31
0.0
  0
LINE
  5
1AF6
330
1F
100
AcDbEntity
  8
OBJECT2
100
AcDbLine
 10
23.94695604951549
 20
13.1773457681704
 30
0.0
 11
24.1083462497849
 21
13.18672076668827
 31
0.0
  0
LINE
  5
1AF7
330
1F
100
AcDbEntity
  8
OBJECT2
100
AcDbLine
 10
23.85514910659334
 20
13.00079791398482
 30
0.0
 11
24.41764910659334
 21
13.00079791398482
 31
0.0
  0
LINE
  5
1AF8
330
1F
100
AcDbEntity
  8
OBJECT2
100
AcDbLine
 10
23.85514910659334
 20
13.05138604357225
 30
0.0
 11
24.41764910659334
 21
13.05138604357225
 31
0.0
  0
LINE
  5
1AF9
330
1F
100
AcDbEntity
  8
OBJECT2
100
AcDbLine
 10
24.30046160659334
 20
12.97698452638132
 30
0.0
 11
23.97233660659334
 21
12.97698452638132
 31
0.0
  0
LINE
  5
1AFA
330
1F
100
AcDbEntity
  8
OBJECT2
100
AcDbLine
 10
23.94695604951549
 20
13.06076104209012
 30
0.0
 11
24.1083462497849
 21
13.05138604357225
 31
0.0
  0
LINE
  5
1AFB
330
1F
100
AcDbEntity
  8
OBJECT1
100
AcDbLine
 10
24.51527913362431
 20
13.06076104159609
 30
0.0
 11
24.51519847236666
 21
13.18499032315491
 31
0.0
  0
LINE
  5
1AFC
330
1F
100
AcDbEntity
  8
OBJECT2
100
AcDbLine
 10
24.3258421636712
 20
13.17734576718231
 30
0.0
 11
24.3258421636712
 21
13.06076104209012
 31
0.0
  0
LINE
  5
1AFD
330
1F
100
AcDbEntity
  8
OBJECT1
100
AcDbLine
 10
24.41764910659334
 20
13.05138604357225
 30
0.0
 11
24.49653522074903
 21
13.05138604357225
 31
0.0
  0
LINE
  5
1AFE
330
1F
100
AcDbEntity
  8
OBJECT1
100
AcDbLine
 10
24.51527913362431
 20
13.06076104159609
 30
0.0
 11
24.49653522074903
 21
13.05138604357225
 31
0.0
  0
LINE
  5
1AFF
330
1F
100
AcDbEntity
  8
OBJECT1
100
AcDbLine
 10
24.30046160659334
 20
12.97698452638132
 30
0.0
 11
24.30046160659334
 21
12.90058621999659
 31
0.0
  0
LINE
  5
1B00
330
1F
100
AcDbEntity
  8
OBJECT1
100
AcDbLine
 10
24.41764910659334
 20
13.00079791398482
 30
0.0
 11
24.41764910659334
 21
13.05138604357225
 31
0.0
  0
LINE
  5
1B01
330
1F
100
AcDbEntity
  8
OBJECT1
100
AcDbLine
 10
24.41764910659334
 20
13.00079791398482
 30
0.0
 11
24.30046160659334
 21
12.97698452638132
 31
0.0
  0
LINE
  5
1B02
330
1F
100
AcDbEntity
  8
OBJECT2
100
AcDbLine
 10
24.3258421636712
 20
13.06076104209012
 30
0.0
 11
24.41764910659334
 21
13.05138604357225
 31
0.0
  0
LINE
  5
1B03
330
1F
100
AcDbEntity
  8
OBJECT2
100
AcDbLine
 10
24.3258421636712
 20
13.06076104209012
 30
0.0
 11
24.16445196340179
 21
13.05138604357225
 31
0.0
  0
LINE
  5
1B04
330
1F
100
AcDbEntity
  8
OBJECT1
100
AcDbLine
 10
24.31921160659335
 20
12.88183621999658
 30
0.0
 11
24.40827410659334
 21
12.88183621999658
 31
0.0
  0
LINE
  5
1B05
330
1F
100
AcDbEntity
  8
OBJECT1
100
AcDbLine
 10
24.40827410659334
 20
12.88183621999658
 30
0.0
 11
24.41764910659334
 21
12.86308621999658
 31
0.0
  0
ARC
  5
1B06
330
1F
100
AcDbEntity
  8
OBJECT1
100
AcDbCircle
 10
24.31921160659335
 20
12.90058621999659
 30
0.0
 40
0.01875
100
AcDbArc
 50
180.0
 51
270.0
  0
LINE
  5
1B07
330
1F
100
AcDbEntity
  8
OBJECT1
100
AcDbLine
 10
24.3481713460624
 20
13.22125763738001
 30
0.0
 11
24.51519847236666
 21
13.18499032315491
 31
0.0
  0
LINE
  5
1B08
330
1F
100
AcDbEntity
  8
OBJECT2
100
AcDbLine
 10
24.10855861560607
 20
13.37687620203857
 30
0.0
 11
24.16423959758061
 21
13.37687620203857
 31
0.0
  0
LINE
  5
1B09
330
1F
100
AcDbEntity
  8
OBJECT2
100
AcDbLine
 10
24.15681561513331
 20
13.36852405474238
 30
0.0
 11
24.11598259805337
 21
13.36852405474238
 31
0.0
  0
LINE
  5
1B0A
330
1F
100
AcDbEntity
  8
OBJECT2
100
AcDbLine
 10
24.15681561513331
 20
13.38522805236951
 30
0.0
 11
24.11598259805337
 21
13.38522805236951
 31
0.0
  0
LINE
  5
1B0B
330
1F
100
AcDbEntity
  8
OBJECT2
100
AcDbLine
 10
24.16423959758061
 20
13.37687620203857
 30
0.0
 11
24.15681561513331
 21
13.36852405474238
 31
0.0
  0
LINE
  5
1B0C
330
1F
100
AcDbEntity
  8
OBJECT2
100
AcDbLine
 10
24.11598259805337
 20
13.36852405474238
 30
0.0
 11
24.10855861560607
 21
13.37687620203857
 31
0.0
  0
LINE
  5
1B0D
330
1F
100
AcDbEntity
  8
OBJECT2
100
AcDbLine
 10
24.3258421636712
 20
13.1773457681704
 30
0.0
 11
24.41764910659334
 21
13.18672076668827
 31
0.0
  0
LINE
  5
1B0E
330
1F
100
AcDbEntity
  8
OBJECT2
100
AcDbLine
 10
24.3258421636712
 20
13.1773457681704
 30
0.0
 11
24.16445196340179
 21
13.18672076668827
 31
0.0
  0
LINE
  5
1B0F
330
1F
100
AcDbEntity
  8
OBJECT1
100
AcDbLine
 10
24.28119077326
 20
13.30867771023892
 30
0.0
 11
24.28737432111317
 21
13.28147009968501
 31
0.0
  0
ARC
  5
1B10
330
1F
100
AcDbEntity
  8
OBJECT1
100
AcDbCircle
 10
24.36508022055905
 20
13.29913053137726
 30
0.0
 40
0.0796875
100
AcDbArc
 50
192.8042660652869
 51
257.7492890750577
  0
LINE
  5
1B11
330
1F
100
AcDbEntity
  8
OBJECT1
100
AcDbLine
 10
23.75751299243765
 20
13.06076104357225
 30
0.0
 11
23.75751299243765
 21
13.18497148710767
 31
0.0
  0
LINE
  5
1B12
330
1F
100
AcDbEntity
  8
OBJECT2
100
AcDbLine
 10
23.94695604951549
 20
13.17734576718231
 30
0.0
 11
23.94695604951549
 21
13.06076104307821
 31
0.0
  0
LINE
  5
1B13
330
1F
100
AcDbEntity
  8
OBJECT1
100
AcDbLine
 10
23.75751299243765
 20
13.06076104357225
 30
0.0
 11
23.77626299243765
 21
13.05138604357225
 31
0.0
  0
LINE
  5
1B14
330
1F
100
AcDbEntity
  8
OBJECT1
100
AcDbLine
 10
23.85514910659334
 20
13.00079791398482
 30
0.0
 11
23.85514910659334
 21
13.05138604357225
 31
0.0
  0
LINE
  5
1B15
330
1F
100
AcDbEntity
  8
OBJECT1
100
AcDbLine
 10
23.97233660659334
 20
12.97698452638132
 30
0.0
 11
23.85514910659334
 21
13.00079791398482
 31
0.0
  0
LINE
  5
1B16
330
1F
100
AcDbEntity
  8
OBJECT2
100
AcDbLine
 10
23.94695604951549
 20
13.06076104209012
 30
0.0
 11
23.85514910659334
 21
13.05138604357225
 31
0.0
  0
LINE
  5
1B17
330
1F
100
AcDbEntity
  8
OBJECT1
100
AcDbLine
 10
23.97233660659334
 20
12.97698452638132
 30
0.0
 11
23.97233660659334
 21
12.90058621999659
 31
0.0
  0
LINE
  5
1B18
330
1F
100
AcDbEntity
  8
OBJECT1
100
AcDbLine
 10
23.77626299243765
 20
13.05138604357225
 30
0.0
 11
23.85514910659334
 21
13.05138604357225
 31
0.0
  0
LINE
  5
1B19
330
1F
100
AcDbEntity
  8
OBJECT1
100
AcDbLine
 10
23.86452410659335
 20
12.88183621999658
 30
0.0
 11
23.95358660659334
 21
12.88183621999658
 31
0.0
  0
LINE
  5
1B1A
330
1F
100
AcDbEntity
  8
OBJECT1
100
AcDbLine
 10
23.86452410659335
 20
12.88183621999658
 30
0.0
 11
23.85514910659334
 21
12.86308621999658
 31
0.0
  0
ARC
  5
1B1B
330
1F
100
AcDbEntity
  8
OBJECT1
100
AcDbCircle
 10
23.95358660659334
 20
12.90058621999659
 30
0.0
 40
0.01875
100
AcDbArc
 50
270.0
 51
0.000000000000007
  0
LINE
  5
1B1C
330
1F
100
AcDbEntity
  8
OBJECT2
100
AcDbLine
 10
23.94695604951549
 20
13.1773457681704
 30
0.0
 11
23.85514910659334
 21
13.18672076668827
 31
0.0
  0
LINE
  5
1B1D
330
1F
100
AcDbEntity
  8
OBJECT1
100
AcDbLine
 10
23.92462686712428
 20
13.22125763738001
 30
0.0
 11
23.75751299243765
 21
13.18497148710767
 31
0.0
  0
LINE
  5
1B1E
330
1F
100
AcDbEntity
  8
OBJECT1
100
AcDbLine
 10
23.99160743992668
 20
13.30867771023892
 30
0.0
 11
23.98542389207351
 21
13.28147009968501
 31
0.0
  0
ARC
  5
1B1F
330
1F
100
AcDbEntity
  8
OBJECT1
100
AcDbCircle
 10
23.90771799262763
 20
13.29913053137726
 30
0.0
 40
0.0796875
100
AcDbArc
 50
282.2507109249426
 51
347.1957339347131
  0
LINE
  5
1B20
330
1F
100
AcDbEntity
  8
OBJECT1
100
AcDbLine
 10
23.99577410659334
 20
13.86363604357225
 30
0.0
 11
24.07452410659334
 21
13.86363604357225
 31
0.0
  0
LINE
  5
1B21
330
1F
100
AcDbEntity
  8
OBJECT2
100
AcDbLine
 10
23.99577410659334
 20
13.90451104357225
 30
0.0
 11
24.27702410659334
 21
13.90451104357225
 31
0.0
  0
LINE
  5
1B22
330
1F
100
AcDbEntity
  8
OBJECT2
100
AcDbLine
 10
24.23014910659334
 20
13.49201104357225
 30
0.0
 11
24.04264910659334
 21
13.49201104357225
 31
0.0
  0
LINE
  5
1B23
330
1F
100
AcDbEntity
  8
OBJECT2
100
AcDbLine
 10
24.23014910659334
 20
13.57536274542058
 30
0.0
 11
24.04264910659334
 21
13.57536274542058
 31
0.0
  0
LINE
  5
1B24
330
1F
100
AcDbEntity
  8
OBJECT1
100
AcDbLine
 10
24.07452410659334
 20
13.66076104357225
 30
0.0
 11
24.00983660659333
 21
13.66076104357225
 31
0.0
  0
LINE
  5
1B25
330
1F
100
AcDbEntity
  8
OBJECT2
100
AcDbLine
 10
24.03327410659334
 20
13.42698819491996
 30
0.0
 11
24.23952410659335
 21
13.42698819491996
 31
0.0
  0
LINE
  5
1B26
330
1F
100
AcDbEntity
  8
OBJECT2
100
AcDbLine
 10
24.1846203218095
 20
13.66076104357225
 30
0.0
 11
24.1846203218095
 21
13.69142121948672
 31
0.0
  0
LINE
  5
1B27
330
1F
100
AcDbEntity
  8
OBJECT2
100
AcDbLine
 10
24.16050971420141
 20
13.69142121948672
 30
0.0
 11
24.16050971420141
 21
13.66076104357225
 31
0.0
  0
LINE
  5
1B28
330
1F
100
AcDbEntity
  8
OBJECT2
100
AcDbLine
 10
24.08817774289457
 20
13.66076104357225
 30
0.0
 11
24.08817774289457
 21
13.69142121948672
 31
0.0
  0
LINE
  5
1B29
330
1F
100
AcDbEntity
  8
OBJECT2
100
AcDbLine
 10
24.11228849898527
 20
13.69142121948672
 30
0.0
 11
24.11228849898527
 21
13.66076104357225
 31
0.0
  0
LINE
  5
1B2A
330
1F
100
AcDbEntity
  8
OBJECT1
100
AcDbLine
 10
24.46452410659334
 20
13.85763604357225
 30
0.0
 11
24.46452410659334
 21
13.53888604357226
 31
0.0
  0
LINE
  5
1B2B
330
1F
100
AcDbEntity
  8
OBJECT1
100
AcDbLine
 10
24.38952410659335
 20
13.85763604357225
 30
0.0
 11
24.38952410659335
 21
13.53888604357226
 31
0.0
  0
LINE
  5
1B2C
330
1F
100
AcDbEntity
  8
OBJECT2
100
AcDbLine
 10
24.42233660659333
 20
13.85763604357225
 30
0.0
 11
24.42233660659333
 21
13.53888604357226
 31
0.0
  0
LINE
  5
1B2D
330
1F
100
AcDbEntity
  8
OBJECT1
100
AcDbLine
 10
24.19827410659334
 20
13.86363604357225
 30
0.0
 11
24.19827410659334
 21
13.66076104357225
 31
0.0
  0
LINE
  5
1B2E
330
1F
100
AcDbEntity
  8
OBJECT1
100
AcDbLine
 10
24.07452410659334
 20
13.86363604357225
 30
0.0
 11
24.07452410659334
 21
13.66076104357225
 31
0.0
  0
ARC
  5
1B2F
330
1F
100
AcDbEntity
  8
OBJECT2
100
AcDbCircle
 10
24.34264910659335
 20
13.53888604357226
 30
0.0
 40
0.0796875
100
AcDbArc
 50
270.0
 51
359.9999999999997
  0
ARC
  5
1B30
330
1F
100
AcDbEntity
  8
OBJECT1
100
AcDbCircle
 10
24.34264910659335
 20
13.53888604357226
 30
0.0
 40
0.1218749999999997
100
AcDbArc
 50
326.7428358479532
 51
359.9999999999997
  0
LINE
  5
1B31
330
1F
100
AcDbEntity
  8
OBJECT2
100
AcDbLine
 10
24.15681561513331
 20
13.56701119205487
 30
0.0
 11
24.11598259805337
 21
13.56701119205487
 31
0.0
  0
LINE
  5
1B32
330
1F
100
AcDbEntity
  8
OBJECT2
100
AcDbLine
 10
24.10855861560607
 20
13.55865889627607
 30
0.0
 11
24.16423959758061
 21
13.55865889627607
 31
0.0
  0
LINE
  5
1B33
330
1F
100
AcDbEntity
  8
OBJECT2
100
AcDbLine
 10
24.10855861560607
 20
13.54195489864894
 30
0.0
 11
24.16423959758061
 21
13.54195489864894
 31
0.0
  0
LINE
  5
1B34
330
1F
100
AcDbEntity
  8
OBJECT2
100
AcDbLine
 10
24.10855861560607
 20
13.52525090102181
 30
0.0
 11
24.16423959758061
 21
13.52525090102181
 31
0.0
  0
LINE
  5
1B35
330
1F
100
AcDbEntity
  8
OBJECT2
100
AcDbLine
 10
24.10855861560607
 20
13.50854690339468
 30
0.0
 11
24.16423959758061
 21
13.50854690339468
 31
0.0
  0
LINE
  5
1B36
330
1F
100
AcDbEntity
  8
OBJECT2
100
AcDbLine
 10
24.15681561513331
 20
13.55030674897989
 30
0.0
 11
24.11598259805337
 21
13.55030674897989
 31
0.0
  0
LINE
  5
1B37
330
1F
100
AcDbEntity
  8
OBJECT2
100
AcDbLine
 10
24.15681561513331
 20
13.53360275135276
 30
0.0
 11
24.11598259805337
 21
13.53360275135276
 31
0.0
  0
LINE
  5
1B38
330
1F
100
AcDbEntity
  8
OBJECT2
100
AcDbLine
 10
24.15681561513331
 20
13.51689875372562
 30
0.0
 11
24.11598259805337
 21
13.51689875372562
 31
0.0
  0
LINE
  5
1B39
330
1F
100
AcDbEntity
  8
OBJECT2
100
AcDbLine
 10
24.15681561513331
 20
13.50019475609849
 30
0.0
 11
24.11598259805337
 21
13.50019475609849
 31
0.0
  0
LINE
  5
1B3A
330
1F
100
AcDbEntity
  8
OBJECT2
100
AcDbLine
 10
24.19827410659334
 20
13.66076104357225
 30
0.0
 11
24.07452410659334
 21
13.66076104357225
 31
0.0
  0
LINE
  5
1B3B
330
1F
100
AcDbEntity
  8
OBJECT2
100
AcDbLine
 10
24.16423959758061
 20
13.49201104357225
 30
0.0
 11
24.16423959758063
 21
13.57536274542058
 31
0.0
  0
LINE
  5
1B3C
330
1F
100
AcDbEntity
  8
OBJECT1
100
AcDbLine
 10
24.23014910659334
 20
13.57536274542058
 30
0.0
 11
24.23014910659334
 21
13.49201104357225
 31
0.0
  0
LINE
  5
1B3D
330
1F
100
AcDbEntity
  8
OBJECT1
100
AcDbLine
 10
24.26296160659335
 20
13.66076104357225
 30
0.0
 11
24.19827410659334
 21
13.66076104357225
 31
0.0
  0
LINE
  5
1B3E
330
1F
100
AcDbEntity
  8
OBJECT1
100
AcDbLine
 10
24.26296160659335
 20
13.57536274542058
 30
0.0
 11
24.23014910659334
 21
13.57536274542058
 31
0.0
  0
LINE
  5
1B3F
330
1F
100
AcDbEntity
  8
OBJECT1
100
AcDbLine
 10
24.26296160659335
 20
13.66076104357225
 30
0.0
 11
24.26296160659335
 21
13.57536274542058
 31
0.0
  0
LINE
  5
1B40
330
1F
100
AcDbEntity
  8
OBJECT2
100
AcDbLine
 10
24.10855861560607
 20
13.49201104357225
 30
0.0
 11
24.10855861560607
 21
13.57536274542058
 31
0.0
  0
ARC
  5
1B41
330
1F
100
AcDbEntity
  8
OBJECT1
100
AcDbCircle
 10
24.34264910659335
 20
13.53888604357226
 30
0.0
 40
0.046875
100
AcDbArc
 50
270.0
 51
359.9999999999997
  0
LINE
  5
1B42
330
1F
100
AcDbEntity
  8
OBJECT2
100
AcDbLine
 10
24.29396051854566
 20
13.45919854357225
 30
0.0
 11
24.34264910659335
 21
13.45919854357225
 31
0.0
  0
LINE
  5
1B43
330
1F
100
AcDbEntity
  8
OBJECT1
100
AcDbLine
 10
24.23014910659334
 20
13.49201104357225
 30
0.0
 11
24.34264910659335
 21
13.49201104357225
 31
0.0
  0
LINE
  5
1B44
330
1F
100
AcDbEntity
  8
OBJECT2
100
AcDbLine
 10
24.10171160659334
 20
13.42698819491996
 30
0.0
 11
24.17108660659335
 21
13.42698819491996
 31
0.0
  0
LINE
  5
1B45
330
1F
100
AcDbEntity
  8
OBJECT2
100
AcDbLine
 10
24.10855861560607
 20
13.3935801996657
 30
0.0
 11
24.16423959758061
 21
13.3935801996657
 31
0.0
  0
LINE
  5
1B46
330
1F
100
AcDbEntity
  8
OBJECT2
100
AcDbLine
 10
24.10855861560607
 20
13.41028419729283
 30
0.0
 11
24.16423959758061
 21
13.41028419729283
 31
0.0
  0
LINE
  5
1B47
330
1F
100
AcDbEntity
  8
OBJECT2
100
AcDbLine
 10
24.15681561513331
 20
13.40193204999665
 30
0.0
 11
24.11598259805337
 21
13.40193204999665
 31
0.0
  0
LINE
  5
1B48
330
1F
100
AcDbEntity
  8
OBJECT2
100
AcDbLine
 10
24.15681561513331
 20
13.41863604762378
 30
0.0
 11
24.11598259805337
 21
13.41863604762378
 31
0.0
  0
ARC
  5
1B49
330
1F
100
AcDbEntity
  8
OBJECT2
100
AcDbCircle
 10
24.29396051854566
 20
13.42169854357226
 30
0.0
 40
0.0375
100
AcDbArc
 50
90.0
 51
192.8042660652869
  0
ARC
  5
1B4A
330
1F
100
AcDbEntity
  8
OBJECT1
100
AcDbCircle
 10
24.34264910659335
 20
13.85763604357225
 30
0.0
 40
0.1218749999999997
100
AcDbArc
 50
359.9999999999997
 51
33.25716415204512
  0
LINE
  5
1B4B
330
1F
100
AcDbEntity
  8
OBJECT2
100
AcDbLine
 10
24.13639910659334
 20
13.90451104357225
 30
0.0
 11
24.13639910659334
 21
13.86363604357225
 31
0.0
  0
LINE
  5
1B4C
330
1F
100
AcDbEntity
  8
OBJECT1
100
AcDbLine
 10
24.27702410659334
 20
13.90451104357225
 30
0.0
 11
24.27702410659334
 21
13.86363604357225
 31
0.0
  0
LINE
  5
1B4D
330
1F
100
AcDbEntity
  8
OBJECT2
100
AcDbLine
 10
24.07452410659334
 20
13.86363604357225
 30
0.0
 11
24.19827410659334
 21
13.86363604357225
 31
0.0
  0
LINE
  5
1B4E
330
1F
100
AcDbEntity
  8
OBJECT1
100
AcDbLine
 10
24.19827410659334
 20
13.86363604357225
 30
0.0
 11
24.27702410659334
 21
13.86363604357225
 31
0.0
  0
ARC
  5
1B4F
330
1F
100
AcDbEntity
  8
OBJECT1
100
AcDbCircle
 10
24.34264910659335
 20
13.85763604357225
 30
0.0
 40
0.046875
100
AcDbArc
 50
359.9999999999997
 51
90.0
  0
LINE
  5
1B50
330
1F
100
AcDbEntity
  8
OBJECT2
100
AcDbLine
 10
24.34264910659335
 20
13.93732354357225
 30
0.0
 11
24.30983660659335
 21
13.93732354357225
 31
0.0
  0
LINE
  5
1B51
330
1F
100
AcDbEntity
  8
OBJECT1
100
AcDbLine
 10
24.27702410659334
 20
13.90451104357225
 30
0.0
 11
24.34264910659335
 21
13.90451104357225
 31
0.0
  0
LINE
  5
1B52
330
1F
100
AcDbEntity
  8
OBJECT2
100
AcDbLine
 10
24.09463837011242
 20
13.69788169822196
 30
0.0
 11
24.17815984307427
 21
13.69788169822196
 31
0.0
  0
LINE
  5
1B53
330
1F
100
AcDbEntity
  8
OBJECT2
100
AcDbLine
 10
24.16050971420141
 20
13.69142121948672
 30
0.0
 11
24.14498169891359
 21
13.69788169822196
 31
0.0
  0
LINE
  5
1B54
330
1F
100
AcDbEntity
  8
OBJECT2
100
AcDbLine
 10
24.16050971420141
 20
13.69142121948672
 30
0.0
 11
24.17083979845996
 21
13.69788169822196
 31
0.0
  0
LINE
  5
1B55
330
1F
100
AcDbEntity
  8
OBJECT2
100
AcDbLine
 10
24.1846203218095
 20
13.69142121948672
 30
0.0
 11
24.17815984307427
 21
13.69788169822196
 31
0.0
  0
LINE
  5
1B56
330
1F
100
AcDbEntity
  8
OBJECT2
100
AcDbLine
 10
24.11228849898527
 20
13.69142121948672
 30
0.0
 11
24.12781651427309
 21
13.69788169822196
 31
0.0
  0
LINE
  5
1B57
330
1F
100
AcDbEntity
  8
OBJECT2
100
AcDbLine
 10
24.11228849898527
 20
13.69142121948672
 30
0.0
 11
24.10195841472672
 21
13.69788169822196
 31
0.0
  0
LINE
  5
1B58
330
1F
100
AcDbEntity
  8
OBJECT2
100
AcDbLine
 10
24.08817774289457
 20
13.69142121948672
 30
0.0
 11
24.09463837011242
 21
13.69788169822196
 31
0.0
  0
LINE
  5
1B59
330
1F
100
AcDbEntity
  8
OBJECT1
100
AcDbLine
 10
23.80827410659334
 20
13.85763604357225
 30
0.0
 11
23.80827410659334
 21
13.53888604357226
 31
0.0
  0
LINE
  5
1B5A
330
1F
100
AcDbEntity
  8
OBJECT1
100
AcDbLine
 10
23.88327410659333
 20
13.85763604357225
 30
0.0
 11
23.88327410659333
 21
13.53888604357226
 31
0.0
  0
LINE
  5
1B5B
330
1F
100
AcDbEntity
  8
OBJECT2
100
AcDbLine
 10
23.85046160659335
 20
13.85763604357225
 30
0.0
 11
23.85046160659335
 21
13.53888604357226
 31
0.0
  0
ARC
  5
1B5C
330
1F
100
AcDbEntity
  8
OBJECT1
100
AcDbCircle
 10
23.93014910659333
 20
13.53888604357226
 30
0.0
 40
0.1218749999999997
100
AcDbArc
 50
180.0000000000002
 51
213.2571641520462
  0
ARC
  5
1B5D
330
1F
100
AcDbEntity
  8
OBJECT1
100
AcDbCircle
 10
23.93014910659333
 20
13.53888604357226
 30
0.0
 40
0.046875
100
AcDbArc
 50
180.0000000000002
 51
270.0
  0
LINE
  5
1B5E
330
1F
100
AcDbEntity
  8
OBJECT2
100
AcDbLine
 10
23.93014910659333
 20
13.45919854357225
 30
0.0
 11
23.97883769464102
 21
13.45919854357225
 31
0.0
  0
ARC
  5
1B5F
330
1F
100
AcDbEntity
  8
OBJECT2
100
AcDbCircle
 10
23.93014910659333
 20
13.53888604357226
 30
0.0
 40
0.0796875
100
AcDbArc
 50
180.0000000000002
 51
270.0
  0
LINE
  5
1B60
330
1F
100
AcDbEntity
  8
OBJECT1
100
AcDbLine
 10
24.04264910659334
 20
13.57536274542058
 30
0.0
 11
24.04264910659334
 21
13.49201104357225
 31
0.0
  0
LINE
  5
1B61
330
1F
100
AcDbEntity
  8
OBJECT1
100
AcDbLine
 10
24.04264910659334
 20
13.57536274542058
 30
0.0
 11
24.00983660659335
 21
13.57536274542058
 31
0.0
  0
LINE
  5
1B62
330
1F
100
AcDbEntity
  8
OBJECT1
100
AcDbLine
 10
24.00983660659333
 20
13.66076104357225
 30
0.0
 11
24.00983660659335
 21
13.57536274542058
 31
0.0
  0
LINE
  5
1B63
330
1F
100
AcDbEntity
  8
OBJECT1
100
AcDbLine
 10
23.93014910659333
 20
13.49201104357225
 30
0.0
 11
24.04264910659334
 21
13.49201104357225
 31
0.0
  0
ARC
  5
1B64
330
1F
100
AcDbEntity
  8
OBJECT2
100
AcDbCircle
 10
23.97883769464102
 20
13.42169854357226
 30
0.0
 40
0.0375
100
AcDbArc
 50
347.1957339347139
 51
90.0
  0
LINE
  5
1B65
330
1F
100
AcDbEntity
  8
OBJECT1
100
AcDbLine
 10
23.99577410659334
 20
13.86363604357225
 30
0.0
 11
23.99577410659334
 21
13.90451104357225
 31
0.0
  0
ARC
  5
1B66
330
1F
100
AcDbEntity
  8
OBJECT1
100
AcDbCircle
 10
23.93014910659333
 20
13.85763604357225
 30
0.0
 40
0.046875
100
AcDbArc
 50
90.0
 51
180.0000000000002
  0
ARC
  5
1B67
330
1F
100
AcDbEntity
  8
OBJECT1
100
AcDbCircle
 10
23.93014910659333
 20
13.85763604357225
 30
0.0
 40
0.1218749999999997
100
AcDbArc
 50
146.742835847955
 51
180.0000000000002
  0
LINE
  5
1B68
330
1F
100
AcDbEntity
  8
OBJECT2
100
AcDbLine
 10
23.93014910659333
 20
13.93732354357225
 30
0.0
 11
23.96296160659333
 21
13.93732354357225
 31
0.0
  0
LINE
  5
1B69
330
1F
100
AcDbEntity
  8
OBJECT1
100
AcDbLine
 10
23.93014910659333
 20
13.90451104357225
 30
0.0
 11
23.99577410659334
 21
13.90451104357225
 31
0.0
  0
LINE
  5
1B6A
330
1F
100
AcDbEntity
  8
OBJECT2
100
AcDbLine
 10
21.94186615402189
 20
13.41290038389236
 30
0.0
 11
21.96566389082842
 21
13.30819034194361
 31
0.0
  0
LINE
  5
1B6B
330
1F
100
AcDbEntity
  8
OBJECT2
100
AcDbLine
 10
21.84871271514903
 20
13.37638883374326
 30
0.0
 11
21.84871271514903
 21
13.42650082662465
 31
0.0
  0
LINE
  5
1B6C
330
1F
100
AcDbEntity
  8
OBJECT1
100
AcDbLine
 10
21.96566389082842
 20
13.30819034194361
 30
0.0
 11
22.12903624316226
 21
13.47156269427744
 31
0.0
  0
LINE
  5
1B6D
330
1F
100
AcDbEntity
  8
OBJECT1
100
AcDbLine
 10
22.71596711265695
 20
13.39238274666695
 30
0.0
 11
22.70536051093916
 21
13.38177614494915
 31
0.0
  0
LINE
  5
1B6E
330
1F
100
AcDbEntity
  8
OBJECT1
100
AcDbLine
 10
22.73187701523366
 20
13.39238274666695
 30
0.0
 11
22.9108634192215
 21
13.2133963426791
 31
0.0
  0
LINE
  5
1B6F
330
1F
100
AcDbEntity
  8
OBJECT1
  6
CONTINUOUS
100
AcDbLine
 10
22.57145216425196
 20
13.2240029443969
 30
0.0
 11
22.56747468860778
 21
13.22798042004107
 31
0.0
  0
LINE
  5
1B70
330
1F
100
AcDbEntity
  8
OBJECT1
  6
CONTINUOUS
100
AcDbLine
 10
22.56747468860778
 20
13.24389032261777
 30
0.0
 11
22.69740555965082
 21
13.3738211936608
 31
0.0
  0
LINE
  5
1B71
330
1F
100
AcDbEntity
  8
OBJECT1
  6
CONTINUOUS
100
AcDbLine
 10
22.49720595222737
 20
13.13384682979562
 30
0.0
 11
22.57145216425196
 21
13.20809304182021
 31
0.0
  0
LINE
  5
1B72
330
1F
100
AcDbEntity
  8
OBJECT1
100
AcDbLine
 10
23.14023118136888
 20
13.13782430543979
 30
0.0
 11
23.06333331891484
 21
13.06092644298576
 31
0.0
  0
LINE
  5
1B73
330
1F
100
AcDbEntity
  8
OBJECT2
100
AcDbLine
 10
22.9108634192215
 20
13.2133963426791
 30
0.0
 11
23.06333331891484
 21
13.06092644298575
 31
0.0
  0
LINE
  5
1B74
330
1F
100
AcDbEntity
  8
OBJECT2
100
AcDbLine
 10
22.69740555965082
 20
13.3738211936608
 30
0.0
 11
23.22375816989655
 21
12.84746858341506
 31
0.0
  0
LINE
  5
1B75
330
1F
100
AcDbEntity
  8
OBJECT2
100
AcDbLine
 10
22.70536051093916
 20
13.38177614494915
 30
0.0
 11
23.2317131211849
 21
12.85542353470342
 31
0.0
  0
ARC
  5
1B76
330
1F
100
AcDbEntity
  8
OBJECT1
100
AcDbCircle
 10
23.23436477161435
 20
12.87398508770956
 30
0.0
 40
0.01125
100
AcDbArc
 50
314.9999999999999
 51
45.00000000000006
  0
LINE
  5
1B77
330
1F
100
AcDbEntity
  8
OBJECT1
100
AcDbLine
 10
23.22375816989655
 20
12.84746858341506
 30
0.0
 11
23.22375816989655
 21
12.86337848599176
 31
0.0
  0
LINE
  5
1B78
330
1F
100
AcDbEntity
  8
OBJECT1
100
AcDbLine
 10
23.2423197229027
 20
12.86603013642121
 30
0.0
 11
23.2317131211849
 21
12.85542353470342
 31
0.0
  0
LINE
  5
1B79
330
1F
100
AcDbEntity
  8
OBJECT1
100
AcDbLine
 10
23.2423197229027
 20
12.88194003899791
 30
0.0
 11
23.06333331891484
 21
13.06092644298576
 31
0.0
  0
LINE
  5
1B87
330
1F
100
AcDbEntity
  8
OBJECT1
100
AcDbLine
 10
22.98776128167553
 20
13.29029420513314
 30
0.0
 11
22.9108634192215
 21
13.2133963426791
 31
0.0
  0
LINE
  5
1B88
330
1F
100
AcDbEntity
  8
OBJECT1
100
AcDbLine
 10
23.00367118425224
 20
13.29029420513314
 30
0.0
 11
23.07195118281056
 21
13.22201420657481
 31
0.0
  0
ARC
  5
1B89
330
1F
100
AcDbEntity
  8
OBJECT1
100
AcDbCircle
 10
22.99571623296388
 20
13.28233925384479
 30
0.0
 40
0.01125
100
AcDbArc
 50
45.00000000000006
 51
134.9999999999999
  0
ARC
  5
1B8A
330
1F
100
AcDbEntity
  8
OBJECT1
100
AcDbCircle
 10
23.13227623008053
 20
13.14577925672814
 30
0.0
 40
0.01125
100
AcDbArc
 50
314.9999999999999
 51
45.00000000000015
  0
LINE
  5
1B8B
330
1F
100
AcDbEntity
  8
OBJECT2
100
AcDbLine
 10
23.07195118281056
 20
13.22201420657481
 30
0.0
 11
22.98709836906816
 21
13.13716139283243
 31
0.0
  0
LINE
  5
1B8C
330
1F
100
AcDbEntity
  8
OBJECT1
100
AcDbLine
 10
23.14023118136888
 20
13.15373420801649
 30
0.0
 11
23.07195118281056
 21
13.22201420657481
 31
0.0
  0
ARC
  5
1B8D
330
1F
100
AcDbEntity
  8
OBJECT1
  6
CONTINUOUS
100
AcDbCircle
 10
22.56349721296361
 20
13.21604799310855
 30
0.0
 40
0.01125
100
AcDbArc
 50
314.9999999999999
 51
45.00000000000123
  0
LINE
  5
1B8E
330
1F
100
AcDbEntity
  8
OBJECT1
100
AcDbLine
 10
22.69740555965082
 20
13.3738211936608
 30
0.0
 11
22.71331546222751
 21
13.3738211936608
 31
0.0
  0
LINE
  5
1B8F
330
1F
100
AcDbEntity
  8
OBJECT1
  6
CONTINUOUS
100
AcDbLine
 10
22.34473605253403
 20
13.02115168654401
 30
0.0
 11
22.46140867142981
 21
13.13782430543979
 31
0.0
  0
LINE
  5
1B90
330
1F
100
AcDbEntity
  8
OBJECT1
100
AcDbLine
 10
22.19975225119273
 20
13.06027367330078
 30
0.0
 11
22.19967158993508
 21
13.1845029548596
 31
0.0
  0
LINE
  5
1B91
330
1F
100
AcDbEntity
  8
OBJECT2
100
AcDbLine
 10
22.01031528123961
 20
13.176858398887
 30
0.0
 11
22.01031528123961
 21
13.06027367379481
 31
0.0
  0
LINE
  5
1B92
330
1F
100
AcDbEntity
  8
OBJECT1
100
AcDbLine
 10
22.19975225119273
 20
13.06027367330078
 30
0.0
 11
22.18100833831745
 21
13.05089867527694
 31
0.0
  0
ARC
  5
1B93
330
1F
100
AcDbEntity
  8
OBJECT1
  6
CONTINUOUS
100
AcDbCircle
 10
22.35269100382237
 20
13.01319673525566
 30
0.0
 40
0.01125
100
AcDbArc
 50
134.9999999999999
 51
225.0
  0
ARC
  5
1B94
330
1F
100
AcDbEntity
  8
OBJECT1
  6
CONTINUOUS
100
AcDbCircle
 10
22.34075857688985
 20
12.99330935703479
 30
0.0
 40
0.01125
100
AcDbArc
 50
315.0000000000003
 51
45.00000000000006
  0
LINE
  5
1B95
330
1F
100
AcDbEntity
  8
OBJECT1
  6
CONTINUOUS
100
AcDbLine
 10
22.34871352817819
 20
13.00126430832314
 30
0.0
 11
22.34473605253403
 21
13.00524178396731
 31
0.0
  0
LINE
  5
1B96
330
1F
100
AcDbEntity
  8
OBJECT2
100
AcDbLine
 10
22.01031528123961
 20
13.06027367379481
 30
0.0
 11
21.84892508097021
 21
13.05089867527694
 31
0.0
  0
LINE
  5
1B97
330
1F
100
AcDbEntity
  8
OBJECT1
100
AcDbLine
 10
21.98493472416175
 20
12.97649715808602
 30
0.0
 11
21.98493472416175
 21
12.90009885170128
 31
0.0
  0
LINE
  5
1B98
330
1F
100
AcDbEntity
  8
OBJECT1
100
AcDbLine
 10
22.10212222416175
 20
13.00031054568951
 30
0.0
 11
22.10212222416175
 21
13.05089867527694
 31
0.0
  0
LINE
  5
1B99
330
1F
100
AcDbEntity
  8
OBJECT1
100
AcDbLine
 10
22.10212222416175
 20
13.05089867527694
 30
0.0
 11
22.18100833831745
 21
13.05089867527694
 31
0.0
  0
LINE
  5
1B9A
330
1F
100
AcDbEntity
  8
OBJECT1
100
AcDbLine
 10
22.10212222416175
 20
13.00031054568951
 30
0.0
 11
21.98493472416175
 21
12.97649715808602
 31
0.0
  0
LINE
  5
1B9B
330
1F
100
AcDbEntity
  8
OBJECT2
100
AcDbLine
 10
22.01031528123961
 20
13.06027367379481
 30
0.0
 11
22.10212222416175
 21
13.05089867527694
 31
0.0
  0
LINE
  5
1B9C
330
1F
100
AcDbEntity
  8
OBJECT1
100
AcDbLine
 10
22.09274722416176
 20
12.88134885170127
 30
0.0
 11
22.10212222416175
 21
12.86259885170127
 31
0.0
  0
LINE
  5
1B9D
330
1F
100
AcDbEntity
  8
OBJECT1
100
AcDbLine
 10
22.00368472416176
 20
12.88134885170127
 30
0.0
 11
22.09274722416176
 21
12.88134885170127
 31
0.0
  0
ARC
  5
1B9E
330
1F
100
AcDbEntity
  8
OBJECT1
100
AcDbCircle
 10
22.00368472416176
 20
12.90009885170128
 30
0.0
 40
0.01875
100
AcDbArc
 50
180.0
 51
270.0
  0
LINE
  5
1B9F
330
1F
100
AcDbEntity
  8
OBJECT1
100
AcDbLine
 10
22.03264446363081
 20
13.2207702690847
 30
0.0
 11
22.19967158993508
 21
13.1845029548596
 31
0.0
  0
ARC
  5
1BA0
330
1F
100
AcDbEntity
  8
OBJECT1
  6
CONTINUOUS
100
AcDbCircle
 10
22.57542963989612
 20
13.23593537132943
 30
0.0
 40
0.01125
100
AcDbArc
 50
134.9999999999999
 51
224.9999999999995
  0
ARC
  5
1BA1
330
1F
100
AcDbEntity
  8
OBJECT1
  6
CONTINUOUS
100
AcDbCircle
 10
22.46936362271815
 20
13.12986935415144
 30
0.0
 40
0.01125
100
AcDbArc
 50
45.00000000000006
 51
134.9999999999999
  0
ARC
  5
1BA2
330
1F
100
AcDbEntity
  8
OBJECT1
  6
CONTINUOUS
100
AcDbCircle
 10
22.48925100093902
 20
13.14180178108397
 30
0.0
 40
0.01125
100
AcDbArc
 50
225.0
 51
314.9999999999999
  0
LINE
  5
1BA3
330
1F
100
AcDbEntity
  8
OBJECT1
  6
CONTINUOUS
100
AcDbLine
 10
22.48129604965068
 20
13.13384682979562
 30
0.0
 11
22.4773185740065
 21
13.13782430543979
 31
0.0
  0
LINE
  5
1BA4
330
1F
100
AcDbEntity
  8
OBJECT2
100
AcDbLine
 10
22.01031528123961
 20
13.17685839987509
 30
0.0
 11
21.84892508097021
 21
13.18623339839296
 31
0.0
  0
LINE
  5
1BA5
330
1F
100
AcDbEntity
  8
OBJECT1
100
AcDbLine
 10
21.96566389082842
 20
13.30819034194361
 30
0.0
 11
21.97184743868159
 21
13.2809827313897
 31
0.0
  0
ARC
  5
1BA6
330
1F
100
AcDbEntity
  8
OBJECT1
100
AcDbCircle
 10
22.04955333812746
 20
13.29864316308195
 30
0.0
 40
0.0796875
100
AcDbArc
 50
192.8042660652869
 51
257.7492890750577
  0
LINE
  5
1BA7
330
1F
100
AcDbEntity
  8
OBJECT2
100
AcDbLine
 10
21.84871271514903
 20
13.37638883374326
 30
0.0
 11
21.84128873270171
 21
13.36803668644707
 31
0.0
  0
LINE
  5
1BA8
330
1F
100
AcDbEntity
  8
OBJECT2
100
AcDbLine
 10
22.01031528123961
 20
13.17685839987509
 30
0.0
 11
22.10212222416175
 21
13.18623339839296
 31
0.0
  0
ARC
  5
1BA9
330
1F
100
AcDbEntity
  8
OBJECT1
100
AcDbCircle
 10
22.72392206394531
 20
13.3844277953786
 30
0.0
 40
0.01125
100
AcDbArc
 50
45.00000000000006
 51
134.9999999999999
  0
LINE
  5
1BAA
330
1F
100
AcDbEntity
  8
OBJECT2
100
AcDbLine
 10
21.86909343937792
 20
13.66027367527694
 30
0.0
 11
21.86909343937792
 21
13.69093385119141
 31
0.0
  0
LINE
  5
1BAB
330
1F
100
AcDbEntity
  8
OBJECT2
100
AcDbLine
 10
21.84498283176984
 20
13.69093385119141
 30
0.0
 11
21.84498283176984
 21
13.66027367527694
 31
0.0
  0
LINE
  5
1BAC
330
1F
100
AcDbEntity
  8
OBJECT1
100
AcDbLine
 10
22.14899722416176
 20
13.85714867527694
 30
0.0
 11
22.14899722416176
 21
13.53839867527694
 31
0.0
  0
LINE
  5
1BAD
330
1F
100
AcDbEntity
  8
OBJECT1
100
AcDbLine
 10
22.07399722416175
 20
13.85714867527694
 30
0.0
 11
22.07399722416175
 21
13.53839867527694
 31
0.0
  0
LINE
  5
1BAE
330
1F
100
AcDbEntity
  8
OBJECT1
100
AcDbLine
 10
21.88274722416176
 20
13.86314867527694
 30
0.0
 11
21.88274722416176
 21
13.66027367527694
 31
0.0
  0
LINE
  5
1BAF
330
1F
100
AcDbEntity
  8
OBJECT2
100
AcDbLine
 10
22.10680972416176
 20
13.85714867527694
 30
0.0
 11
22.10680972416176
 21
13.53839867527694
 31
0.0
  0
LINE
  5
1BB0
330
1F
100
AcDbEntity
  8
OBJECT1
100
AcDbLine
 10
21.91462222416176
 20
13.57487537712527
 30
0.0
 11
21.91462222416176
 21
13.49152367527694
 31
0.0
  0
ARC
  5
1BB1
330
1F
100
AcDbEntity
  8
OBJECT1
100
AcDbCircle
 10
22.02712222416175
 20
13.53839867527694
 30
0.0
 40
0.046875
100
AcDbArc
 50
270.0
 51
359.9999999999997
  0
LINE
  5
1BB2
330
1F
100
AcDbEntity
  8
OBJECT1
100
AcDbLine
 10
21.91462222416176
 20
13.49152367527694
 30
0.0
 11
22.02712222416175
 21
13.49152367527694
 31
0.0
  0
LINE
  5
1BB3
330
1F
100
AcDbEntity
  8
OBJECT2
100
AcDbLine
 10
21.97843363611407
 20
13.45871117527694
 30
0.0
 11
22.02712222416175
 21
13.45871117527694
 31
0.0
  0
LINE
  5
1BB4
330
1F
100
AcDbEntity
  8
OBJECT1
100
AcDbLine
 10
21.94743472416176
 20
13.57487537712527
 30
0.0
 11
21.91462222416176
 21
13.57487537712527
 31
0.0
  0
LINE
  5
1BB5
330
1F
100
AcDbEntity
  8
OBJECT1
100
AcDbLine
 10
21.94743472416176
 20
13.66027367527694
 30
0.0
 11
21.88274722416176
 21
13.66027367527694
 31
0.0
  0
LINE
  5
1BB6
330
1F
100
AcDbEntity
  8
OBJECT1
100
AcDbLine
 10
21.94743472416176
 20
13.66027367527694
 30
0.0
 11
21.94743472416176
 21
13.57487537712527
 31
0.0
  0
LINE
  5
1BB7
330
1F
100
AcDbEntity
  8
OBJECT2
100
AcDbLine
 10
21.84871271514903
 20
13.49152367527694
 30
0.0
 11
21.84871271514903
 21
13.57487537712527
 31
0.0
  0
ARC
  5
1BB8
330
1F
100
AcDbEntity
  8
OBJECT1
100
AcDbCircle
 10
22.02712222416175
 20
13.53839867527694
 30
0.0
 40
0.1218749999999997
100
AcDbArc
 50
326.7428358479532
 51
359.9999999999997
  0
ARC
  5
1BB9
330
1F
100
AcDbEntity
  8
OBJECT2
100
AcDbCircle
 10
22.02712222416175
 20
13.53839867527694
 30
0.0
 40
0.0796875
100
AcDbArc
 50
270.0
 51
359.9999999999997
  0
ARC
  5
1BBA
330
1F
100
AcDbEntity
  8
OBJECT2
100
AcDbCircle
 10
21.97843363611407
 20
13.42121117527694
 30
0.0
 40
0.0375
100
AcDbArc
 50
90.0
 51
192.8042660652869
  0
ARC
  5
1BBB
330
1F
100
AcDbEntity
  8
OBJECT1
100
AcDbCircle
 10
22.02712222416175
 20
13.85714867527694
 30
0.0
 40
0.046875
100
AcDbArc
 50
359.9999999999997
 51
90.0
  0
LINE
  5
1BBC
330
1F
100
AcDbEntity
  8
OBJECT1
100
AcDbLine
 10
21.96149722416176
 20
13.90402367527694
 30
0.0
 11
21.96149722416176
 21
13.86314867527694
 31
0.0
  0
LINE
  5
1BBD
330
1F
100
AcDbEntity
  8
OBJECT1
100
AcDbLine
 10
21.88274722416176
 20
13.86314867527694
 30
0.0
 11
21.96149722416176
 21
13.86314867527694
 31
0.0
  0
LINE
  5
1BBE
330
1F
100
AcDbEntity
  8
OBJECT2
100
AcDbLine
 10
22.02712222416175
 20
13.93683617527694
 30
0.0
 11
21.99430972416176
 21
13.93683617527694
 31
0.0
  0
LINE
  5
1BBF
330
1F
100
AcDbEntity
  8
OBJECT1
100
AcDbLine
 10
21.96149722416176
 20
13.90402367527694
 30
0.0
 11
22.02712222416175
 21
13.90402367527694
 31
0.0
  0
ARC
  5
1BC0
330
1F
100
AcDbEntity
  8
OBJECT1
100
AcDbCircle
 10
22.02712222416175
 20
13.85714867527694
 30
0.0
 40
0.1218749999999997
100
AcDbArc
 50
359.9999999999997
 51
33.25716415204512
  0
LINE
  5
1BC1
330
1F
100
AcDbEntity
  8
OBJECT2
100
AcDbLine
 10
21.84498283176984
 20
13.69093385119141
 30
0.0
 11
21.82945481648201
 21
13.69739432992665
 31
0.0
  0
LINE
  5
1BC2
330
1F
100
AcDbEntity
  8
OBJECT2
100
AcDbLine
 10
21.84498283176984
 20
13.69093385119141
 30
0.0
 11
21.85531291602836
 21
13.69739432992665
 31
0.0
  0
LINE
  5
1BC3
330
1F
100
AcDbEntity
  8
OBJECT2
100
AcDbLine
 10
21.86909343937792
 20
13.69093385119141
 30
0.0
 11
21.86263296064267
 21
13.69739432992665
 31
0.0
  0
LINE
  5
1BC4
330
1F
100
AcDbEntity
  8
OBJECT1
100
AcDbLine
 10
24.19827410659334
 20
14.58681223499914
 30
0.0
 11
24.19827410659334
 21
14.18576104357225
 31
0.0
  0
LINE
  5
1BC5
330
1F
100
AcDbEntity
  8
OBJECT1
100
AcDbLine
 10
24.07452410659334
 20
14.58681223499914
 30
0.0
 11
24.07452410659334
 21
14.18576104357225
 31
0.0
  0
LINE
  5
1BC6
330
1F
100
AcDbEntity
  8
OBJECT2
100
AcDbLine
 10
24.28639910659335
 20
14.08263604357225
 30
0.0
 11
23.98639910659333
 21
14.08263604357225
 31
0.0
  0
LINE
  5
1BC7
330
1F
100
AcDbEntity
  8
OBJECT1
100
AcDbLine
 10
23.76876299243765
 20
14.18576104357225
 30
0.0
 11
24.07452410659334
 21
14.18576104357225
 31
0.0
  0
LINE
  5
1BC8
330
1F
100
AcDbEntity
  8
OBJECT1
100
AcDbLine
 10
24.28639910659335
 20
14.08263604357225
 30
0.0
 11
24.50403522074903
 21
14.08263604357225
 31
0.0
  0
LINE
  5
1BC9
330
1F
100
AcDbEntity
  8
OBJECT1
100
AcDbLine
 10
24.19827410659334
 20
14.18576104357225
 30
0.0
 11
24.50403522074903
 21
14.18576104357225
 31
0.0
  0
ARC
  5
1BCA
330
1F
100
AcDbEntity
  8
OBJECT1
100
AcDbCircle
 10
24.50403522074903
 20
14.17451104357225
 30
0.0
 40
0.01125
100
AcDbArc
 50
0.000000000000007
 51
90.0
  0
ARC
  5
1BCB
330
1F
100
AcDbEntity
  8
OBJECT1
100
AcDbCircle
 10
24.50403522074903
 20
14.09388604357225
 30
0.0
 40
0.01125
100
AcDbArc
 50
270.0
 51
0.000000000000007
  0
LINE
  5
1BCC
330
1F
100
AcDbEntity
  8
OBJECT1
100
AcDbLine
 10
24.51528522074905
 20
14.17451104357225
 30
0.0
 11
24.51528522074905
 21
14.09388604357225
 31
0.0
  0
LINE
  5
1BCD
330
1F
100
AcDbEntity
  8
OBJECT2
100
AcDbLine
 10
24.18156574913592
 20
14.21082674303644
 30
0.0
 11
24.09123246405076
 21
14.21082674303644
 31
0.0
  0
LINE
  5
1BCE
330
1F
100
AcDbEntity
  8
OBJECT2
100
AcDbLine
 10
24.19827410659334
 20
14.18576104357225
 30
0.0
 11
24.07452410659334
 21
14.18576104357225
 31
0.0
  0
LINE
  5
1BCF
330
1F
100
AcDbEntity
  8
OBJECT2
100
AcDbLine
 10
24.3258421636712
 20
14.18576104357225
 30
0.0
 11
24.3258421636712
 21
14.08263604357225
 31
0.0
  0
LINE
  5
1BD0
330
1F
100
AcDbEntity
  8
OBJECT2
100
AcDbLine
 10
24.28639910659335
 20
14.08263604357225
 30
0.0
 11
24.28639910659335
 21
13.96076104357225
 31
0.0
  0
LINE
  5
1BD1
330
1F
100
AcDbEntity
  8
OBJECT2
100
AcDbLine
 10
24.18156574913592
 20
14.46176086771747
 30
0.0
 11
24.09123246405076
 21
14.46176086771747
 31
0.0
  0
LINE
  5
1BD2
330
1F
100
AcDbEntity
  8
OBJECT2
100
AcDbLine
 10
24.18156574913592
 20
14.41066463440315
 30
0.0
 11
24.09123246405076
 21
14.41066463440315
 31
0.0
  0
LINE
  5
1BD3
330
1F
100
AcDbEntity
  8
OBJECT2
100
AcDbLine
 10
24.18156574913592
 20
14.36190864416825
 30
0.0
 11
24.09123246405076
 21
14.36190864416825
 31
0.0
  0
LINE
  5
1BD4
330
1F
100
AcDbEntity
  8
OBJECT2
100
AcDbLine
 10
24.18156574913592
 20
14.31081241085392
 30
0.0
 11
24.09123246405076
 21
14.31081241085392
 31
0.0
  0
LINE
  5
1BD5
330
1F
100
AcDbEntity
  8
OBJECT2
100
AcDbLine
 10
24.19827410659334
 20
14.48620558496905
 30
0.0
 11
24.07452410659334
 21
14.48620558496905
 31
0.0
  0
LINE
  5
1BD6
330
1F
100
AcDbEntity
  8
OBJECT2
100
AcDbLine
 10
24.19827410659334
 20
14.43621275106031
 30
0.0
 11
24.07452410659334
 21
14.43621275106031
 31
0.0
  0
LINE
  5
1BD7
330
1F
100
AcDbEntity
  8
OBJECT2
100
AcDbLine
 10
24.19827410659334
 20
14.33636052751108
 30
0.0
 11
24.07452410659334
 21
14.33636052751108
 31
0.0
  0
LINE
  5
1BD8
330
1F
100
AcDbEntity
  8
OBJECT2
100
AcDbLine
 10
24.19827410659334
 20
14.3862866392857
 30
0.0
 11
24.07452410659334
 21
14.3862866392857
 31
0.0
  0
LINE
  5
1BD9
330
1F
100
AcDbEntity
  8
OBJECT2
100
AcDbLine
 10
24.19827410659334
 20
14.28636769360234
 30
0.0
 11
24.07452410659334
 21
14.28636769360234
 31
0.0
  0
LINE
  5
1BDA
330
1F
100
AcDbEntity
  8
OBJECT2
100
AcDbLine
 10
24.18156574913592
 20
14.26192297635075
 30
0.0
 11
24.09123246405076
 21
14.26192297635075
 31
0.0
  0
LINE
  5
1BDB
330
1F
100
AcDbEntity
  8
OBJECT2
100
AcDbLine
 10
24.19827410659334
 20
14.23637485969359
 30
0.0
 11
24.07452410659334
 21
14.23637485969359
 31
0.0
  0
LINE
  5
1BDC
330
1F
100
AcDbEntity
  8
OBJECT1
100
AcDbLine
 10
23.76876299243765
 20
14.08263604357225
 30
0.0
 11
23.98639910659333
 21
14.08263604357225
 31
0.0
  0
LINE
  5
1BDD
330
1F
100
AcDbEntity
  8
OBJECT2
100
AcDbLine
 10
23.9469560495155
 20
14.18576104357225
 30
0.0
 11
23.9469560495155
 21
14.08263604357225
 31
0.0
  0
ARC
  5
1BDE
330
1F
100
AcDbEntity
  8
OBJECT1
100
AcDbCircle
 10
23.76876299243765
 20
14.17451104357225
 30
0.0
 40
0.01125
100
AcDbArc
 50
90.0
 51
180.0
  0
ARC
  5
1BDF
330
1F
100
AcDbEntity
  8
OBJECT1
100
AcDbCircle
 10
23.76876299243765
 20
14.09388604357225
 30
0.0
 40
0.01125
100
AcDbArc
 50
180.0
 51
270.0
  0
LINE
  5
1BE0
330
1F
100
AcDbEntity
  8
OBJECT1
100
AcDbLine
 10
23.75751299243765
 20
14.17451104357225
 30
0.0
 11
23.75751299243765
 21
14.09388604357225
 31
0.0
  0
LINE
  5
1BE1
330
1F
100
AcDbEntity
  8
OBJECT2
100
AcDbLine
 10
23.98639910659333
 20
14.08263604357225
 30
0.0
 11
23.98639910659333
 21
13.96076104357225
 31
0.0
  0
LINE
  5
1BE2
330
1F
100
AcDbEntity
  8
OBJECT1
100
AcDbLine
 10
24.19827410659334
 20
14.58681223499914
 30
0.0
 11
24.07452410659334
 21
14.58681223499914
 31
0.0
  0
LINE
  5
1BE3
330
1F
100
AcDbEntity
  8
OBJECT2
100
AcDbLine
 10
24.18156574913592
 20
14.56174653553496
 30
0.0
 11
24.09123246405076
 21
14.56174653553496
 31
0.0
  0
LINE
  5
1BE4
330
1F
100
AcDbEntity
  8
OBJECT2
100
AcDbLine
 10
24.18156574913592
 20
14.51065030222064
 30
0.0
 11
24.09123246405076
 21
14.51065030222064
 31
0.0
  0
LINE
  5
1BE5
330
1F
100
AcDbEntity
  8
OBJECT2
100
AcDbLine
 10
24.19827410659334
 20
14.5361984188778
 30
0.0
 11
24.07452410659334
 21
14.5361984188778
 31
0.0
  0
LINE
  5
1BE6
330
1F
100
AcDbEntity
  8
OBJECT1
100
AcDbLine
 10
21.88274722416176
 20
14.58632486670383
 30
0.0
 11
21.88274722416176
 21
14.18527367527694
 31
0.0
  0
ARC
  5
1BE7
330
1F
100
AcDbEntity
  8
OBJECT1
100
AcDbCircle
 10
22.18850833831744
 20
14.17402367527694
 30
0.0
 40
0.01125
100
AcDbArc
 50
0.000000000000007
 51
90.0
  0
ARC
  5
1BE8
330
1F
100
AcDbEntity
  8
OBJECT1
100
AcDbCircle
 10
22.18850833831744
 20
14.09339867527694
 30
0.0
 40
0.01125
100
AcDbArc
 50
270.0
 51
0.000000000000007
  0
LINE
  5
1BE9
330
1F
100
AcDbEntity
  8
OBJECT1
100
AcDbLine
 10
22.19975833831745
 20
14.17402367527694
 30
0.0
 11
22.19975833831745
 21
14.09339867527694
 31
0.0
  0
LINE
  5
1BEA
330
1F
100
AcDbEntity
  8
OBJECT2
100
AcDbLine
 10
22.01031528123961
 20
14.18527367527694
 30
0.0
 11
22.01031528123961
 21
14.08214867527694
 31
0.0
  0
LINE
  5
1BEB
330
1F
100
AcDbEntity
  8
OBJECT1
100
AcDbLine
 10
21.97087222416176
 20
14.08214867527694
 30
0.0
 11
22.18850833831744
 21
14.08214867527694
 31
0.0
  0
LINE
  5
1BEC
330
1F
100
AcDbEntity
  8
OBJECT1
100
AcDbLine
 10
21.88274722416176
 20
14.18527367527694
 30
0.0
 11
22.18850833831744
 21
14.18527367527694
 31
0.0
  0
LINE
  5
1BED
330
1F
100
AcDbEntity
  8
OBJECT2
100
AcDbLine
 10
21.97087222416176
 20
14.08214867527694
 30
0.0
 11
21.97087222416176
 21
13.96027367527694
 31
0.0
  0
ARC
  5
1BEE
330
1F
100
AcDbEntity
  8
OBJECT2
100
AcDbCircle
 10
21.64743472416176
 20
13.96027367527694
 30
0.0
 40
0.0234375
100
AcDbArc
 50
270.0
 51
0.000000000000007
  0
ARC
  5
1BEF
330
1F
100
AcDbEntity
  8
OBJECT2
100
AcDbCircle
 10
21.61462222416176
 20
13.85714867527694
 30
0.0
 40
0.0796875
100
AcDbArc
 50
90.0
 51
180.0000000000002
  0
LINE
  5
1BF0
330
1F
100
AcDbEntity
  8
OBJECT1
100
AcDbLine
 10
21.67087222416177
 20
14.08214867527694
 30
0.0
 11
21.51270820516125
 21
13.92398465627644
 31
0.0
  0
LINE
  5
1BF1
330
1F
100
AcDbEntity
  8
OBJECT2
100
AcDbLine
 10
21.69987829430162
 20
13.41290038389236
 30
0.0
 11
21.67608055749509
 21
13.30819034194361
 31
0.0
  0
LINE
  5
1BF2
330
1F
100
AcDbEntity
  8
OBJECT2
100
AcDbLine
 10
21.79303173317448
 20
13.37638883374326
 30
0.0
 11
21.79303173317448
 21
13.42650082662465
 31
0.0
  0
LINE
  5
1BF3
330
1F
100
AcDbEntity
  8
OBJECT1
100
AcDbLine
 10
21.67608055749509
 20
13.30819034194361
 30
0.0
 11
21.51270820516125
 21
13.47156269427744
 31
0.0
  0
LINE
  5
1BF4
330
1F
100
AcDbEntity
  8
OBJECT1
100
AcDbLine
 10
21.44198611000607
 20
13.06027367527694
 30
0.0
 11
21.44198611000607
 21
13.18448411881236
 31
0.0
  0
LINE
  5
1BF5
330
1F
100
AcDbEntity
  8
OBJECT2
100
AcDbLine
 10
21.63142916708392
 20
13.176858398887
 30
0.0
 11
21.63142916708392
 21
13.06027367478289
 31
0.0
  0
LINE
  5
1BF6
330
1F
100
AcDbEntity
  8
OBJECT1
100
AcDbLine
 10
21.44198611000607
 20
13.06027367527694
 30
0.0
 11
21.46073611000606
 21
13.05089867527694
 31
0.0
  0
LINE
  5
1BF7
330
1F
100
AcDbEntity
  8
OBJECT1
100
AcDbLine
 10
21.53962222416176
 20
13.00031054568951
 30
0.0
 11
21.53962222416176
 21
13.05089867527694
 31
0.0
  0
LINE
  5
1BF8
330
1F
100
AcDbEntity
  8
OBJECT1
100
AcDbLine
 10
21.65680972416176
 20
12.97649715808602
 30
0.0
 11
21.65680972416176
 21
12.90009885170128
 31
0.0
  0
LINE
  5
1BF9
330
1F
100
AcDbEntity
  8
OBJECT1
100
AcDbLine
 10
21.65680972416176
 20
12.97649715808602
 30
0.0
 11
21.53962222416176
 21
13.00031054568951
 31
0.0
  0
LINE
  5
1BFA
330
1F
100
AcDbEntity
  8
OBJECT2
100
AcDbLine
 10
21.63142916708392
 20
13.06027367379481
 30
0.0
 11
21.53962222416176
 21
13.05089867527694
 31
0.0
  0
LINE
  5
1BFB
330
1F
100
AcDbEntity
  8
OBJECT2
100
AcDbLine
 10
21.63142916708392
 20
13.06027367379481
 30
0.0
 11
21.79281936735331
 21
13.05089867527694
 31
0.0
  0
LINE
  5
1BFC
330
1F
100
AcDbEntity
  8
OBJECT1
100
AcDbLine
 10
21.46073611000606
 20
13.05089867527694
 30
0.0
 11
21.53962222416176
 21
13.05089867527694
 31
0.0
  0
LINE
  5
1BFD
330
1F
100
AcDbEntity
  8
OBJECT1
100
AcDbLine
 10
21.54899722416176
 20
12.88134885170127
 30
0.0
 11
21.63805972416176
 21
12.88134885170127
 31
0.0
  0
LINE
  5
1BFE
330
1F
100
AcDbEntity
  8
OBJECT1
100
AcDbLine
 10
21.54899722416176
 20
12.88134885170127
 30
0.0
 11
21.53962222416176
 21
12.86259885170127
 31
0.0
  0
ARC
  5
1BFF
330
1F
100
AcDbEntity
  8
OBJECT1
100
AcDbCircle
 10
21.63805972416176
 20
12.90009885170128
 30
0.0
 40
0.01875
100
AcDbArc
 50
270.0
 51
0.000000000000007
  0
LINE
  5
1C00
330
1F
100
AcDbEntity
  8
OBJECT1
100
AcDbLine
 10
21.60909998469271
 20
13.2207702690847
 30
0.0
 11
21.44198611000607
 21
13.18448411881236
 31
0.0
  0
LINE
  5
1C01
330
1F
100
AcDbEntity
  8
OBJECT2
100
AcDbLine
 10
21.63142916708392
 20
13.17685839987509
 30
0.0
 11
21.53962222416176
 21
13.18623339839296
 31
0.0
  0
LINE
  5
1C02
330
1F
100
AcDbEntity
  8
OBJECT2
100
AcDbLine
 10
21.63142916708392
 20
13.17685839987509
 30
0.0
 11
21.79281936735331
 21
13.18623339839296
 31
0.0
  0
LINE
  5
1C03
330
1F
100
AcDbEntity
  8
OBJECT1
100
AcDbLine
 10
21.67608055749509
 20
13.30819034194361
 30
0.0
 11
21.66989700964192
 21
13.2809827313897
 31
0.0
  0
ARC
  5
1C04
330
1F
100
AcDbEntity
  8
OBJECT1
100
AcDbCircle
 10
21.59219111019605
 20
13.29864316308195
 30
0.0
 40
0.0796875
100
AcDbArc
 50
282.2507109249426
 51
347.1957339347131
  0
LINE
  5
1C05
330
1F
100
AcDbEntity
  8
OBJECT2
100
AcDbLine
 10
21.8004557156218
 20
13.36803668644707
 30
0.0
 11
21.79303173317448
 21
13.37638883374326
 31
0.0
  0
LINE
  5
1C06
330
1F
100
AcDbEntity
  8
OBJECT2
100
AcDbLine
 10
21.77265086046298
 20
13.66027367527694
 30
0.0
 11
21.77265086046298
 21
13.69093385119141
 31
0.0
  0
LINE
  5
1C07
330
1F
100
AcDbEntity
  8
OBJECT2
100
AcDbLine
 10
21.79676161655368
 20
13.69093385119141
 30
0.0
 11
21.79676161655368
 21
13.66027367527694
 31
0.0
  0
LINE
  5
1C08
330
1F
100
AcDbEntity
  8
OBJECT1
100
AcDbLine
 10
21.56774722416176
 20
13.85714867527694
 30
0.0
 11
21.56774722416176
 21
13.53839867527694
 31
0.0
  0
LINE
  5
1C09
330
1F
100
AcDbEntity
  8
OBJECT1
100
AcDbLine
 10
21.75899722416176
 20
13.86314867527694
 30
0.0
 11
21.75899722416176
 21
13.66027367527694
 31
0.0
  0
LINE
  5
1C0A
330
1F
100
AcDbEntity
  8
OBJECT2
100
AcDbLine
 10
21.53493472416176
 20
13.85714867527694
 30
0.0
 11
21.53493472416176
 21
13.53839867527694
 31
0.0
  0
LINE
  5
1C0B
330
1F
100
AcDbEntity
  8
OBJECT1
100
AcDbLine
 10
21.49274722416176
 20
13.85714867527694
 30
0.0
 11
21.49274722416176
 21
13.53839867527694
 31
0.0
  0
ARC
  5
1C0C
330
1F
100
AcDbEntity
  8
OBJECT1
100
AcDbCircle
 10
21.61462222416176
 20
13.53839867527694
 30
0.0
 40
0.1218749999999997
100
AcDbArc
 50
180.0000000000002
 51
213.2571641520462
  0
LINE
  5
1C0D
330
1F
100
AcDbEntity
  8
OBJECT1
100
AcDbLine
 10
21.72712222416176
 20
13.57487537712527
 30
0.0
 11
21.72712222416176
 21
13.49152367527694
 31
0.0
  0
ARC
  5
1C0E
330
1F
100
AcDbEntity
  8
OBJECT1
100
AcDbCircle
 10
21.61462222416176
 20
13.53839867527694
 30
0.0
 40
0.046875
100
AcDbArc
 50
180.0000000000002
 51
270.0
  0
LINE
  5
1C0F
330
1F
100
AcDbEntity
  8
OBJECT2
100
AcDbLine
 10
21.79303173317448
 20
13.49152367527694
 30
0.0
 11
21.79303173317448
 21
13.57487537712527
 31
0.0
  0
LINE
  5
1C10
330
1F
100
AcDbEntity
  8
OBJECT1
100
AcDbLine
 10
21.61462222416176
 20
13.49152367527694
 30
0.0
 11
21.72712222416176
 21
13.49152367527694
 31
0.0
  0
LINE
  5
1C11
330
1F
100
AcDbEntity
  8
OBJECT2
100
AcDbLine
 10
21.61462222416176
 20
13.45871117527694
 30
0.0
 11
21.66331081220944
 21
13.45871117527694
 31
0.0
  0
LINE
  5
1C12
330
1F
100
AcDbEntity
  8
OBJECT1
100
AcDbLine
 10
21.69430972416177
 20
13.66027367527694
 30
0.0
 11
21.69430972416177
 21
13.57487537712527
 31
0.0
  0
LINE
  5
1C13
330
1F
100
AcDbEntity
  8
OBJECT1
100
AcDbLine
 10
21.75899722416176
 20
13.66027367527694
 30
0.0
 11
21.69430972416177
 21
13.66027367527694
 31
0.0
  0
LINE
  5
1C14
330
1F
100
AcDbEntity
  8
OBJECT1
100
AcDbLine
 10
21.72712222416176
 20
13.57487537712527
 30
0.0
 11
21.69430972416177
 21
13.57487537712527
 31
0.0
  0
ARC
  5
1C15
330
1F
100
AcDbEntity
  8
OBJECT2
100
AcDbCircle
 10
21.61462222416176
 20
13.53839867527694
 30
0.0
 40
0.0796875
100
AcDbArc
 50
180.0000000000002
 51
270.0
  0
ARC
  5
1C16
330
1F
100
AcDbEntity
  8
OBJECT2
100
AcDbCircle
 10
21.66331081220944
 20
13.42121117527694
 30
0.0
 40
0.0375
100
AcDbArc
 50
347.1957339347139
 51
90.0
  0
ARC
  5
1C17
330
1F
100
AcDbEntity
  8
OBJECT1
100
AcDbCircle
 10
21.61462222416176
 20
13.85714867527694
 30
0.0
 40
0.1218749999999997
100
AcDbArc
 50
146.742835847955
 51
180.0000000000002
  0
ARC
  5
1C18
330
1F
100
AcDbEntity
  8
OBJECT1
100
AcDbCircle
 10
21.61462222416176
 20
13.85714867527694
 30
0.0
 40
0.046875
100
AcDbArc
 50
90.0
 51
180.0000000000002
  0
LINE
  5
1C19
330
1F
100
AcDbEntity
  8
OBJECT1
100
AcDbLine
 10
21.68024722416176
 20
13.86314867527694
 30
0.0
 11
21.68024722416176
 21
13.90402367527694
 31
0.0
  0
LINE
  5
1C1A
330
1F
100
AcDbEntity
  8
OBJECT1
100
AcDbLine
 10
21.68024722416176
 20
13.86314867527694
 30
0.0
 11
21.75899722416176
 21
13.86314867527694
 31
0.0
  0
LINE
  5
1C1B
330
1F
100
AcDbEntity
  8
OBJECT2
100
AcDbLine
 10
21.61462222416176
 20
13.93683617527694
 30
0.0
 11
21.64743472416176
 21
13.93683617527694
 31
0.0
  0
LINE
  5
1C1C
330
1F
100
AcDbEntity
  8
OBJECT1
100
AcDbLine
 10
21.61462222416176
 20
13.90402367527694
 30
0.0
 11
21.68024722416176
 21
13.90402367527694
 31
0.0
  0
LINE
  5
1C1D
330
1F
100
AcDbEntity
  8
OBJECT2
100
AcDbLine
 10
21.82087222416176
 20
13.90402367527694
 30
0.0
 11
21.82087222416176
 21
13.86314867527694
 31
0.0
  0
LINE
  5
1C1E
330
1F
100
AcDbEntity
  8
OBJECT2
100
AcDbLine
 10
21.79676161655368
 20
13.69093385119141
 30
0.0
 11
21.78643153229514
 21
13.69739432992665
 31
0.0
  0
LINE
  5
1C1F
330
1F
100
AcDbEntity
  8
OBJECT2
100
AcDbLine
 10
21.77265086046298
 20
13.69093385119141
 30
0.0
 11
21.77911148768085
 21
13.69739432992665
 31
0.0
  0
LINE
  5
1C20
330
1F
100
AcDbEntity
  8
OBJECT2
100
AcDbLine
 10
21.79676161655368
 20
13.69093385119141
 30
0.0
 11
21.81228963184152
 21
13.69739432992665
 31
0.0
  0
LINE
  5
1C21
330
1F
100
AcDbEntity
  8
OBJECT1
100
AcDbLine
 10
21.75899722416176
 20
14.58632486670383
 30
0.0
 11
21.75899722416176
 21
14.18527367527694
 31
0.0
  0
ARC
  5
1C22
330
1F
100
AcDbEntity
  8
OBJECT1
100
AcDbCircle
 10
21.45323611000607
 20
14.17402367527694
 30
0.0
 40
0.01125
100
AcDbArc
 50
90.0
 51
180.0
  0
ARC
  5
1C23
330
1F
100
AcDbEntity
  8
OBJECT1
100
AcDbCircle
 10
21.45323611000607
 20
14.09339867527694
 30
0.0
 40
0.01125
100
AcDbArc
 50
180.0
 51
270.0
  0
LINE
  5
1C24
330
1F
100
AcDbEntity
  8
OBJECT2
100
AcDbLine
 10
21.63142916708392
 20
14.18527367527694
 30
0.0
 11
21.63142916708392
 21
14.08214867527694
 31
0.0
  0
LINE
  5
1C25
330
1F
100
AcDbEntity
  8
OBJECT1
100
AcDbLine
 10
21.45323611000607
 20
14.18527367527694
 30
0.0
 11
21.75899722416176
 21
14.18527367527694
 31
0.0
  0
LINE
  5
1C26
330
1F
100
AcDbEntity
  8
OBJECT1
100
AcDbLine
 10
21.45323611000607
 20
14.08214867527694
 30
0.0
 11
21.67087222416177
 21
14.08214867527694
 31
0.0
  0
LINE
  5
1C27
330
1F
100
AcDbEntity
  8
OBJECT2
100
AcDbLine
 10
21.67087222416177
 20
14.08214867527694
 30
0.0
 11
21.67087222416177
 21
13.96027367527694
 31
0.0
  0
LINE
  5
1C28
330
1F
100
AcDbEntity
  8
OBJECT1
100
AcDbLine
 10
21.44198611000607
 20
14.17402367527694
 30
0.0
 11
21.44198611000607
 21
14.09339867527694
 31
0.0
  0
LINE
  5
1C29
330
1F
100
AcDbEntity
  8
OBJECT1
100
AcDbLine
 10
19.9903889493913
 20
14.45848628380885
 30
0.0
 11
19.80253376683622
 21
14.62917244739636
 31
0.0
  0
LINE
  5
1C2A
330
1F
100
AcDbEntity
  8
OBJECT1
100
AcDbLine
 10
19.80253376683622
 20
14.62917244739636
 30
0.0
 11
19.46097885302627
 21
14.20245697368319
 31
0.0
  0
LINE
  5
1C2B
330
1F
100
AcDbEntity
  8
OBJECT1
100
AcDbLine
 10
19.46097885302627
 20
14.20245697368319
 30
0.0
 11
19.20481266766882
 21
14.45848628380885
 31
0.0
  0
LINE
  5
1C2C
330
1F
100
AcDbEntity
  8
OBJECT1
100
AcDbLine
 10
18.1587157426386
 20
12.52464435461966
 30
0.0
 11
18.19241104263807
 21
12.60119703382905
 31
0.0
  0
LINE
  5
1C2D
330
1F
100
AcDbEntity
  8
OBJECT2
100
AcDbLine
 10
18.19241104263807
 20
12.60119703382905
 30
0.0
 11
18.2653981308932
 21
12.55745849748119
 31
0.0
  0
LINE
  5
1C2E
330
1F
100
AcDbEntity
  8
OBJECT1
100
AcDbLine
 10
18.1587157426386
 20
12.44738135011049
 30
0.0
 11
18.1587157426386
 21
12.52464435461966
 31
0.0
  0
LINE
  5
1C2F
330
1F
100
AcDbEntity
  8
OBJECT1
100
AcDbLine
 10
18.20363334450696
 20
12.36534529473387
 30
0.0
 11
18.1587157426386
 21
12.44738135011049
 31
0.0
  0
LINE
  5
1C30
330
1F
100
AcDbEntity
  8
OBJECT2
100
AcDbLine
 10
18.3215664290232
 20
12.48089185381637
 30
0.0
 11
18.3215664290232
 21
12.42073204884139
 31
0.0
  0
LINE
  5
1C31
330
1F
100
AcDbEntity
  8
OBJECT2
100
AcDbLine
 10
18.3215664290232
 20
12.42073204884139
 30
0.0
 11
18.27846699925238
 21
12.33281463031765
 31
0.0
  0
LINE
  5
1C32
330
1F
100
AcDbEntity
  8
OBJECT2
100
AcDbLine
 10
18.2653981308932
 20
12.55745849748119
 30
0.0
 11
18.3215664290232
 21
12.48089185381637
 31
0.0
  0
LINE
  5
1C33
330
1F
100
AcDbEntity
  8
OBJECT1
100
AcDbLine
 10
18.27846699925238
 20
12.33281463031765
 30
0.0
 11
18.20363334450696
 21
12.36534529473387
 31
0.0
  0
LINE
  5
1C34
330
1F
100
AcDbEntity
  8
OBJECT1
100
AcDbLine
 10
18.20363334450696
 20
12.76526914458231
 30
0.0
 11
18.1587157426386
 21
12.68323308920568
 31
0.0
  0
LINE
  5
1C35
330
1F
100
AcDbEntity
  8
OBJECT1
100
AcDbLine
 10
18.27846699925238
 20
12.79779934351668
 30
0.0
 11
18.20363334450696
 21
12.76526914458231
 31
0.0
  0
LINE
  5
1C36
330
1F
100
AcDbEntity
  8
OBJECT1
100
AcDbLine
 10
18.1587157426386
 20
12.68323308920568
 30
0.0
 11
18.19241104263807
 21
12.60119703382905
 31
0.0
  0
INSERT
  5
1C48
330
1F
100
AcDbEntity
  8
0
100
AcDbBlockReference
  2
SPECSHEET_FLOWARROW
 10
9.72180179631735
 20
6.899754897992409
 30
0.0
 41
0.1875
 42
0.1875
 43
0.1875
 50
270.0
  0
TEXT
  5
1C49
330
1F
100
AcDbEntity
  8
TEXT
100
AcDbText
 10
4.18561525427471
 20
6.773314156179226
 30
0.0
 40
0.28125
  1
DIRECTION OF FLOW
  7
ROMANS
 72
     1
 11
6.348561682846138
 21
6.913939156179226
 31
0.0
100
AcDbText
 73
     2
  0
TEXT
  5
1C4A
330
1F
100
AcDbEntity
  8
TEXT
100
AcDbText
 10
20.97223048523156
 20
6.773314156179226
 30
0.0
 40
0.28125
  1
DIRECTION OF FLOW
  7
ROMANS
 72
     1
 11
23.13517691380299
 21
6.913939156179226
 31
0.0
100
AcDbText
 73
     2
  0
INSERT
  5
1C4B
330
1F
100
AcDbEntity
  8
0
100
AcDbBlockReference
  2
SPECSHEET_FLOWARROW
 10
26.5084170272742
 20
6.899754897992409
 30
0.0
 41
0.1875
 42
0.1875
 43
0.1875
 50
270.0
  0
LINE
  5
1C51
330
1F
100
AcDbEntity
  8
OBJECT1
100
AcDbLine
 10
1.498234955139778
 20
9.800878413312236
 30
0.0
 11
0.874556330606353
 21
9.800878413312236
 31
0.0
  0
LINE
  5
1C52
330
1F
100
AcDbEntity
  8
OBJECT1
100
AcDbLine
 10
10.90400609316941
 20
9.800878413312236
 30
0.0
 11
9.825732288130893
 21
9.800878413312236
 31
0.0
  0
LINE
  5
1C53
102
{ACAD_REACTORS
330
1C5C
102
}
330
1F
100
AcDbEntity
  8
0
100
AcDbLine
 10
10.90400609316941
 20
9.800878413312236
 30
0.0
 11
12.39237936648021
 21
9.800878413312236
 31
0.0
  0
LINE
  5
1C54
330
1F
100
AcDbEntity
  8
0
100
AcDbLine
 10
1.498234955139778
 20
9.800878413312236
 30
0.0
 11
3.035957293761128
 21
9.807412847491828
 31
0.0
  0
HATCH
  5
1C5A
330
1F
100
AcDbEntity
  8
OBJECT2
100
AcDbHatch
 10
0.0
 20
0.0
 30
0.0
210
0.0
220
0.0
230
1.0
  2
AR-CONC
 70
     0
 71
     1
 91
        1
 92
       33
 93
        3
 72
     1
 10
3.035957293761128
 20
8.941586645687415
 11
1.498234955139778
 21
8.941586645687415
 72
     1
 10
1.498234955139778
 20
9.800878413312236
 11
1.498234955139778
 21
8.941586645687415
 72
     1
 10
3.035957293761128
 20
8.941586645687415
 11
3.035957293761128
 21
9.807412847491828
 97
        3
330
18C6
330
18C5
330
18C4
 75
     0
 76
     1
 52
0.0
 41
0.09375
 77
     0
 78
    13
 53
50.0
 43
0.0329216927173519
 44
2.983688528039327
 45
0.6724314211882064
 46
-0.0588301265461829
 79
     2
 49
0.0703125
 49
-0.7734375
 53
355.0
 43
0.0329216927173519
 44
2.983688528039327
 45
-0.1300793752621875
 46
0.7051801253437611
 79
     2
 49
0.05625
 49
-0.61875
 53
100.4513999999999
 43
0.0889576427173467
 44
2.978786021789328
 45
0.5423525453568953
 46
0.6463495706821441
 79
     2
 49
0.059756428125
 49
-0.6573207299999999
 53
46.1842
 43
0.0329216927173519
 44
3.171188528039327
 45
1.000538483086541
 46
-0.1551740759334545
 79
     2
 49
0.10546875
 49
-1.16015625
 53
96.63559999999998
 43
0.1162998911548527
 44
3.158257302726827
 45
0.8762462864519093
 46
0.9132355039691642
 79
     2
 49
0.089634645
 49
-0.9859809374999997
 53
351.1842
 43
0.0329216927173519
 44
3.171188528039327
 45
0.8762455735627753
 46
0.9132361883674917
 79
     2
 49
0.084375
 49
-0.9281250000000001
 53
21.0
 43
0.1266716927173519
 44
3.124313528039327
 45
0.5596003613610579
 46
-0.3774552099987551
 79
     2
 49
0.0703125
 49
-0.7734375
 53
326.0
 43
0.1266716927173519
 44
3.124313528039327
 45
0.2281081236764828
 46
0.6798281672314248
 79
     2
 49
0.05625
 49
-0.61875
 53
71.45140000000001
 43
0.1733050361548436
 44
3.092858897414327
 45
0.7877087142951469
 46
0.3023723406655804
 79
     2
 49
0.059756428125
 49
-0.6573207299999999
 53
37.49999999999999
 43
0.0329216927173519
 44
2.983688528039327
 45
0.01139986435996
 46
0.3120879879668545
 79
     6
 49
0.0
 49
-0.6112500000000001
 49
0.0
 49
-0.6281250000000002
 49
0.0
 49
-0.6210937500000001
 53
7.499999999999999
 43
0.0329216927173519
 44
2.983688528039327
 45
0.2466276913520143
 46
0.3697609798897127
 79
     6
 49
0.0
 49
-0.3581249999999999
 49
0.0
 49
-0.5971874999999999
 49
0.0
 49
-0.23671875
 53
327.4999999999999
 43
-0.1761408072826498
 44
2.983688528039327
 45
0.5004585339116334
 46
-0.0211451922509811
 79
     6
 49
0.0
 49
-0.234375
 49
0.0
 49
-0.73125
 49
0.0
 49
-0.9703125
 53
317.5
 43
-0.2698908072826498
 44
2.983688528039327
 45
0.5467370337584871
 46
0.0938484209365478
 79
     6
 49
0.0
 49
-0.3046875
 49
0.0
 49
-0.485625
 49
0.0
 49
-0.6890625
 98
        1
 10
0.0329216927173519
 20
2.983688528039327
  0
HATCH
  5
1C5C
330
1F
100
AcDbEntity
  8
OBJECT2
100
AcDbHatch
 10
0.0
 20
0.0
 30
0.0
210
0.0
220
0.0
230
1.0
  2
AR-CONC
 70
     0
 71
     1
 91
        1
 92
       33
 93
        4
 72
     1
 10
10.90400609316941
 20
8.941586645687415
 11
10.90400609316941
 21
9.807412847491828
 72
     1
 10
12.39237936648021
 20
9.800878413312236
 11
12.39237936648021
 21
8.941586645687415
 72
     1
 10
10.90400609316941
 20
8.941586645687415
 11
12.39237936648021
 21
8.941586645687415
 72
     1
 10
10.90400609316941
 20
9.800878413312236
 11
12.39237936648021
 21
9.800878413312236
 97
        4
330
16D6
330
16AC
330
16AA
330
1C53
 75
     0
 76
     1
 52
0.0
 41
0.09375
 77
     0
 78
    13
 53
50.0
 43
0.0329216927173519
 44
2.983688528039327
 45
0.6724314211882064
 46
-0.0588301265461829
 79
     2
 49
0.0703125
 49
-0.7734375
 53
355.0
 43
0.0329216927173519
 44
2.983688528039327
 45
-0.1300793752621875
 46
0.7051801253437611
 79
     2
 49
0.05625
 49
-0.61875
 53
100.4513999999999
 43
0.0889576427173467
 44
2.978786021789328
 45
0.5423525453568953
 46
0.6463495706821441
 79
     2
 49
0.059756428125
 49
-0.6573207299999999
 53
46.1842
 43
0.0329216927173519
 44
3.171188528039327
 45
1.000538483086541
 46
-0.1551740759334545
 79
     2
 49
0.10546875
 49
-1.16015625
 53
96.63559999999998
 43
0.1162998911548527
 44
3.158257302726827
 45
0.8762462864519093
 46
0.9132355039691642
 79
     2
 49
0.089634645
 49
-0.9859809374999997
 53
351.1842
 43
0.0329216927173519
 44
3.171188528039327
 45
0.8762455735627753
 46
0.9132361883674917
 79
     2
 49
0.084375
 49
-0.9281250000000001
 53
21.0
 43
0.1266716927173519
 44
3.124313528039327
 45
0.5596003613610579
 46
-0.3774552099987551
 79
     2
 49
0.0703125
 49
-0.7734375
 53
326.0
 43
0.1266716927173519
 44
3.124313528039327
 45
0.2281081236764828
 46
0.6798281672314248
 79
     2
 49
0.05625
 49
-0.61875
 53
71.45140000000001
 43
0.1733050361548436
 44
3.092858897414327
 45
0.7877087142951469
 46
0.3023723406655804
 79
     2
 49
0.059756428125
 49
-0.6573207299999999
 53
37.49999999999999
 43
0.0329216927173519
 44
2.983688528039327
 45
0.01139986435996
 46
0.3120879879668545
 79
     6
 49
0.0
 49
-0.6112500000000001
 49
0.0
 49
-0.6281250000000002
 49
0.0
 49
-0.6210937500000001
 53
7.499999999999999
 43
0.0329216927173519
 44
2.983688528039327
 45
0.2466276913520143
 46
0.3697609798897127
 79
     6
 49
0.0
 49
-0.3581249999999999
 49
0.0
 49
-0.5971874999999999
 49
0.0
 49
-0.23671875
 53
327.4999999999999
 43
-0.1761408072826498
 44
2.983688528039327
 45
0.5004585339116334
 46
-0.0211451922509811
 79
     6
 49
0.0
 49
-0.234375
 49
0.0
 49
-0.73125
 49
0.0
 49
-0.9703125
 53
317.5
 43
-0.2698908072826498
 44
2.983688528039327
 45
0.5467370337584871
 46
0.0938484209365478
 79
     6
 49
0.0
 49
-0.3046875
 49
0.0
 49
-0.485625
 49
0.0
 49
-0.6890625
 98
        1
 10
0.0329216927173519
 20
2.983688528039327
  0
HATCH
  5
1C66
330
1F
100
AcDbEntity
  8
0
100
AcDbHatch
 10
0.0
 20
0.0
 30
0.0
210
0.0
220
0.0
230
1.0
  2
SOLID
 70
     1
 71
     0
 91
        2
 92
        7
 72
     0
 73
     1
 93
        4
 10
9.7656117136288
 20
16.4996516113148
 10
9.692691058660329
 20
16.42673095634632
 10
10.08271170466443
 20
16.18092606577366
 10
10.08433725916994
 20
16.18092606577366
 97
        0
 92
        7
 72
     0
 73
     1
 93
        4
 10
9.838707615403222
 20
16.57274751308921
 10
9.7656117136288
 20
16.4996516113148
 10
10.08433725916994
 20
16.18092606577366
 10
10.08564743504655
 20
16.18092606577366
 97
        0
 75
     0
 76
     1
 47
0.1858442569687141
 98
        2
 10
9.804112409857239
 20
16.38109940541711
 10
9.8295941860612
 20
16.50841456620567
  0
HATCH
  5
1C76
330
1F
100
AcDbEntity
  8
0
100
AcDbHatch
 10
0.0
 20
0.0
 30
0.0
210
0.0
220
0.0
230
1.0
  2
SOLID
 70
     1
 71
     0
 91
        4
 92
        7
 72
     0
 73
     1
 93
        3
 10
14.17179896666374
 20
13.03155930318624
 10
14.06875591871983
 20
12.57725803039231
 10
14.17179896666374
 20
12.57725803039231
 97
        0
 92
        7
 72
     0
 73
     1
 93
        5
 10
14.17212846758474
 20
13.03192522916272
 10
14.17188196523392
 20
13.03192523137677
 10
14.17179896666374
 20
13.03155930318626
 10
14.17179896666374
 20
12.57725803039232
 10
14.27525451359665
 20
12.57725803039232
 97
        0
 92
        7
 72
     0
 73
     1
 93
        3
 10
14.17179896666374
 20
10.25608900905166
 10
14.06854966922532
 20
10.25608900905166
 10
14.17179896666374
 20
9.800878413312236
 97
        0
 92
        7
 72
     0
 73
     1
 93
        3
 10
14.27504826410213
 20
10.25608900905166
 10
14.17179896666374
 20
10.25608900905166
 10
14.17179896666374
 20
9.800878413312243
 97
        0
 75
     0
 76
     1
 47
0.0618265524486645
 98
        4
 10
14.14093955919824
 20
12.66653724169288
 10
14.22214657980872
 20
12.65494477597856
 10
14.14093955919824
 20
10.1509693714921
 10
14.19894457392001
 20
10.17415434424712
  0
HATCH
  5
1C90
330
1F
100
AcDbEntity
  8
0
100
AcDbHatch
 10
0.0
 20
0.0
 30
0.0
210
0.0
220
0.0
230
1.0
  2
SOLID
 70
     1
 71
     0
 91
        4
 92
        7
 72
     0
 73
     1
 93
        5
 10
27.25232287423693
 20
11.73193029545047
 10
27.25207883346952
 20
11.73193029929598
 10
27.25207693521223
 20
11.73192193016563
 10
27.25207693521223
 20
11.27725767112064
 10
27.35545015085553
 20
11.27725767112064
 97
        0
 92
        7
 72
     0
 73
     1
 93
        3
 10
27.25207693521225
 20
11.73192193016565
 10
27.14895155597869
 20
11.27725767112064
 10
27.25207693521224
 20
11.27725767112064
 97
        0
 92
        7
 72
     0
 73
     1
 93
        4
 10
27.25207693521224
 20
8.71590735797482
 10
27.14882763777383
 20
8.71590735797482
 10
27.25206709388767
 20
8.260740151152628
 10
27.25207693521224
 20
8.260740151534605
 97
        0
 92
        7
 72
     0
 73
     1
 93
        4
 10
27.35532623265064
 20
8.71590735797482
 10
27.25207693521224
 20
8.71590735797482
 10
27.25207693521224
 20
8.260740151534605
 10
27.25208677671008
 20
8.260740151916584
 97
        0
 75
     0
 76
     1
 47
0.0618265524486645
 98
        4
 10
27.2673699254195
 20
11.35499994688337
 10
27.17456190186467
 20
11.32022250841403
 10
27.19776390775338
 20
8.65395241862161
 10
27.2905719313082
 20
8.677137391376628
  0
ENDSEC
  0
SECTION
  2
OBJECTS
  0
DICTIONARY
  5
C
330
0
100
AcDbDictionary
  3
ACAD_GROUP
350
D
  3
ACAD_LAYOUT
350
1A
  3
ACAD_MLINESTYLE
350
17
  3
ACAD_PLOTSETTINGS
350
19
  3
ACAD_PLOTSTYLENAME
350
E
  3
ACDBHEADERROUNDTRIPXREC
350
1E55
  3
ACDBVARIABLEDICTIONARY
350
178
  0
DICTIONARY
  5
1E77
330
1F
100
AcDbDictionary
280
     1
  3
ACAD_LAYOUTSELFREF
360
1E78
  0
DICTIONARY
  5
1E75
330
1B
100
AcDbDictionary
280
     1
  3
ACAD_LAYOUTSELFREF
360
1E76
  0
DICTIONARY
  5
D
102
{ACAD_REACTORS
330
C
102
}
330
C
100
AcDbDictionary
  0
DICTIONARY
  5
1A
102
{ACAD_REACTORS
330
C
102
}
330
C
100
AcDbDictionary
  0
DICTIONARY
  5
17
102
{ACAD_REACTORS
330
C
102
}
330
C
100
AcDbDictionary
  3
STANDARD
350
18
  0
DICTIONARY
  5
19
102
{ACAD_REACTORS
330
C
102
}
330
C
100
AcDbDictionary
  0
ACDBDICTIONARYWDFLT
  5
E
102
{ACAD_REACTORS
330
C
102
}
330
C
100
AcDbDictionary
281
     1
  3
Normal
350
F
100
AcDbDictionaryWithDefault
340
F
  0
DICTIONARY
  5
1E55
102
{ACAD_REACTORS
330
C
102
}
330
C
100
AcDbDictionary
  3
CEPSNTYPE
350
1E5F
  3
FINGERPRINTGUID
350
1E60
  3
HYPERLINKBASE
350
1E58
  3
INSUNITS
350
1E5E
  3
LAYOUTDICT
350
1E5A
  3
LWETCUNION
350
1E5D
  3
PLOTSETDICT
350
1E5B
  3
PLOTSTYLNAMDICT
350
1E5C
  3
PSVPSCALE
350
1E62
  3
PUCSBASE
350
1E65
  3
PUCSORGBACK
350
1E6B
  3
PUCSORGBOTTOM
350
1E67
  3
PUCSORGFRONT
350
1E6A
  3
PUCSORGLEFT
350
1E68
  3
PUCSORGRIGHT
350
1E69
  3
PUCSORGTOP
350
1E66
  3
PUCSORTHOREF
350
1E63
  3
PUCSORTHOVIEW
350
1E64
  3
STYLESHEET
350
1E59
  3
TSTACKALIGN
350
1E56
  3
TSTACKSIZE
350
1E57
  3
UCSBASE
350
1E6E
  3
UCSORGBACK
350
1E74
  3
UCSORGBOTTOM
350
1E70
  3
UCSORGFRONT
350
1E73
  3
UCSORGLEFT
350
1E71
  3
UCSORGRIGHT
350
1E72
  3
UCSORGTOP
350
1E6F
  3
UCSORTHOREF
350
1E6C
  3
UCSORTHOVIEW
350
1E6D
  3
VERSIONGUID
350
1E61
  0
DICTIONARY
  5
178
102
{ACAD_REACTORS
330
C
102
}
330
C
100
AcDbDictionary
  3
DIMASSOC
350
ADC
  3
SORTENTS
350
179
  0
XRECORD
  5
1E78
102
{ACAD_REACTORS
330
1E77
102
}
330
1E77
100
AcDbXrecord
340
1F
  0
XRECORD
  5
1E76
102
{ACAD_REACTORS
330
1E75
102
}
330
1E75
100
AcDbXrecord
340
1B
  0
MLINESTYLE
  5
18
102
{ACAD_REACTORS
330
17
102
}
330
17
100
AcDbMlineStyle
  2
STANDARD
 70
     0
  3

 62
   256
 51
90.0
 52
90.0
 71
     2
 49
0.5
 62
   256
  6
BYLAYER
 49
-0.5
 62
   256
  6
BYLAYER
  0
ACDBPLACEHOLDER
  5
F
102
{ACAD_REACTORS
330
E
102
}
330
E
100
AcDbPlaceHolder
280
     0
  0
XRECORD
  5
1E5F
102
{ACAD_REACTORS
330
1E55
102
}
330
1E55
100
AcDbXrecord
 90
        0
  0
XRECORD
  5
1E60
102
{ACAD_REACTORS
330
1E55
102
}
330
1E55
100
AcDbXrecord
  1
{FDEAD576-A652-11D2-9A35-0060089B3A3F}
  0
XRECORD
  5
1E58
102
{ACAD_REACTORS
330
1E55
102
}
330
1E55
100
AcDbXrecord
  1

  0
XRECORD
  5
1E5E
102
{ACAD_REACTORS
330
1E55
102
}
330
1E55
100
AcDbXrecord
 90
        1
  0
XRECORD
  5
1E5A
102
{ACAD_REACTORS
330
1E55
102
}
330
1E55
100
AcDbXrecord
340
1A
  0
XRECORD
  5
1E5D
102
{ACAD_REACTORS
330
1E55
102
}
330
1E55
100
AcDbXrecord
 90
    11805
  0
XRECORD
  5
1E5B
102
{ACAD_REACTORS
330
1E55
102
}
330
1E55
100
AcDbXrecord
340
19
  0
XRECORD
  5
1E5C
102
{ACAD_REACTORS
330
1E55
102
}
330
1E55
100
AcDbXrecord
340
E
  0
XRECORD
  5
1E62
102
{ACAD_REACTORS
330
1E55
102
}
330
1E55
100
AcDbXrecord
 40
0.0
  0
XRECORD
  5
1E65
102
{ACAD_REACTORS
330
1E55
102
}
330
1E55
100
AcDbXrecord
340
0
  0
XRECORD
  5
1E6B
102
{ACAD_REACTORS
330
1E55
102
}
330
1E55
100
AcDbXrecord
 10
0.0
 20
0.0
 30
0.0
  0
XRECORD
  5
1E67
102
{ACAD_REACTORS
330
1E55
102
}
330
1E55
100
AcDbXrecord
 10
0.0
 20
0.0
 30
0.0
  0
XRECORD
  5
1E6A
102
{ACAD_REACTORS
330
1E55
102
}
330
1E55
100
AcDbXrecord
 10
0.0
 20
0.0
 30
0.0
  0
XRECORD
  5
1E68
102
{ACAD_REACTORS
330
1E55
102
}
330
1E55
100
AcDbXrecord
 10
0.0
 20
0.0
 30
0.0
  0
XRECORD
  5
1E69
102
{ACAD_REACTORS
330
1E55
102
}
330
1E55
100
AcDbXrecord
 10
0.0
 20
0.0
 30
0.0
  0
XRECORD
  5
1E66
102
{ACAD_REACTORS
330
1E55
102
}
330
1E55
100
AcDbXrecord
 10
0.0
 20
0.0
 30
0.0
  0
XRECORD
  5
1E63
102
{ACAD_REACTORS
330
1E55
102
}
330
1E55
100
AcDbXrecord
340
0
  0
XRECORD
  5
1E64
102
{ACAD_REACTORS
330
1E55
102
}
330
1E55
100
AcDbXrecord
 70
     0
  0
XRECORD
  5
1E59
102
{ACAD_REACTORS
330
1E55
102
}
330
1E55
100
AcDbXrecord
  1
WILKINS.ctb
  0
XRECORD
  5
1E56
102
{ACAD_REACTORS
330
1E55
102
}
330
1E55
100
AcDbXrecord
 90
        1
  0
XRECORD
  5
1E57
102
{ACAD_REACTORS
330
1E55
102
}
330
1E55
100
AcDbXrecord
 90
       70
  0
XRECORD
  5
1E6E
102
{ACAD_REACTORS
330
1E55
102
}
330
1E55
100
AcDbXrecord
340
0
  0
XRECORD
  5
1E74
102
{ACAD_REACTORS
330
1E55
102
}
330
1E55
100
AcDbXrecord
 10
0.0
 20
0.0
 30
0.0
  0
XRECORD
  5
1E70
102
{ACAD_REACTORS
330
1E55
102
}
330
1E55
100
AcDbXrecord
 10
0.0
 20
0.0
 30
0.0
  0
XRECORD
  5
1E73
102
{ACAD_REACTORS
330
1E55
102
}
330
1E55
100
AcDbXrecord
 10
0.0
 20
0.0
 30
0.0
  0
XRECORD
  5
1E71
102
{ACAD_REACTORS
330
1E55
102
}
330
1E55
100
AcDbXrecord
 10
0.0
 20
0.0
 30
0.0
  0
XRECORD
  5
1E72
102
{ACAD_REACTORS
330
1E55
102
}
330
1E55
100
AcDbXrecord
 10
0.0
 20
0.0
 30
0.0
  0
XRECORD
  5
1E6F
102
{ACAD_REACTORS
330
1E55
102
}
330
1E55
100
AcDbXrecord
 10
0.0
 20
0.0
 30
0.0
  0
XRECORD
  5
1E6C
102
{ACAD_REACTORS
330
1E55
102
}
330
1E55
100
AcDbXrecord
340
0
  0
XRECORD
  5
1E6D
102
{ACAD_REACTORS
330
1E55
102
}
330
1E55
100
AcDbXrecord
 70
     0
  0
XRECORD
  5
1E61
102
{ACAD_REACTORS
330
1E55
102
}
330
1E55
100
AcDbXrecord
  1
{3C275558-1D4F-4D58-9795-9D82CEB53967}
  0
DICTIONARYVAR
  5
ADC
102
{ACAD_REACTORS
330
178
102
}
330
178
100
DictionaryVariables
280
     0
  1
1
  0
DICTIONARYVAR
  5
179
102
{ACAD_REACTORS
330
178
102
}
330
178
100
DictionaryVariables
280
     0
  1
96
  0
ENDSEC
  0
EOF
