  0
SECTION
  2
HEADER
  9
$ACADVER
  1
AC1014
  9
$ACADMAINTVER
 70
     9
  9
$DWGCODEPAGE
  3
ANSI_1252
  9
$INSBASE
 10
0.0
 20
0.0
 30
0.0
  9
$EXTMIN
 10
7.667839132561169
 20
1.868750050604283
 30
-0.0000000000000058
  9
$EXTMAX
 10
22.81317907934214
 20
18.82651371800633
 30
0.0000000000000104
  9
$LIMMIN
 10
0.0
 20
0.0
  9
$LIMMAX
 10
31.5
 20
20.8
  9
$ORTHOMODE
 70
     0
  9
$REGENMODE
 70
     1
  9
$FILLMODE
 70
     1
  9
$QTEXTMODE
 70
     0
  9
$MIRRTEXT
 70
     0
  9
$DRAGMODE
 70
     2
  9
$LTSCALE
 40
1.0
  9
$OSMODE
 70
    37
  9
$ATTMODE
 70
     1
  9
$TEXTSIZE
 40
0.125
  9
$TRACEWID
 40
0.05
  9
$TEXTSTYLE
  7
ROMANS
  9
$CLAYER
  8
0
  9
$CELTYPE
  6
BYLAYER
  9
$CECOLOR
 62
   256
  9
$CELTSCALE
 40
1.0
  9
$DELOBJ
 70
     1
  9
$DISPSILH
 70
     0
  9
$DIMSCALE
 40
1.0
  9
$DIMASZ
 40
0.125
  9
$DIMEXO
 40
0.0625
  9
$DIMDLI
 40
0.38
  9
$DIMRND
 40
0.0
  9
$DIMDLE
 40
0.0
  9
$DIMEXE
 40
0.09
  9
$DIMTP
 40
0.0
  9
$DIMTM
 40
0.0
  9
$DIMTXT
 40
0.125
  9
$DIMCEN
 40
0.04
  9
$DIMTSZ
 40
0.0
  9
$DIMTOL
 70
     0
  9
$DIMLIM
 70
     0
  9
$DIMTIH
 70
     1
  9
$DIMTOH
 70
     1
  9
$DIMSE1
 70
     0
  9
$DIMSE2
 70
     0
  9
$DIMTAD
 70
     0
  9
$DIMZIN
 70
     0
  9
$DIMBLK
  1

  9
$DIMASO
 70
     1
  9
$DIMSHO
 70
     1
  9
$DIMPOST
  1

  9
$DIMAPOST
  1

  9
$DIMALT
 70
     0
  9
$DIMALTD
 70
     2
  9
$DIMALTF
 40
25.4
  9
$DIMLFAC
 40
1.0
  9
$DIMTOFL
 70
     0
  9
$DIMTVP
 40
0.0
  9
$DIMTIX
 70
     0
  9
$DIMSOXD
 70
     0
  9
$DIMSAH
 70
     0
  9
$DIMBLK1
  1

  9
$DIMBLK2
  1

  9
$DIMSTYLE
  2
STANDARD
  9
$DIMCLRD
 70
   256
  9
$DIMCLRE
 70
   256
  9
$DIMCLRT
 70
     3
  9
$DIMTFAC
 40
1.0
  9
$DIMGAP
 40
0.09
  9
$DIMJUST
 70
     0
  9
$DIMSD1
 70
     0
  9
$DIMSD2
 70
     0
  9
$DIMTOLJ
 70
     1
  9
$DIMTZIN
 70
     0
  9
$DIMALTZ
 70
     0
  9
$DIMALTTZ
 70
     0
  9
$DIMFIT
 70
     3
  9
$DIMUPT
 70
     1
  9
$DIMUNIT
 70
     2
  9
$DIMDEC
 70
     3
  9
$DIMTDEC
 70
     3
  9
$DIMALTU
 70
     2
  9
$DIMALTTD
 70
     2
  9
$DIMTXSTY
  7
STANDARD
  9
$DIMAUNIT
 70
     0
  9
$LUNITS
 70
     2
  9
$LUPREC
 70
     3
  9
$SKETCHINC
 40
0.05
  9
$FILLETRAD
 40
0.125
  9
$AUNITS
 70
     0
  9
$AUPREC
 70
     0
  9
$MENU
  1
.
  9
$ELEVATION
 40
0.0
  9
$PELEVATION
 40
0.0
  9
$THICKNESS
 40
0.0
  9
$LIMCHECK
 70
     0
  9
$BLIPMODE
 70
     0
  9
$CHAMFERA
 40
0.5
  9
$CHAMFERB
 40
0.5
  9
$CHAMFERC
 40
1.0
  9
$CHAMFERD
 40
0.0
  9
$SKPOLY
 70
     0
  9
$TDCREATE
 40
2452459.429928009
  9
$TDUPDATE
 40
2452509.677956921
  9
$TDINDWG
 40
0.0196668519
  9
$TDUSRTIMER
 40
0.0196668519
  9
$USRTIMER
 70
     1
  9
$ANGBASE
 50
0.0
  9
$ANGDIR
 70
     0
  9
$PDMODE
 70
     0
  9
$PDSIZE
 40
0.0
  9
$PLINEWID
 40
0.0
  9
$COORDS
 70
     0
  9
$SPLFRAME
 70
     0
  9
$SPLINETYPE
 70
     6
  9
$SPLINESEGS
 70
    64
  9
$ATTDIA
 70
     0
  9
$ATTREQ
 70
     1
  9
$HANDLING
 70
 22529
  9
$HANDSEED
  5
C7B
  9
$SURFTAB1
 70
    32
  9
$SURFTAB2
 70
    32
  9
$SURFTYPE
 70
     6
  9
$SURFU
 70
     6
  9
$SURFV
 70
     6
  9
$UCSNAME
  2

  9
$UCSORG
 10
0.0
 20
0.0
 30
0.0
  9
$UCSXDIR
 10
1.0
 20
0.0
 30
0.0
  9
$UCSYDIR
 10
0.0
 20
1.0
 30
0.0
  9
$PUCSNAME
  2

  9
$PUCSORG
 10
0.0
 20
0.0
 30
0.0
  9
$PUCSXDIR
 10
1.0
 20
0.0
 30
0.0
  9
$PUCSYDIR
 10
0.0
 20
1.0
 30
0.0
  9
$USERI1
 70
     0
  9
$USERI2
 70
     0
  9
$USERI3
 70
     0
  9
$USERI4
 70
     0
  9
$USERI5
 70
     0
  9
$USERR1
 40
0.0
  9
$USERR2
 40
0.0
  9
$USERR3
 40
0.0
  9
$USERR4
 40
0.0
  9
$USERR5
 40
0.0
  9
$WORLDVIEW
 70
     1
  9
$SHADEDGE
 70
     3
  9
$SHADEDIF
 70
    70
  9
$TILEMODE
 70
     1
  9
$MAXACTVP
 70
    64
  9
$PINSBASE
 10
0.0
 20
0.0
 30
0.0
  9
$PLIMCHECK
 70
     0
  9
$PEXTMIN
 10
1.000000000000000E+20
 20
1.000000000000000E+20
 30
1.000000000000000E+20
  9
$PEXTMAX
 10
-1.000000000000000E+20
 20
-1.000000000000000E+20
 30
-1.000000000000000E+20
  9
$PLIMMIN
 10
0.0
 20
0.0
  9
$PLIMMAX
 10
12.0
 20
9.0
  9
$UNITMODE
 70
     0
  9
$VISRETAIN
 70
     1
  9
$PLINEGEN
 70
     0
  9
$PSLTSCALE
 70
     1
  9
$TREEDEPTH
 70
  3020
  9
$PICKSTYLE
 70
     1
  9
$CMLSTYLE
  2
STANDARD
  9
$CMLJUST
 70
     0
  9
$CMLSCALE
 40
1.0
  9
$PROXYGRAPHICS
 70
     1
  9
$MEASUREMENT
 70
     0
  0
ENDSEC
  0
SECTION
  2
CLASSES
  0
CLASS
  1
ACDBDICTIONARYWDFLT
  2
AcDbDictionaryWithDefault
  3
AutoCAD 2000
 90
        0
280
     0
281
     0
  0
CLASS
  1
ACDBPLACEHOLDER
  2
AcDbPlaceHolder
  3
AutoCAD 2000
 90
        0
280
     0
281
     0
  0
CLASS
  1
LAYOUT
  2
AcDbLayout
  3
AutoCAD 2000
 90
        0
280
     0
281
     0
  0
CLASS
  1
DICTIONARYVAR
  2
AcDbDictionaryVar
  3
AutoCAD 2000
 90
        0
280
     0
281
     0
  0
CLASS
  1
LONG_TRANSACTION
  2
AcDbLongTransaction
  3
AutoCAD 2000
 90
        0
280
     0
281
     0
  0
CLASS
  1
LWPOLYLINE
  2
AcDbPolyline
  3
AutoCAD 2000
 90
        0
280
     0
281
     1
  0
CLASS
  1
HATCH
  2
AcDbHatch
  3
AutoCAD 2000
 90
        0
280
     0
281
     1
  0
CLASS
  1
XRECORD
  2
AcDbXrecord
  3
AutoCAD 2000
 90
        0
280
     0
281
     0
  0
ENDSEC
  0
SECTION
  2
TABLES
  0
TABLE
  2
VPORT
  5
8
330
0
100
AcDbSymbolTable
 70
     2
  0
VPORT
  5
C54
330
8
100
AcDbSymbolTableRecord
100
AcDbViewportTableRecord
  2
*ACTIVE
 70
     0
 10
0.0
 20
0.0
 11
1.0
 21
1.0
 12
15.75103634421733
 22
10.4008677374725
 13
0.0
 23
0.0
 14
0.5
 24
0.5
 15
5.0
 25
5.0
 16
0.0
 26
0.0
 36
1.0
 17
0.0
 27
0.0
 37
0.0
 40
21.11687815166273
 41
1.781954887218045
 42
50.0
 43
0.0
 44
0.0
 50
0.0
 51
0.0
 71
     0
 72
 15000
 73
     1
 74
     2
 75
     0
 76
     0
 77
     0
 78
     0
  0
ENDTAB
  0
TABLE
  2
LTYPE
  5
5
330
0
100
AcDbSymbolTable
 70
     2
  0
LTYPE
  5
14
330
5
100
AcDbSymbolTableRecord
100
AcDbLinetypeTableRecord
  2
BYBLOCK
 70
     0
  3

 72
    65
 73
     0
 40
0.0
  0
LTYPE
  5
15
330
5
100
AcDbSymbolTableRecord
100
AcDbLinetypeTableRecord
  2
BYLAYER
 70
     0
  3

 72
    65
 73
     0
 40
0.0
  0
LTYPE
  5
16
330
5
100
AcDbSymbolTableRecord
100
AcDbLinetypeTableRecord
  2
CONTINUOUS
 70
     0
  3
Solid line
 72
    65
 73
     0
 40
0.0
  0
ENDTAB
  0
TABLE
  2
LAYER
  5
2
330
0
100
AcDbSymbolTable
 70
    10
  0
LAYER
  5
10
330
2
100
AcDbSymbolTableRecord
100
AcDbLayerTableRecord
  2
0
 70
     0
 62
     7
  6
CONTINUOUS
  0
LAYER
  5
62
330
2
100
AcDbSymbolTableRecord
100
AcDbLayerTableRecord
  2
OBJECT1
 70
     0
 62
     7
  6
CONTINUOUS
  0
LAYER
  5
63
330
2
100
AcDbSymbolTableRecord
100
AcDbLayerTableRecord
  2
OBJECT2
 70
     0
 62
     8
  6
CONTINUOUS
  0
LAYER
  5
65
330
2
100
AcDbSymbolTableRecord
100
AcDbLayerTableRecord
  2
TEXT
 70
     0
 62
     7
  6
CONTINUOUS
  0
ENDTAB
  0
TABLE
  2
STYLE
  5
3
330
0
100
AcDbSymbolTable
 70
     4
  0
STYLE
  5
11
330
3
100
AcDbSymbolTableRecord
100
AcDbTextStyleTableRecord
  2
STANDARD
 70
     0
 40
0.0
 41
1.0
 50
0.0
 71
     0
 42
0.125
  3
romans.shx
  4

  0
STYLE
  5
B3
330
3
100
AcDbSymbolTableRecord
100
AcDbTextStyleTableRecord
  2
ROMANS
 70
     0
 40
0.0
 41
1.0
 50
0.0
 71
     0
 42
0.125
  3
romans.shx
  4

  0
ENDTAB
  0
TABLE
  2
VIEW
  5
6
330
0
100
AcDbSymbolTable
 70
     0
  0
ENDTAB
  0
TABLE
  2
UCS
  5
7
330
0
100
AcDbSymbolTable
 70
     0
  0
ENDTAB
  0
TABLE
  2
APPID
  5
9
330
0
100
AcDbSymbolTable
 70
     1
  0
APPID
  5
12
330
9
100
AcDbSymbolTableRecord
100
AcDbRegAppTableRecord
  2
ACAD
 70
     0
  0
ENDTAB
  0
TABLE
  2
DIMSTYLE
  5
A
330
0
100
AcDbSymbolTable
 70
     4
  0
DIMSTYLE
105
99
330
A
100
AcDbSymbolTableRecord
100
AcDbDimStyleTableRecord
  2
STANDARD
 70
     0
  3

  4

  5

  6

  7

 40
1.0
 41
0.125
 42
0.0625
 43
0.38
 44
0.09
 45
0.0
 46
0.0
 47
0.0
 48
0.0
140
0.125
141
0.04
142
0.0
143
25.4
144
1.0
145
0.0
146
1.0
147
0.09
 71
     0
 72
     0
 73
     1
 74
     1
 75
     0
 76
     0
 77
     0
 78
     0
170
     0
171
     2
172
     0
173
     0
174
     0
175
     0
176
   256
177
   256
178
     3
270
     2
271
     3
272
     3
273
     2
274
     2
340
11
275
     0
280
     0
281
     0
282
     0
283
     1
284
     0
285
     0
286
     0
287
     3
288
     1
  0
ENDTAB
  0
TABLE
  2
BLOCK_RECORD
  5
1
330
0
100
AcDbSymbolTable
 70
     5
  0
BLOCK_RECORD
  5
1F
102
{ACAD_XDICTIONARY
360
C77
102
}
330
1
100
AcDbSymbolTableRecord
100
AcDbBlockTableRecord
  2
*MODEL_SPACE
  0
BLOCK_RECORD
  5
1B
102
{ACAD_XDICTIONARY
360
C75
102
}
330
1
100
AcDbSymbolTableRecord
100
AcDbBlockTableRecord
  2
*PAPER_SPACE
  0
BLOCK_RECORD
  5
6B
330
1
100
AcDbSymbolTableRecord
100
AcDbBlockTableRecord
  2
MARKINS
  0
BLOCK_RECORD
  5
277
330
1
100
AcDbSymbolTableRecord
100
AcDbBlockTableRecord
  2
SPECSHEET_FLOWARROW
  0
BLOCK_RECORD
  5
283
330
1
100
AcDbSymbolTableRecord
100
AcDbBlockTableRecord
  2
*X3
  0
ENDTAB
  0
ENDSEC
  0
SECTION
  2
BLOCKS
  0
BLOCK
  5
20
330
1F
100
AcDbEntity
  8
0
100
AcDbBlockBegin
  2
*MODEL_SPACE
 70
     0
 10
0.0
 20
0.0
 30
0.0
  3
*MODEL_SPACE
  1

  0
ENDBLK
  5
21
330
1F
100
AcDbEntity
  8
0
100
AcDbBlockEnd
  0
BLOCK
  5
1C
330
1B
100
AcDbEntity
 67
     1
  8
0
100
AcDbBlockBegin
  2
*PAPER_SPACE
 70
     0
 10
0.0
 20
0.0
 30
0.0
  3
*PAPER_SPACE
  1

  0
ENDBLK
  5
1D
330
1B
100
AcDbEntity
 67
     1
  8
0
100
AcDbBlockEnd
  0
BLOCK
  5
6C
330
6B
100
AcDbEntity
  8
0
100
AcDbBlockBegin
  2
MARKINS
 70
     0
 10
0.0
 20
0.0
 30
0.0
  3
MARKINS
  1

  0
ENDBLK
  5
6D
330
6B
100
AcDbEntity
  8
0
100
AcDbBlockEnd
  0
BLOCK
  5
281
330
277
100
AcDbEntity
  8
0
100
AcDbBlockBegin
  2
SPECSHEET_FLOWARROW
 70
     0
 10
0.0
 20
0.0
 30
0.0
  3
SPECSHEET_FLOWARROW
  1

  0
LINE
  5
278
330
277
100
AcDbEntity
  8
OBJECT1
100
AcDbLine
 10
-0.3883432548078076
 20
-4.226471473879882
 30
0.0
 11
-0.3883432548079213
 21
-1.384666629104103
 31
0.0
  0
LINE
  5
279
330
277
100
AcDbEntity
  8
OBJECT1
100
AcDbLine
 10
0.3883432548076939
 20
-4.226471473879882
 30
0.0
 11
0.3883432548077508
 21
-1.384666629103975
 31
0.0
  0
LINE
  5
27A
330
277
100
AcDbEntity
  8
OBJECT1
100
AcDbLine
 10
-0.3883432548079213
 20
-4.226471473879882
 30
0.0
 11
0.3883432548076939
 21
-4.226471473879882
 31
0.0
  0
LINE
  5
27B
330
277
100
AcDbEntity
  8
OBJECT1
100
AcDbLine
 10
0.0
 20
0.0
 30
0.0
 11
-1.359203679482106
 21
-1.359203679482106
 31
0.0
  0
LINE
  5
27C
330
277
100
AcDbEntity
  8
OBJECT1
100
AcDbLine
 10
-0.3883432548079213
 20
-1.384666629104174
 30
0.0
 11
-1.359203679482106
 21
-2.355527053778388
 31
0.0
  0
LINE
  5
27D
330
277
100
AcDbEntity
  8
OBJECT1
100
AcDbLine
 10
-1.359203679482106
 20
-2.355527053778374
 30
0.0
 11
-1.359203679482106
 21
-1.35920367948205
 31
0.0
  0
LINE
  5
27E
330
277
100
AcDbEntity
  8
OBJECT1
100
AcDbLine
 10
1.359203679482106
 20
-2.355527053778359
 30
0.0
 11
1.359203679482106
 21
-1.359203679482078
 31
0.0
  0
LINE
  5
27F
330
277
100
AcDbEntity
  8
OBJECT1
100
AcDbLine
 10
0.0
 20
0.0
 30
0.0
 11
1.35920367948205
 21
-1.359203679482106
 31
0.0
  0
LINE
  5
280
330
277
100
AcDbEntity
  8
OBJECT1
100
AcDbLine
 10
0.3883432548077508
 20
-1.384666629103989
 30
0.0
 11
1.35920367948205
 21
-2.355527053778317
 31
0.0
  0
ENDBLK
  5
282
330
277
100
AcDbEntity
  8
0
100
AcDbBlockEnd
  0
BLOCK
  5
34E
330
283
100
AcDbEntity
  8
0
100
AcDbBlockBegin
  2
*X3
 70
     1
 10
0.0
 20
0.0
 30
0.0
  3
*X3
  1

  0
LINE
  5
284
330
283
100
AcDbEntity
  8
0
 62
     0
100
AcDbLine
 10
16.54399122619015
 20
5.953117963331872
 30
0.0
 11
16.7850365798226
 21
6.240384629501489
 31
0.0
  0
LINE
  5
285
330
283
100
AcDbEntity
  8
0
 62
     0
100
AcDbLine
 10
20.13029213919392
 20
5.639357288418898
 30
0.0
 11
20.37133749282637
 21
5.926623954588515
 31
0.0
  0
LINE
  5
286
330
283
100
AcDbEntity
  8
0
 62
     0
100
AcDbLine
 10
23.71659305219769
 20
5.325596613505923
 30
0.0
 11
23.95763840583014
 21
5.61286327967554
 31
0.0
  0
LINE
  5
287
330
283
100
AcDbEntity
  8
0
 62
     0
100
AcDbLine
 10
27.30289396520146
 20
5.011835938592944
 30
0.0
 11
27.54393931883391
 21
5.299102604762561
 31
0.0
  0
LINE
  5
288
330
283
100
AcDbEntity
  8
0
 62
     0
100
AcDbLine
 10
30.88919487820522
 20
4.69807526367997
 30
0.0
 11
31.13024023183767
 21
4.985341929849587
 31
0.0
  0
LINE
  5
289
330
283
100
AcDbEntity
  8
0
 62
     0
100
AcDbLine
 10
34.47549579120899
 20
4.384314588766994
 30
0.0
 11
34.71654114484144
 21
4.671581254936612
 31
0.0
  0
LINE
  5
28A
330
283
100
AcDbEntity
  8
0
 62
     0
100
AcDbLine
 10
10.1224079552219
 20
2.887920702121693
 30
0.0
 11
10.30619142322941
 21
3.106945310379064
 31
0.0
  0
LINE
  5
28B
330
283
100
AcDbEntity
  8
0
 62
     0
100
AcDbLine
 10
6.478845156593195
 20
3.133439319122424
 30
0.0
 11
6.719890510225646
 21
3.420705985292041
 31
0.0
  0
LINE
  5
28C
330
283
100
AcDbEntity
  8
0
 62
     0
100
AcDbLine
 10
9.371389400182621
 20
6.580639313157825
 30
0.0
 11
9.612434753815074
 21
6.867905979327442
 31
0.0
  0
LINE
  5
28D
330
283
100
AcDbEntity
  8
0
 62
     0
100
AcDbLine
 10
2.892544243589427
 20
3.4471999940354
 30
0.0
 11
3.133589597221879
 21
3.734466660205017
 31
0.0
  0
LINE
  5
28E
330
283
100
AcDbEntity
  8
0
 62
     0
100
AcDbLine
 10
-0.6937566694143406
 20
3.760960668948376
 30
0.0
 11
-0.4527113157818884
 21
4.048227335117992
 31
0.0
  0
LINE
  5
28F
330
283
100
AcDbEntity
  8
0
 62
     0
100
AcDbLine
 10
-0.6937566680650008
 20
3.760960668500059
 30
0.0
 11
-0.3948982586374771
 21
3.734813945675761
 31
0.0
  0
LINE
  5
290
330
283
100
AcDbEntity
  8
0
 62
     0
100
AcDbLine
 10
2.892544245065283
 20
3.44719999460849
 30
0.0
 11
3.191402654492806
 21
3.421053271784192
 31
0.0
  0
LINE
  5
291
330
283
100
AcDbEntity
  8
0
 62
     0
100
AcDbLine
 10
6.478845158195566
 20
3.133439320716921
 30
0.0
 11
6.77770356762309
 21
3.107292597892623
 31
0.0
  0
LINE
  5
292
330
283
100
AcDbEntity
  8
0
 62
     0
100
AcDbLine
 10
5.859147080514357
 20
6.887920702121688
 30
0.0
 11
6.083946899558089
 21
6.868253266392682
 31
0.0
  0
LINE
  5
293
330
283
100
AcDbEntity
  8
0
 62
     0
100
AcDbLine
 10
9.371389403260849
 20
6.58063931532541
 30
0.0
 11
9.670247812688373
 21
6.554492592501113
 31
0.0
  0
LINE
  5
294
330
283
100
AcDbEntity
  8
0
 62
     0
100
AcDbLine
 10
16.54399122952141
 20
5.953117967542272
 30
0.0
 11
16.84284963894894
 21
5.926971244717975
 31
0.0
  0
LINE
  5
295
330
283
100
AcDbEntity
  8
0
 62
     0
100
AcDbLine
 10
20.1302921426517
 20
5.639357293650704
 30
0.0
 11
20.42915055207922
 21
5.613210570826407
 31
0.0
  0
LINE
  5
296
330
283
100
AcDbEntity
  8
0
 62
     0
100
AcDbLine
 10
23.71659305578198
 20
5.325596619759135
 30
0.0
 11
24.0154514652095
 21
5.299449896934838
 31
0.0
  0
LINE
  5
297
330
283
100
AcDbEntity
  8
0
 62
     0
100
AcDbLine
 10
27.30289396891226
 20
5.011835945867566
 30
0.0
 11
27.60175237833979
 21
4.985689223043269
 31
0.0
  0
LINE
  5
298
330
283
100
AcDbEntity
  8
0
 62
     0
100
AcDbLine
 10
30.88919488204255
 20
4.698075271975998
 30
0.0
 11
31.18805329147007
 21
4.671928549151701
 31
0.0
  0
LINE
  5
299
330
283
100
AcDbEntity
  8
0
 62
     0
100
AcDbLine
 10
34.47549579517284
 20
4.384314598084429
 30
0.0
 11
34.77435420460036
 21
4.358167875260132
 31
0.0
  0
LINE
  5
29A
330
283
100
AcDbEntity
  8
0
 62
     0
100
AcDbLine
 10
16.84285413584954
 20
5.92695824728061
 30
0.0
 11
16.78504132659575
 21
6.240371671717227
 31
0.0
  0
LINE
  5
29B
330
283
100
AcDbEntity
  8
0
 62
     0
100
AcDbLine
 10
20.42915477541931
 20
5.613194756170967
 30
0.0
 11
20.37134196616552
 21
5.926608180607584
 31
0.0
  0
LINE
  5
29C
330
283
100
AcDbEntity
  8
0
 62
     0
100
AcDbLine
 10
24.01545541498909
 20
5.299431265061324
 30
0.0
 11
23.9576426057353
 21
5.612844689497941
 31
0.0
  0
LINE
  5
29D
330
283
100
AcDbEntity
  8
0
 62
     0
100
AcDbLine
 10
27.60175605455886
 20
4.985667773951681
 30
0.0
 11
27.54394324530507
 21
5.299081198388298
 31
0.0
  0
LINE
  5
29E
330
283
100
AcDbEntity
  8
0
 62
     0
100
AcDbLine
 10
31.18805669412864
 20
4.671904282842045
 30
0.0
 11
31.13024388487485
 21
4.985317707278662
 31
0.0
  0
LINE
  5
29F
330
283
100
AcDbEntity
  8
0
 62
     0
100
AcDbLine
 10
34.77435733369841
 20
4.358140791732399
 30
0.0
 11
34.71654452444462
 21
4.671554216169016
 31
0.0
  0
LINE
  5
2A0
330
283
100
AcDbEntity
  8
0
 62
     0
100
AcDbLine
 10
10.34659400584575
 20
2.887920702121693
 30
0.0
 11
10.30619377845586
 21
3.1069374525221
 31
0.0
  0
LINE
  5
2A1
330
283
100
AcDbEntity
  8
0
 62
     0
100
AcDbLine
 10
9.670252856709993
 20
6.554485229499893
 30
0.0
 11
9.6124400474562
 21
6.86789865393651
 31
0.0
  0
LINE
  5
2A2
330
283
100
AcDbEntity
  8
0
 62
     0
100
AcDbLine
 10
6.777705948139884
 20
3.107287519195125
 30
0.0
 11
6.719893138886091
 21
3.420700943631743
 31
0.0
  0
LINE
  5
2A3
330
283
100
AcDbEntity
  8
0
 62
     0
100
AcDbLine
 10
6.083952217140218
 20
6.868248720609535
 30
0.0
 11
6.080323487717251
 21
6.887920702121688
 31
0.0
  0
LINE
  5
2A4
330
283
100
AcDbEntity
  8
0
 62
     0
100
AcDbLine
 10
3.191405308570108
 20
3.421051010304767
 30
0.0
 11
3.133592499316316
 21
3.734464434741385
 31
0.0
  0
LINE
  5
2A5
330
283
100
AcDbEntity
  8
0
 62
     0
100
AcDbLine
 10
-0.3948953309996657
 20
3.73481450141441
 30
0.0
 11
-0.452708140253458
 21
4.048227925851027
 31
0.0
  0
LINE
  5
2A6
330
283
100
AcDbEntity
  8
0
 62
     0
100
AcDbLine
 10
15.34572021212896
 20
4.215402860242893
 30
0.0
 11
15.735162689285
 21
4.621285610537316
 31
0.0
  0
LINE
  5
2A7
330
283
100
AcDbEntity
  8
0
 62
     0
100
AcDbLine
 10
20.68192545525718
 20
3.387807788597803
 30
0.0
 11
21.07136793241322
 21
3.793690538892226
 31
0.0
  0
LINE
  5
2A8
330
283
100
AcDbEntity
  8
0
 62
     0
100
AcDbLine
 10
26.33256487780161
 20
2.887920702121692
 30
0.0
 11
26.40757317554144
 21
2.966095467247135
 31
0.0
  0
LINE
  5
2A9
330
283
100
AcDbEntity
  8
0
 62
     0
100
AcDbLine
 10
10.00951496900073
 20
5.042997931887985
 30
0.0
 11
10.39895744615678
 21
5.448880682182408
 31
0.0
  0
LINE
  5
2AA
330
283
100
AcDbEntity
  8
0
 62
     0
100
AcDbLine
 10
4.673309725872515
 20
5.870593003533076
 30
0.0
 11
5.062752203028558
 21
6.276475753827499
 31
0.0
  0
LINE
  5
2AB
330
283
100
AcDbEntity
  8
0
 62
     0
100
AcDbLine
 10
-0.6628955172557073
 20
6.698188075178167
 30
0.0
 11
-0.4808480067847493
 21
6.887920702121681
 31
0.0
  0
LINE
  5
2AC
330
283
100
AcDbEntity
  8
0
 62
     0
100
AcDbLine
 10
15.79040625006997
 20
4.146426009886439
 30
0.0
 11
15.73516532773785
 21
4.621275059360027
 31
0.0
  0
LINE
  5
2AD
330
283
100
AcDbEntity
  8
0
 62
     0
100
AcDbLine
 10
21.12661074873319
 20
3.318827605078553
 30
0.0
 11
21.07136982640108
 21
3.793676654552142
 31
0.0
  0
LINE
  5
2AE
330
283
100
AcDbEntity
  8
0
 62
     0
100
AcDbLine
 10
26.4166666777239
 20
2.887920702121692
 30
0.0
 11
26.4075743250643
 21
2.966078249744262
 31
0.0
  0
LINE
  5
2AF
330
283
100
AcDbEntity
  8
0
 62
     0
100
AcDbLine
 10
10.45420175140674
 20
4.974024414694325
 30
0.0
 11
10.39896082907462
 21
5.448873464167913
 31
0.0
  0
LINE
  5
2B0
330
283
100
AcDbEntity
  8
0
 62
     0
100
AcDbLine
 10
5.117997252743515
 20
5.80162281950221
 30
0.0
 11
5.062756330411402
 21
6.276471868975798
 31
0.0
  0
LINE
  5
2B1
330
283
100
AcDbEntity
  8
0
 62
     0
100
AcDbLine
 10
-0.2182072459197093
 20
6.629221224310094
 30
0.0
 11
-0.2483026999950428
 21
6.887920702121681
 31
0.0
  0
LINE
  5
2B2
330
283
100
AcDbEntity
  8
0
 62
     0
100
AcDbLine
 10
-0.6628955177514033
 20
6.698188074755631
 30
0.0
 11
-0.2182117474664417
 21
6.629221818911547
 31
0.0
  0
LINE
  5
2B3
330
283
100
AcDbEntity
  8
0
 62
     0
100
AcDbLine
 10
4.673309725668134
 20
5.870593004626624
 30
0.0
 11
5.117993495953095
 21
5.80162674878254
 31
0.0
  0
LINE
  5
2B4
330
283
100
AcDbEntity
  8
0
 62
     0
100
AcDbLine
 10
10.00951496908767
 20
5.042997934497617
 30
0.0
 11
10.45419873937263
 21
4.974031678653533
 31
0.0
  0
LINE
  5
2B5
330
283
100
AcDbEntity
  8
0
 62
     0
100
AcDbLine
 10
15.34572021250721
 20
4.21540286436861
 30
0.0
 11
15.79040398279217
 21
4.146436608524526
 31
0.0
  0
LINE
  5
2B6
330
283
100
AcDbEntity
  8
0
 62
     0
100
AcDbLine
 10
20.68192545592674
 20
3.387807794239603
 30
0.0
 11
21.12660922621171
 21
3.318841538395519
 31
0.0
  0
LINE
  5
2B7
330
283
100
AcDbEntity
  8
0
 62
     0
100
AcDbLine
 10
8.902223838474816
 20
3.975311545907702
 30
0.0
 11
9.252316498411266
 21
4.109699526987189
 31
0.0
  0
LINE
  5
2B8
330
283
100
AcDbEntity
  8
0
 62
     0
100
AcDbLine
 10
16.08787101830453
 20
3.57487286553486
 30
0.0
 11
16.43796367824098
 21
3.709260846614347
 31
0.0
  0
LINE
  5
2B9
330
283
100
AcDbEntity
  8
0
 62
     0
100
AcDbLine
 10
20.28898293754194
 20
5.187528638488711
 30
0.0
 11
20.63907559747839
 21
5.321916619568198
 31
0.0
  0
LINE
  5
2BA
330
283
100
AcDbEntity
  8
0
 62
     0
100
AcDbLine
 10
24.49009485677935
 20
6.800184411442561
 30
0.0
 11
24.71865570820435
 21
6.887920702121692
 31
0.0
  0
LINE
  5
2BB
330
283
100
AcDbEntity
  8
0
 62
     0
100
AcDbLine
 10
23.27351819813425
 20
3.174434185162018
 30
0.0
 11
23.6236108580707
 21
3.308822166241506
 31
0.0
  0
LINE
  5
2BC
330
283
100
AcDbEntity
  8
0
 62
     0
100
AcDbLine
 10
27.47463011737166
 20
4.787089958115869
 30
0.0
 11
27.82472277730811
 21
4.921477939195356
 31
0.0
  0
LINE
  5
2BD
330
283
100
AcDbEntity
  8
0
 62
     0
100
AcDbLine
 10
31.67574203660906
 20
6.399745731069719
 30
0.0
 11
32.02583469654552
 21
6.534133712149206
 31
0.0
  0
LINE
  5
2BE
330
283
100
AcDbEntity
  8
0
 62
     0
100
AcDbLine
 10
30.75595066372798
 20
2.887920702121692
 30
0.0
 11
30.80925803790041
 21
2.908383485868664
 31
0.0
  0
LINE
  5
2BF
330
283
100
AcDbEntity
  8
0
 62
     0
100
AcDbLine
 10
34.66027729720137
 20
4.386651277743028
 30
0.0
 11
35.01036995713782
 21
4.521039258822515
 31
0.0
  0
LINE
  5
2C0
330
283
100
AcDbEntity
  8
0
 62
     0
100
AcDbLine
 10
1.716576658645098
 20
4.375750226280544
 30
0.0
 11
2.066669318581549
 21
4.510138207360031
 31
0.0
  0
LINE
  5
2C1
330
283
100
AcDbEntity
  8
0
 62
     0
100
AcDbLine
 10
5.917688577882506
 20
5.988405999234394
 30
0.0
 11
6.267781237818956
 21
6.122793980313882
 31
0.0
  0
LINE
  5
2C2
330
283
100
AcDbEntity
  8
0
 62
     0
100
AcDbLine
 10
16.08787102361632
 20
3.57487286572405
 30
0.0
 11
16.33658229538283
 21
3.407114994682826
 31
0.0
  0
LINE
  5
2C3
330
283
100
AcDbEntity
  8
0
 62
     0
100
AcDbLine
 10
20.28898294442238
 20
5.187528638463629
 30
0.0
 11
20.53769421618889
 21
5.019770767422405
 31
0.0
  0
LINE
  5
2C4
330
283
100
AcDbEntity
  8
0
 62
     0
100
AcDbLine
 10
23.27351820562053
 20
3.174434185968943
 30
0.0
 11
23.52222947738705
 21
3.006676314927719
 31
0.0
  0
LINE
  5
2C5
330
283
100
AcDbEntity
  8
0
 62
     0
100
AcDbLine
 10
24.49009486522844
 20
6.800184411203207
 30
0.0
 11
24.73880613699495
 21
6.632426540161983
 31
0.0
  0
LINE
  5
2C6
330
283
100
AcDbEntity
  8
0
 62
     0
100
AcDbLine
 10
27.47463012642659
 20
4.78708995870852
 30
0.0
 11
27.7233413981931
 21
4.619332087667296
 31
0.0
  0
LINE
  5
2C7
330
283
100
AcDbEntity
  8
0
 62
     0
100
AcDbLine
 10
31.67574204723265
 20
6.399745731448102
 30
0.0
 11
31.92445331899916
 21
6.231987860406878
 31
0.0
  0
LINE
  5
2C8
330
283
100
AcDbEntity
  8
0
 62
     0
100
AcDbLine
 10
34.6602773084308
 20
4.386651278953415
 30
0.0
 11
34.90898858019731
 21
4.218893407912191
 31
0.0
  0
LINE
  5
2C9
330
283
100
AcDbEntity
  8
0
 62
     0
100
AcDbLine
 10
5.917688580413966
 20
5.988405997973844
 30
0.0
 11
6.166399852180479
 21
5.82064812693262
 31
0.0
  0
LINE
  5
2CA
330
283
100
AcDbEntity
  8
0
 62
     0
100
AcDbLine
 10
8.902223841612117
 20
3.975311545479157
 30
0.0
 11
9.150935113378631
 21
3.807553674437933
 31
0.0
  0
LINE
  5
2CB
330
283
100
AcDbEntity
  8
0
 62
     0
100
AcDbLine
 10
1.716576659607907
 20
4.375750225234265
 30
0.0
 11
1.96528793137442
 21
4.207992354193041
 31
0.0
  0
LINE
  5
2CC
330
283
100
AcDbEntity
  8
0
 62
     0
100
AcDbLine
 10
16.33658424984466
 20
3.407102636784921
 30
0.0
 11
16.43796587082743
 21
3.709248400378935
 31
0.0
  0
LINE
  5
2CD
330
283
100
AcDbEntity
  8
0
 62
     0
100
AcDbLine
 10
20.53769739275211
 20
5.019755120334685
 30
0.0
 11
20.63907901373487
 21
5.321900883928699
 31
0.0
  0
LINE
  5
2CE
330
283
100
AcDbEntity
  8
0
 62
     0
100
AcDbLine
 10
23.52223104887442
 20
3.006658336470318
 30
0.0
 11
23.62361266985719
 21
3.308804100064332
 31
0.0
  0
LINE
  5
2CF
330
283
100
AcDbEntity
  8
0
 62
     0
100
AcDbLine
 10
24.73881053565956
 20
6.632407603884447
 30
0.0
 11
24.82454508898736
 21
6.887920702121693
 31
0.0
  0
LINE
  5
2D0
330
283
100
AcDbEntity
  8
0
 62
     0
100
AcDbLine
 10
27.72334419178188
 20
4.61931082002008
 30
0.0
 11
27.82472581276464
 21
4.921456583614094
 31
0.0
  0
LINE
  5
2D1
330
283
100
AcDbEntity
  8
0
 62
     0
100
AcDbLine
 10
30.80240135899884
 20
2.887920702121692
 30
0.0
 11
30.80925946888695
 21
2.908359799749728
 31
0.0
  0
LINE
  5
2D2
330
283
100
AcDbEntity
  8
0
 62
     0
100
AcDbLine
 10
31.92445733468932
 20
6.231963303569844
 30
0.0
 11
32.02583895567208
 21
6.534109067163858
 31
0.0
  0
LINE
  5
2D3
330
283
100
AcDbEntity
  8
0
 62
     0
100
AcDbLine
 10
34.90899099081164
 20
4.218866519705477
 30
0.0
 11
35.0103726117944
 21
4.521012283299491
 31
0.0
  0
LINE
  5
2D4
330
283
100
AcDbEntity
  8
0
 62
     0
100
AcDbLine
 10
9.1509374508149
 20
3.807546937099525
 30
0.0
 11
9.252319071797662
 21
4.109692700693539
 31
0.0
  0
LINE
  5
2D5
330
283
100
AcDbEntity
  8
0
 62
     0
100
AcDbLine
 10
6.166403794692585
 20
5.820643720963892
 30
0.0
 11
6.267785415675348
 21
6.122789484557906
 31
0.0
  0
LINE
  5
2D6
330
283
100
AcDbEntity
  8
0
 62
     0
100
AcDbLine
 10
1.965290651785135
 20
4.207991237414129
 30
0.0
 11
2.066672272767898
 21
4.510137001008144
 31
0.0
  0
LINE
  5
2D7
330
283
100
AcDbEntity
  8
0
 62
     0
100
AcDbLine
 10
15.44010065514729
 20
3.758524212895274
 30
0.0
 11
15.44010065514729
 21
3.758524212895274
 31
0.0
  0
LINE
  5
2D8
330
283
100
AcDbEntity
  8
0
 62
     0
100
AcDbLine
 10
18.02643254449672
 20
5.743086471463703
 30
0.0
 11
18.02643254449672
 21
5.743086471463703
 31
0.0
  0
LINE
  5
2D9
330
283
100
AcDbEntity
  8
0
 62
     0
100
AcDbLine
 10
15.50089993173374
 20
5.42299348205183
 30
0.0
 11
15.50089993173374
 21
5.42299348205183
 31
0.0
  0
LINE
  5
2DA
330
283
100
AcDbEntity
  8
0
 62
     0
100
AcDbLine
 10
10.27598257862984
 20
3.031589730437787
 30
0.0
 11
10.27598257862984
 21
3.031589730437787
 31
0.0
  0
LINE
  5
2DB
330
283
100
AcDbEntity
  8
0
 62
     0
100
AcDbLine
 10
10.33678185521629
 20
4.696058999594344
 30
0.0
 11
10.33678185521629
 21
4.696058999594344
 31
0.0
  0
LINE
  5
2DC
330
283
100
AcDbEntity
  8
0
 62
     0
100
AcDbLine
 10
7.811249242453327
 20
4.375966010182472
 30
0.0
 11
7.811249242453327
 21
4.375966010182472
 31
0.0
  0
LINE
  5
2DD
330
283
100
AcDbEntity
  8
0
 62
     0
100
AcDbLine
 10
10.39758113180275
 20
6.360528268750901
 30
0.0
 11
10.39758113180275
 21
6.360528268750901
 31
0.0
  0
LINE
  5
2DE
330
283
100
AcDbEntity
  8
0
 62
     0
100
AcDbLine
 10
5.244065579325064
 20
4.023913045747643
 30
0.0
 11
5.244065579325064
 21
4.023913045747643
 31
0.0
  0
LINE
  5
2DF
330
283
100
AcDbEntity
  8
0
 62
     0
100
AcDbLine
 10
7.87204851903978
 20
6.04043527933903
 30
0.0
 11
7.87204851903978
 21
6.04043527933903
 31
0.0
  0
LINE
  5
2E0
330
283
100
AcDbEntity
  8
0
 62
     0
100
AcDbLine
 10
2.647131165935879
 20
3.649031527724986
 30
0.0
 11
2.647131165935879
 21
3.649031527724986
 31
0.0
  0
LINE
  5
2E1
330
283
100
AcDbEntity
  8
0
 62
     0
100
AcDbLine
 10
5.304864855911517
 20
5.688382314904201
 30
0.0
 11
5.304864855911517
 21
5.688382314904201
 31
0.0
  0
LINE
  5
2E2
330
283
100
AcDbEntity
  8
0
 62
     0
100
AcDbLine
 10
0.1215985531729066
 20
3.328938538313114
 30
0.0
 11
0.1215985531729066
 21
3.328938538313114
 31
0.0
  0
LINE
  5
2E3
330
283
100
AcDbEntity
  8
0
 62
     0
100
AcDbLine
 10
2.707930442522333
 20
5.313500796881544
 30
0.0
 11
2.707930442522333
 21
5.313500796881544
 31
0.0
  0
LINE
  5
2E4
330
283
100
AcDbEntity
  8
0
 62
     0
100
AcDbLine
 10
0.1823978297593596
 20
4.993407807469672
 30
0.0
 11
0.1823978297593596
 21
4.993407807469672
 31
0.0
  0
LINE
  5
2E5
330
283
100
AcDbEntity
  8
0
 62
     0
100
AcDbLine
 10
0.2431971063458135
 20
6.65787707662623
 30
0.0
 11
0.2431971063458135
 21
6.65787707662623
 31
0.0
  0
LINE
  5
2E6
330
283
100
AcDbEntity
  8
0
 62
     0
100
AcDbLine
 10
17.96563326791026
 20
4.078617202307144
 30
0.0
 11
17.96563326791026
 21
4.078617202307144
 31
0.0
  0
LINE
  5
2E7
330
283
100
AcDbEntity
  8
0
 62
     0
100
AcDbLine
 10
20.6233669578859
 20
6.117967989486358
 30
0.0
 11
20.6233669578859
 21
6.117967989486358
 31
0.0
  0
LINE
  5
2E8
330
283
100
AcDbEntity
  8
0
 62
     0
100
AcDbLine
 10
20.56256768129945
 20
4.453498720329803
 30
0.0
 11
20.56256768129945
 21
4.453498720329803
 31
0.0
  0
LINE
  5
2E9
330
283
100
AcDbEntity
  8
0
 62
     0
100
AcDbLine
 10
23.19055062101416
 20
6.47002095392119
 30
0.0
 11
23.19055062101416
 21
6.47002095392119
 31
0.0
  0
LINE
  5
2EA
330
283
100
AcDbEntity
  8
0
 62
     0
100
AcDbLine
 10
23.12975134442771
 20
4.805551684764632
 30
0.0
 11
23.12975134442771
 21
4.805551684764632
 31
0.0
  0
LINE
  5
2EB
330
283
100
AcDbEntity
  8
0
 62
     0
100
AcDbLine
 10
25.71608323377714
 20
6.790113943333061
 30
0.0
 11
25.71608323377714
 21
6.790113943333061
 31
0.0
  0
LINE
  5
2EC
330
283
100
AcDbEntity
  8
0
 62
     0
100
AcDbLine
 10
23.06895206784126
 20
3.141082415608074
 30
0.0
 11
23.06895206784126
 21
3.141082415608074
 31
0.0
  0
LINE
  5
2ED
330
283
100
AcDbEntity
  8
0
 62
     0
100
AcDbLine
 10
25.65528395719068
 20
5.125644674176503
 30
0.0
 11
25.65528395719068
 21
5.125644674176503
 31
0.0
  0
LINE
  5
2EE
330
283
100
AcDbEntity
  8
0
 62
     0
100
AcDbLine
 10
25.59448468060423
 20
3.461175405019948
 30
0.0
 11
25.59448468060423
 21
3.461175405019948
 31
0.0
  0
LINE
  5
2EF
330
283
100
AcDbEntity
  8
0
 62
     0
100
AcDbLine
 10
28.25221837057988
 20
5.500526192199162
 30
0.0
 11
28.25221837057988
 21
5.500526192199162
 31
0.0
  0
LINE
  5
2F0
330
283
100
AcDbEntity
  8
0
 62
     0
100
AcDbLine
 10
28.19141909399342
 20
3.836056923042604
 30
0.0
 11
28.19141909399342
 21
3.836056923042604
 31
0.0
  0
LINE
  5
2F1
330
283
100
AcDbEntity
  8
0
 62
     0
100
AcDbLine
 10
30.81940203370813
 20
5.852579156633991
 30
0.0
 11
30.81940203370813
 21
5.852579156633991
 31
0.0
  0
LINE
  5
2F2
330
283
100
AcDbEntity
  8
0
 62
     0
100
AcDbLine
 10
30.75860275712168
 20
4.18810988747743
 30
0.0
 11
30.75860275712168
 21
4.18810988747743
 31
0.0
  0
LINE
  5
2F3
330
283
100
AcDbEntity
  8
0
 62
     0
100
AcDbLine
 10
33.3449346464711
 20
6.172672146045859
 30
0.0
 11
33.3449346464711
 21
6.172672146045859
 31
0.0
  0
LINE
  5
2F4
330
283
100
AcDbEntity
  8
0
 62
     0
100
AcDbLine
 10
33.28413536988465
 20
4.508202876889305
 30
0.0
 11
33.28413536988465
 21
4.508202876889305
 31
0.0
  0
LINE
  5
2F5
330
283
100
AcDbEntity
  8
0
 62
     0
100
AcDbLine
 10
9.512118078618721
 20
3.051183853591077
 30
0.0
 11
9.512118078618721
 21
3.051183853591077
 31
0.0
  0
LINE
  5
2F6
330
283
100
AcDbEntity
  8
0
 62
     0
100
AcDbLine
 10
15.81522878480272
 20
3.881004120630055
 30
0.0
 11
15.81522878480272
 21
3.881004120630055
 31
0.0
  0
LINE
  5
2F7
330
283
100
AcDbEntity
  8
0
 62
     0
100
AcDbLine
 10
18.9729806682783
 20
4.296730042850919
 30
0.0
 11
18.9729806682783
 21
4.296730042850919
 31
0.0
  0
LINE
  5
2F8
330
283
100
AcDbEntity
  8
0
 62
     0
100
AcDbLine
 10
20.22467980576274
 20
4.461519360528734
 30
0.0
 11
20.22467980576274
 21
4.461519360528734
 31
0.0
  0
LINE
  5
2F9
330
283
100
AcDbEntity
  8
0
 62
     0
100
AcDbLine
 10
22.11833949098672
 20
4.710824387669033
 30
0.0
 11
22.11833949098672
 21
4.710824387669033
 31
0.0
  0
LINE
  5
2FA
330
283
100
AcDbEntity
  8
0
 62
     0
100
AcDbLine
 10
25.2760913744623
 20
5.126550309889897
 30
0.0
 11
25.2760913744623
 21
5.126550309889897
 31
0.0
  0
LINE
  5
2FB
330
283
100
AcDbEntity
  8
0
 62
     0
100
AcDbLine
 10
26.52779051194674
 20
5.291339627567713
 30
0.0
 11
26.52779051194674
 21
5.291339627567713
 31
0.0
  0
LINE
  5
2FC
330
283
100
AcDbEntity
  8
0
 62
     0
100
AcDbLine
 10
28.42145019717072
 20
5.540644654708011
 30
0.0
 11
28.42145019717072
 21
5.540644654708011
 31
0.0
  0
LINE
  5
2FD
330
283
100
AcDbEntity
  8
0
 62
     0
100
AcDbLine
 10
31.57920208064631
 20
5.956370576928875
 30
0.0
 11
31.57920208064631
 21
5.956370576928875
 31
0.0
  0
LINE
  5
2FE
330
283
100
AcDbEntity
  8
0
 62
     0
100
AcDbLine
 10
32.83090121813074
 20
6.121159894606691
 30
0.0
 11
32.83090121813074
 21
6.121159894606691
 31
0.0
  0
LINE
  5
2FF
330
283
100
AcDbEntity
  8
0
 62
     0
100
AcDbLine
 10
34.72456090335472
 20
6.370464921746989
 30
0.0
 11
34.72456090335472
 21
6.370464921746989
 31
0.0
  0
LINE
  5
300
330
283
100
AcDbEntity
  8
0
 62
     0
100
AcDbLine
 10
1.37899623693705
 20
3.779327801145786
 30
0.0
 11
1.37899623693705
 21
3.779327801145786
 31
0.0
  0
LINE
  5
301
330
283
100
AcDbEntity
  8
0
 62
     0
100
AcDbLine
 10
2.630695374421486
 20
3.944117118823601
 30
0.0
 11
2.630695374421486
 21
3.944117118823601
 31
0.0
  0
LINE
  5
302
330
283
100
AcDbEntity
  8
0
 62
     0
100
AcDbLine
 10
4.524355059645464
 20
4.1934221459639
 30
0.0
 11
4.524355059645464
 21
4.1934221459639
 31
0.0
  0
LINE
  5
303
330
283
100
AcDbEntity
  8
0
 62
     0
100
AcDbLine
 10
7.68210694312105
 20
4.609148068184764
 30
0.0
 11
7.68210694312105
 21
4.609148068184764
 31
0.0
  0
LINE
  5
304
330
283
100
AcDbEntity
  8
0
 62
     0
100
AcDbLine
 10
8.933806080605485
 20
4.77393738586258
 30
0.0
 11
8.933806080605485
 21
4.77393738586258
 31
0.0
  0
LINE
  5
305
330
283
100
AcDbEntity
  8
0
 62
     0
100
AcDbLine
 10
10.82746576582946
 20
5.023242413002878
 30
0.0
 11
10.82746576582946
 21
5.023242413002878
 31
0.0
  0
LINE
  5
306
330
283
100
AcDbEntity
  8
0
 62
     0
100
AcDbLine
 10
17.13057647201346
 20
5.853062680041856
 30
0.0
 11
17.13057647201346
 21
5.853062680041856
 31
0.0
  0
LINE
  5
307
330
283
100
AcDbEntity
  8
0
 62
     0
100
AcDbLine
 10
20.28832835548905
 20
6.26878860226272
 30
0.0
 11
20.28832835548905
 21
6.26878860226272
 31
0.0
  0
LINE
  5
308
330
283
100
AcDbEntity
  8
0
 62
     0
100
AcDbLine
 10
21.54002749297348
 20
6.433577919940535
 30
0.0
 11
21.54002749297348
 21
6.433577919940535
 31
0.0
  0
LINE
  5
309
330
283
100
AcDbEntity
  8
0
 62
     0
100
AcDbLine
 10
23.43368717819746
 20
6.682882947080834
 30
0.0
 11
23.43368717819746
 21
6.682882947080834
 31
0.0
  0
LINE
  5
30A
330
283
100
AcDbEntity
  8
0
 62
     0
100
AcDbLine
 10
15.23691678678948
 20
5.603757652901557
 30
0.0
 11
15.23691678678948
 21
5.603757652901557
 31
0.0
  0
LINE
  5
30B
330
283
100
AcDbEntity
  8
0
 62
     0
100
AcDbLine
 10
-0.4634079593277932
 20
5.335660438336723
 30
0.0
 11
-0.4634079593277932
 21
5.335660438336723
 31
0.0
  0
LINE
  5
30C
330
283
100
AcDbEntity
  8
0
 62
     0
100
AcDbLine
 10
2.694343924147792
 20
5.751386360557587
 30
0.0
 11
2.694343924147792
 21
5.751386360557587
 31
0.0
  0
LINE
  5
30D
330
283
100
AcDbEntity
  8
0
 62
     0
100
AcDbLine
 10
3.946043061632228
 20
5.916175678235402
 30
0.0
 11
3.946043061632228
 21
5.916175678235402
 31
0.0
  0
LINE
  5
30E
330
283
100
AcDbEntity
  8
0
 62
     0
100
AcDbLine
 10
5.839702746856206
 20
6.165480705375701
 30
0.0
 11
5.839702746856206
 21
6.165480705375701
 31
0.0
  0
LINE
  5
30F
330
283
100
AcDbEntity
  8
0
 62
     0
100
AcDbLine
 10
8.997454630331791
 20
6.581206627596565
 30
0.0
 11
8.997454630331791
 21
6.581206627596565
 31
0.0
  0
LINE
  5
310
330
283
100
AcDbEntity
  8
0
 62
     0
100
AcDbLine
 10
10.24915376781622
 20
6.745995945274381
 30
0.0
 11
10.24915376781622
 21
6.745995945274381
 31
0.0
  0
LINE
  5
311
330
283
100
AcDbEntity
  8
0
 62
     0
100
AcDbLine
 10
23.96074368725156
 20
3.154491750478096
 30
0.0
 11
23.96074368725156
 21
3.154491750478096
 31
0.0
  0
LINE
  5
312
330
283
100
AcDbEntity
  8
0
 62
     0
100
AcDbLine
 10
25.212442824736
 20
3.319281068155911
 30
0.0
 11
25.212442824736
 21
3.319281068155911
 31
0.0
  0
LINE
  5
313
330
283
100
AcDbEntity
  8
0
 62
     0
100
AcDbLine
 10
27.10610250995998
 20
3.56858609529621
 30
0.0
 11
27.10610250995998
 21
3.56858609529621
 31
0.0
  0
LINE
  5
314
330
283
100
AcDbEntity
  8
0
 62
     0
100
AcDbLine
 10
30.26385439343556
 20
3.984312017517074
 30
0.0
 11
30.26385439343556
 21
3.984312017517074
 31
0.0
  0
LINE
  5
315
330
283
100
AcDbEntity
  8
0
 62
     0
100
AcDbLine
 10
31.51555353092
 20
4.149101335194889
 30
0.0
 11
31.51555353092
 21
4.149101335194889
 31
0.0
  0
LINE
  5
316
330
283
100
AcDbEntity
  8
0
 62
     0
100
AcDbLine
 10
33.40921321614398
 20
4.398406362335188
 30
0.0
 11
33.40921321614398
 21
4.398406362335188
 31
0.0
  0
LINE
  5
317
330
283
100
AcDbEntity
  8
0
 62
     0
100
AcDbLine
 10
16.8681051306024
 20
4.419874869461967
 30
0.0
 11
16.8681051306024
 21
4.419874869461967
 31
0.0
  0
LINE
  5
318
330
283
100
AcDbEntity
  8
0
 62
     0
100
AcDbLine
 10
17.92234443786851
 20
3.748250359028437
 30
0.0
 11
17.92234443786851
 21
3.748250359028437
 31
0.0
  0
LINE
  5
319
330
283
100
AcDbEntity
  8
0
 62
     0
100
AcDbLine
 10
19.53721731146445
 20
4.307100510790068
 30
0.0
 11
19.53721731146445
 21
4.307100510790068
 31
0.0
  0
LINE
  5
31A
330
283
100
AcDbEntity
  8
0
 62
     0
100
AcDbLine
 10
20.59145661873056
 20
3.635476000356538
 30
0.0
 11
20.59145661873056
 21
3.635476000356538
 31
0.0
  0
LINE
  5
31B
330
283
100
AcDbEntity
  8
0
 62
     0
100
AcDbLine
 10
22.20632949232649
 20
4.194326152118168
 30
0.0
 11
22.20632949232649
 21
4.194326152118168
 31
0.0
  0
LINE
  5
31C
330
283
100
AcDbEntity
  8
0
 62
     0
100
AcDbLine
 10
23.2605687995926
 20
3.522701641684637
 30
0.0
 11
23.2605687995926
 21
3.522701641684637
 31
0.0
  0
LINE
  5
31D
330
283
100
AcDbEntity
  8
0
 62
     0
100
AcDbLine
 10
20.51089094110686
 20
6.86207726664108
 30
0.0
 11
20.51089094110686
 21
6.86207726664108
 31
0.0
  0
LINE
  5
31E
330
283
100
AcDbEntity
  8
0
 62
     0
100
AcDbLine
 10
24.87544167318854
 20
4.081551793446267
 30
0.0
 11
24.87544167318854
 21
4.081551793446267
 31
0.0
  0
LINE
  5
31F
330
283
100
AcDbEntity
  8
0
 62
     0
100
AcDbLine
 10
25.92968098045465
 20
3.409927283012736
 30
0.0
 11
25.92968098045465
 21
3.409927283012736
 31
0.0
  0
LINE
  5
320
330
283
100
AcDbEntity
  8
0
 62
     0
100
AcDbLine
 10
23.1800031219689
 20
6.749302907969186
 30
0.0
 11
23.1800031219689
 21
6.749302907969186
 31
0.0
  0
LINE
  5
321
330
283
100
AcDbEntity
  8
0
 62
     0
100
AcDbLine
 10
27.54455385405059
 20
3.968777434774372
 30
0.0
 11
27.54455385405059
 21
3.968777434774372
 31
0.0
  0
LINE
  5
322
330
283
100
AcDbEntity
  8
0
 62
     0
100
AcDbLine
 10
28.59879316131669
 20
3.297152924340842
 30
0.0
 11
28.59879316131669
 21
3.297152924340842
 31
0.0
  0
LINE
  5
323
330
283
100
AcDbEntity
  8
0
 62
     0
100
AcDbLine
 10
25.84911530283095
 20
6.636528549297286
 30
0.0
 11
25.84911530283095
 21
6.636528549297286
 31
0.0
  0
LINE
  5
324
330
283
100
AcDbEntity
  8
0
 62
     0
100
AcDbLine
 10
30.21366603491263
 20
3.856003076102472
 30
0.0
 11
30.21366603491263
 21
3.856003076102472
 31
0.0
  0
LINE
  5
325
330
283
100
AcDbEntity
  8
0
 62
     0
100
AcDbLine
 10
31.26790534217874
 20
3.184378565668942
 30
0.0
 11
31.26790534217874
 21
3.184378565668942
 31
0.0
  0
LINE
  5
326
330
283
100
AcDbEntity
  8
0
 62
     0
100
AcDbLine
 10
28.51822748369299
 20
6.523754190625386
 30
0.0
 11
28.51822748369299
 21
6.523754190625386
 31
0.0
  0
LINE
  5
327
330
283
100
AcDbEntity
  8
0
 62
     0
100
AcDbLine
 10
32.88277821577468
 20
3.743228717430572
 30
0.0
 11
32.88277821577468
 21
3.743228717430572
 31
0.0
  0
LINE
  5
328
330
283
100
AcDbEntity
  8
0
 62
     0
100
AcDbLine
 10
33.93701752304078
 20
3.071604206997042
 30
0.0
 11
33.93701752304078
 21
3.071604206997042
 31
0.0
  0
LINE
  5
329
330
283
100
AcDbEntity
  8
0
 62
     0
100
AcDbLine
 10
31.18733966455503
 20
6.410979831953491
 30
0.0
 11
31.18733966455503
 21
6.410979831953491
 31
0.0
  0
LINE
  5
32A
330
283
100
AcDbEntity
  8
0
 62
     0
100
AcDbLine
 10
35.55189039663672
 20
3.630454358758677
 30
0.0
 11
35.55189039663672
 21
3.630454358758677
 31
0.0
  0
LINE
  5
32B
330
283
100
AcDbEntity
  8
0
 62
     0
100
AcDbLine
 10
33.85645184541708
 20
6.298205473281584
 30
0.0
 11
33.85645184541708
 21
6.298205473281584
 31
0.0
  0
LINE
  5
32C
330
283
100
AcDbEntity
  8
0
 62
     0
100
AcDbLine
 10
15.25323225700647
 20
3.861024717700335
 30
0.0
 11
15.25323225700647
 21
3.861024717700335
 31
0.0
  0
LINE
  5
32D
330
283
100
AcDbEntity
  8
0
 62
     0
100
AcDbLine
 10
11.52988076887832
 20
4.645423586805764
 30
0.0
 11
11.52988076887832
 21
4.645423586805764
 31
0.0
  0
LINE
  5
32E
330
283
100
AcDbEntity
  8
0
 62
     0
100
AcDbLine
 10
8.860768588016272
 20
4.758197945477664
 30
0.0
 11
8.860768588016272
 21
4.758197945477664
 31
0.0
  0
LINE
  5
32F
330
283
100
AcDbEntity
  8
0
 62
     0
100
AcDbLine
 10
9.915007895282379
 20
4.086573435044134
 30
0.0
 11
9.915007895282379
 21
4.086573435044134
 31
0.0
  0
LINE
  5
330
330
283
100
AcDbEntity
  8
0
 62
     0
100
AcDbLine
 10
6.191656407154228
 20
4.870972304149561
 30
0.0
 11
6.191656407154228
 21
4.870972304149561
 31
0.0
  0
LINE
  5
331
330
283
100
AcDbEntity
  8
0
 62
     0
100
AcDbLine
 10
7.245895714420335
 20
4.199347793716031
 30
0.0
 11
7.245895714420335
 21
4.199347793716031
 31
0.0
  0
LINE
  5
332
330
283
100
AcDbEntity
  8
0
 62
     0
100
AcDbLine
 10
3.522544226292183
 20
4.983746662821461
 30
0.0
 11
3.522544226292183
 21
4.983746662821461
 31
0.0
  0
LINE
  5
333
330
283
100
AcDbEntity
  8
0
 62
     0
100
AcDbLine
 10
4.57678353355829
 20
4.312122152387932
 30
0.0
 11
4.57678353355829
 21
4.312122152387932
 31
0.0
  0
LINE
  5
334
330
283
100
AcDbEntity
  8
0
 62
     0
100
AcDbLine
 10
0.8534320454301379
 20
5.09652102149336
 30
0.0
 11
0.8534320454301379
 21
5.09652102149336
 31
0.0
  0
LINE
  5
335
330
283
100
AcDbEntity
  8
0
 62
     0
100
AcDbLine
 10
1.907671352696245
 20
4.424896511059831
 30
0.0
 11
1.907671352696245
 21
4.424896511059831
 31
0.0
  0
LINE
  5
336
330
283
100
AcDbEntity
  8
0
 62
     0
100
AcDbLine
 10
-0.7614408281658012
 20
4.53767086973173
 30
0.0
 11
-0.7614408281658012
 21
4.53767086973173
 31
0.0
  0
LINE
  5
337
330
283
100
AcDbEntity
  8
0
 62
     0
100
AcDbLine
 10
16.08702171420631
 20
5.986468394618669
 30
0.0
 11
16.08702171420631
 21
5.986468394618669
 31
0.0
  0
LINE
  5
338
330
283
100
AcDbEntity
  8
0
 62
     0
100
AcDbLine
 10
18.79651592698351
 20
3.503674381631118
 30
0.0
 11
18.79651592698351
 21
3.503674381631118
 31
0.0
  0
LINE
  5
339
330
283
100
AcDbEntity
  8
0
 62
     0
100
AcDbLine
 10
19.00295256091824
 20
6.486993306280259
 30
0.0
 11
19.00295256091824
 21
6.486993306280259
 31
0.0
  0
LINE
  5
33A
330
283
100
AcDbEntity
  8
0
 62
     0
100
AcDbLine
 10
21.71244677369545
 20
4.004199293292708
 30
0.0
 11
21.71244677369545
 21
4.004199293292708
 31
0.0
  0
LINE
  5
33B
330
283
100
AcDbEntity
  8
0
 62
     0
100
AcDbLine
 10
22.9105224460119
 20
2.90636520591726
 30
0.0
 11
22.9105224460119
 21
2.90636520591726
 31
0.0
  0
LINE
  5
33C
330
283
100
AcDbEntity
  8
0
 62
     0
100
AcDbLine
 10
24.62837762040738
 20
4.504724204954296
 30
0.0
 11
24.62837762040738
 21
4.504724204954296
 31
0.0
  0
LINE
  5
33D
330
283
100
AcDbEntity
  8
0
 62
     0
100
AcDbLine
 10
25.82645329272383
 20
3.406890117578848
 30
0.0
 11
25.82645329272383
 21
3.406890117578848
 31
0.0
  0
LINE
  5
33E
330
283
100
AcDbEntity
  8
0
 62
     0
100
AcDbLine
 10
27.54430846711931
 20
5.005249116615884
 30
0.0
 11
27.54430846711931
 21
5.005249116615884
 31
0.0
  0
LINE
  5
33F
330
283
100
AcDbEntity
  8
0
 62
     0
100
AcDbLine
 10
28.74238413943576
 20
3.907415029240436
 30
0.0
 11
28.74238413943576
 21
3.907415029240436
 31
0.0
  0
LINE
  5
340
330
283
100
AcDbEntity
  8
0
 62
     0
100
AcDbLine
 10
30.46023931383124
 20
5.505774028277475
 30
0.0
 11
30.46023931383124
 21
5.505774028277475
 31
0.0
  0
LINE
  5
341
330
283
100
AcDbEntity
  8
0
 62
     0
100
AcDbLine
 10
31.65831498614769
 20
4.407939940902027
 30
0.0
 11
31.65831498614769
 21
4.407939940902027
 31
0.0
  0
LINE
  5
342
330
283
100
AcDbEntity
  8
0
 62
     0
100
AcDbLine
 10
33.37617016054317
 20
6.00629893993906
 30
0.0
 11
33.37617016054317
 21
6.00629893993906
 31
0.0
  0
LINE
  5
343
330
283
100
AcDbEntity
  8
0
 62
     0
100
AcDbLine
 10
34.57424583285962
 20
4.908464852563612
 30
0.0
 11
34.57424583285962
 21
4.908464852563612
 31
0.0
  0
LINE
  5
344
330
283
100
AcDbEntity
  8
0
 62
     0
100
AcDbLine
 10
15.88058508027158
 20
3.00314946996953
 30
0.0
 11
15.88058508027158
 21
3.00314946996953
 31
0.0
  0
LINE
  5
345
330
283
100
AcDbEntity
  8
0
 62
     0
100
AcDbLine
 10
8.34561171844423
 20
6.735197209020054
 30
0.0
 11
8.34561171844423
 21
6.735197209020054
 31
0.0
  0
LINE
  5
346
330
283
100
AcDbEntity
  8
0
 62
     0
100
AcDbLine
 10
10.25516002078245
 20
4.985418571295493
 30
0.0
 11
10.25516002078245
 21
4.985418571295493
 31
0.0
  0
LINE
  5
347
330
283
100
AcDbEntity
  8
0
 62
     0
100
AcDbLine
 10
5.429680871732298
 20
6.234672297358465
 30
0.0
 11
5.429680871732298
 21
6.234672297358465
 31
0.0
  0
LINE
  5
348
330
283
100
AcDbEntity
  8
0
 62
     0
100
AcDbLine
 10
7.339229174070519
 20
4.484893659633905
 30
0.0
 11
7.339229174070519
 21
4.484893659633905
 31
0.0
  0
LINE
  5
349
330
283
100
AcDbEntity
  8
0
 62
     0
100
AcDbLine
 10
1.315674352703915
 20
6.831981473072324
 30
0.0
 11
1.315674352703915
 21
6.831981473072324
 31
0.0
  0
LINE
  5
34A
330
283
100
AcDbEntity
  8
0
 62
     0
100
AcDbLine
 10
2.513750025020367
 20
5.734147385696876
 30
0.0
 11
2.513750025020367
 21
5.734147385696876
 31
0.0
  0
LINE
  5
34B
330
283
100
AcDbEntity
  8
0
 62
     0
100
AcDbLine
 10
4.423298327358588
 20
3.984368747972316
 30
0.0
 11
4.423298327358588
 21
3.984368747972316
 31
0.0
  0
LINE
  5
34C
330
283
100
AcDbEntity
  8
0
 62
     0
100
AcDbLine
 10
-0.4021808216915651
 20
5.233622474035287
 30
0.0
 11
-0.4021808216915651
 21
5.233622474035287
 31
0.0
  0
LINE
  5
34D
330
283
100
AcDbEntity
  8
0
 62
     0
100
AcDbLine
 10
1.507367480646656
 20
3.483843836310728
 30
0.0
 11
1.507367480646656
 21
3.483843836310728
 31
0.0
  0
ENDBLK
  5
34F
330
283
100
AcDbEntity
  8
0
100
AcDbBlockEnd
  0
ENDSEC
  0
SECTION
  2
ENTITIES
  0
INSERT
  5
6E
330
1F
100
AcDbEntity
  8
0
100
AcDbBlockReference
  2
MARKINS
 10
17.64535020073016
 20
8.726385278517547
 30
0.0
 41
0.5
 42
0.5
 43
0.5
  0
TEXT
  5
624
330
1F
100
AcDbEntity
  8
TEXT
100
AcDbText
 10
10.14194485729371
 20
3.043837084137734
 30
0.0
 40
0.5625
  1
WILKINS MODEL 975XLBMS
  7
ROMANS
 72
     1
 11
15.84730200015086
 21
3.325087084137734
 31
0.0
100
AcDbText
 73
     2
  0
TEXT
  5
625
330
1F
100
AcDbEntity
  8
TEXT
100
AcDbText
 10
11.240159143008
 20
2.42003350197082
 30
0.0
 40
0.28125
  1
REDUCED PRESSURE PRINCIPLE ASSEMBLY
  7
ROMANS
 72
     1
 11
15.84730200015086
 21
2.56065850197082
 31
0.0
100
AcDbText
 73
     2
  0
TEXT
  5
626
330
1F
100
AcDbEntity
  8
TEXT
100
AcDbText
 10
12.13748057157944
 20
1.8688020232523
 30
0.0
 40
0.28125
  1
INDOOR HORIZONTAL INSTALLATION
  7
ROMANS
 72
     1
 11
15.82051628586515
 21
2.0094270232523
 31
0.0
100
AcDbText
 73
     2
  0
LINE
  5
627
330
1F
100
AcDbEntity
  8
OBJECT1
100
AcDbLine
 10
11.66756223936272
 20
18.69848501326544
 30
0.0
 11
8.179836242356326
 21
17.24034386438864
 31
0.0
  0
LINE
  5
628
330
1F
100
AcDbEntity
  8
OBJECT1
100
AcDbLine
 10
15.4030560173276
 20
13.3224707965268
 30
0.0
 11
9.697329437942297
 21
13.3224707965268
 31
0.0
  0
LINE
  5
629
330
1F
100
AcDbEntity
  8
OBJECT1
100
AcDbLine
 10
15.40306377321296
 20
13.0415124527768
 30
0.0
 11
9.697329437942297
 21
13.04152117152685
 31
0.0
  0
LINE
  5
62A
330
1F
100
AcDbEntity
  8
OBJECT1
100
AcDbLine
 10
10.18962841460158
 20
13.64738995180823
 30
0.0
 11
13.06849680693767
 21
13.64738995180823
 31
0.0
  0
LINE
  5
62B
330
1F
100
AcDbEntity
  8
OBJECT1
100
AcDbLine
 10
13.06849680693767
 20
17.20591334102204
 30
0.0
 11
10.18962841460158
 21
17.20591334102204
 31
0.0
  0
TEXT
  5
62C
330
1F
100
AcDbEntity
  8
TEXT
100
AcDbText
 10
10.79870546791248
 20
15.95121395042218
 30
0.0
 40
0.28125
  1
CENTRAL
  7
ROMANS
 72
     1
 11
11.70941975362677
 21
16.09183895042218
 31
0.0
100
AcDbText
 73
     2
  0
TEXT
  5
62D
330
1F
100
AcDbEntity
  8
TEXT
100
AcDbText
 10
10.89915189648391
 20
15.52537739720193
 30
0.0
 40
0.28125
  1
STATION
  7
ROMANS
 72
     1
 11
11.70941975362677
 21
15.66600239720193
 31
0.0
100
AcDbText
 73
     2
  0
LINE
  5
62E
330
1F
100
AcDbEntity
  8
OBJECT2
100
AcDbLine
 10
8.016866556057234
 20
11.31300013708427
 30
0.0
 11
16.70271612908679
 21
11.31300013708431
 31
0.0
  0
LINE
  5
62F
330
1F
100
AcDbEntity
  8
OBJECT2
100
AcDbLine
 10
16.42899392945982
 20
12.91756436142938
 30
0.0
 11
7.67679708932442
 21
12.91756436142934
 31
0.0
  0
TEXT
  5
630
330
1F
100
AcDbEntity
  8
TEXT
100
AcDbText
 10
10.93263403934101
 20
14.67352753190351
 30
0.0
 40
0.28125
  1
SYSTEM
  7
ROMANS
 72
     1
 11
11.70941975362673
 21
14.81415253190351
 31
0.0
100
AcDbText
 73
     2
  0
TEXT
  5
631
330
1F
100
AcDbEntity
  8
TEXT
100
AcDbText
 10
11.01968761076959
 20
15.09936408512376
 30
0.0
 40
0.28125
  1
ALARM
  7
ROMANS
 72
     1
 11
11.65584832505531
 21
15.23998908512376
 31
0.0
100
AcDbText
 73
     2
  0
LINE
  5
632
330
1F
100
AcDbEntity
  8
OBJECT1
100
AcDbLine
 10
16.14349829382288
 20
8.103871688394264
 30
0.0
 11
8.741057136523661
 21
8.103871688394264
 31
0.0
  0
LINE
  5
633
330
1F
100
AcDbEntity
  8
OBJECT2
100
AcDbLine
 10
16.94558502386638
 20
9.708435912739332
 30
0.0
 11
8.37896184629049
 21
9.708435912739332
 31
0.0
  0
LINE
  5
634
330
1F
100
AcDbEntity
  8
OBJECT1
100
AcDbLine
 10
8.741057136523661
 20
6.603871688394264
 30
0.0
 11
16.74221491109868
 21
6.603871688394264
 31
0.0
  0
LINE
  5
635
330
1F
100
AcDbEntity
  8
OBJECT2
100
AcDbLine
 10
9.354050842133258
 20
17.7312570344645
 30
0.0
 11
22.47236559418606
 21
17.7312570344645
 31
0.0
  0
INSERT
  5
636
330
1F
100
AcDbEntity
  8
OBJECT2
100
AcDbBlockReference
  2
*X3
 10
22.14344251646097
 20
5.520901425098657
 30
0.0
 41
-0.375
 42
0.375
 43
0.375
1001
ACAD
1000
HATCH
1002
{
1070
    16
1000
AR-CONC
1040
0.5
1040
0.0
1002
}
  0
LINE
  5
637
330
1F
100
AcDbEntity
  8
OBJECT2
100
AcDbLine
 10
9.958058043588618
 20
13.3224707965268
 30
0.0
 11
9.958058043588618
 21
14.52212858577445
 31
0.0
  0
LINE
  5
638
330
1F
100
AcDbEntity
  8
OBJECT1
100
AcDbLine
 10
8.179836242356326
 20
17.24034386438864
 30
0.0
 11
7.66930332430304
 21
12.85316799458757
 31
0.0
  0
LINE
  5
639
330
1F
100
AcDbEntity
  8
OBJECT2
100
AcDbLine
 10
8.741057136523661
 20
9.708435912739332
 30
0.0
 11
8.741057136523661
 21
8.103871688394264
 31
0.0
  0
LINE
  5
63A
330
1F
100
AcDbEntity
  8
OBJECT1
100
AcDbLine
 10
7.66930332430304
 20
12.85316799458757
 30
0.0
 11
8.741057136523661
 21
8.103871688394264
 31
0.0
  0
LINE
  5
63B
330
1F
100
AcDbEntity
  8
OBJECT1
100
AcDbLine
 10
8.741057136523661
 20
8.103871688394264
 30
0.0
 11
8.741057136523661
 21
6.603871688394264
 31
0.0
  0
LINE
  5
63C
330
1F
100
AcDbEntity
  8
OBJECT2
100
AcDbLine
 10
9.958058043588618
 20
9.708435912739332
 30
0.0
 11
9.958058043588618
 21
11.31300013708431
 31
0.0
  0
LINE
  5
63D
330
1F
100
AcDbEntity
  8
OBJECT2
100
AcDbLine
 10
8.741057136523661
 20
11.35557497272446
 30
0.0
 11
8.741057136523661
 21
12.91756436142938
 31
0.0
  0
ARC
  5
63E
330
1F
100
AcDbEntity
  8
OBJECT1
100
AcDbCircle
 10
9.712404238669218
 20
13.25223326670718
 30
0.0
 40
0.0718370392772733
100
AcDbArc
 50
102.113397257412
 51
257.8856634598671
  0
ARC
  5
63F
330
1F
100
AcDbEntity
  8
OBJECT2
100
AcDbCircle
 10
9.682252334330879
 20
13.25223326670718
 30
0.0
 40
0.0718370392772733
100
AcDbArc
 50
282.1143365401328
 51
77.8866027425879
  0
ARC
  5
640
330
1F
100
AcDbEntity
  8
OBJECT1
100
AcDbCircle
 10
9.712404238669218
 20
13.11175870134647
 30
0.0
 40
0.0718370392772733
100
AcDbArc
 50
102.1143365401328
 51
257.8866027425879
  0
LINE
  5
641
330
1F
100
AcDbEntity
  8
OBJECT2
100
AcDbLine
 10
9.958058043588618
 20
12.91756436142938
 30
0.0
 11
9.958058043588618
 21
13.0415124527768
 31
0.0
  0
LINE
  5
642
330
1F
100
AcDbEntity
  8
OBJECT2
100
AcDbLine
 10
7.863519226747168
 20
14.52212858577441
 30
0.0
 11
10.18962841460158
 21
14.52212858577445
 31
0.0
  0
LINE
  5
643
330
1F
100
AcDbEntity
  8
OBJECT2
100
AcDbLine
 10
10.18962841460158
 20
16.12669281011943
 30
0.0
 11
8.050241364169917
 21
16.12669281011939
 31
0.0
  0
LINE
  5
644
330
1F
100
AcDbEntity
  8
OBJECT1
100
AcDbLine
 10
10.18962841460158
 20
13.64738995180823
 30
0.0
 11
10.18962841460158
 21
17.20591334102204
 31
0.0
  0
LINE
  5
645
330
1F
100
AcDbEntity
  8
OBJECT2
100
AcDbLine
 10
8.741057136523661
 20
14.52212858577445
 30
0.0
 11
8.741057136523661
 21
16.12669281011943
 31
0.0
  0
LINE
  5
646
330
1F
100
AcDbEntity
  8
OBJECT2
100
AcDbLine
 10
9.958058043588618
 20
16.12669281011943
 30
0.0
 11
9.958058043588618
 21
17.7312570344645
 31
0.0
  0
LINE
  5
647
330
1F
100
AcDbEntity
  8
OBJECT1
100
AcDbLine
 10
18.55827371472523
 20
13.45976166898378
 30
0.0
 11
18.55827311810385
 21
13.37538171080424
 31
0.0
  0
LINE
  5
648
330
1F
100
AcDbEntity
  8
OBJECT2
100
AcDbLine
 10
18.32009372766943
 20
13.45976848176798
 30
0.0
 11
18.32011021721754
 21
13.43164367708956
 31
0.0
  0
LINE
  5
649
330
1F
100
AcDbEntity
  8
OBJECT1
100
AcDbLine
 10
18.30818018878245
 20
13.4339520284025
 30
0.0
 11
18.30819689418014
 21
13.45414845648093
 31
0.0
  0
LINE
  5
64A
330
1F
100
AcDbEntity
  8
OBJECT2
100
AcDbLine
 10
18.33995405409213
 20
13.43165205311123
 30
0.0
 11
18.3399548495873
 21
13.45976206673128
 31
0.0
  0
LINE
  5
64B
330
1F
100
AcDbEntity
  8
OBJECT2
100
AcDbLine
 10
20.21508321823327
 20
13.32247079652688
 30
0.0
 11
20.21508321823327
 21
13.80551037667856
 31
0.0
  0
LINE
  5
64C
330
1F
100
AcDbEntity
  8
OBJECT1
100
AcDbLine
 10
22.81300441590592
 20
11.31300013708431
 30
0.0
 11
22.07603585958452
 21
14.52212858577445
 31
0.0
  0
LINE
  5
64D
330
1F
100
AcDbEntity
  8
OBJECT2
100
AcDbLine
 10
17.24718619430139
 20
13.43061356337526
 30
0.0
 11
16.77388130930451
 21
13.90394390421624
 31
0.0
  0
LINE
  5
64E
330
1F
100
AcDbEntity
  8
OBJECT1
100
AcDbLine
 10
17.31490649574531
 20
13.47327139303769
 30
0.0
 11
17.37462769592124
 21
13.41355019286172
 31
0.0
  0
ARC
  5
64F
330
1F
100
AcDbEntity
  8
OBJECT1
100
AcDbCircle
 10
16.37779155673555
 20
13.46012643265504
 30
0.0
 40
0.01687640625
100
AcDbArc
 50
134.9936260000023
 51
225.0072939999969
  0
LINE
  5
650
330
1F
100
AcDbEntity
  8
OBJECT1
100
AcDbLine
 10
15.90096082760013
 20
13.45974387131585
 30
0.0
 11
15.90096023097879
 21
13.37536391313631
 31
0.0
  0
LINE
  5
651
330
1F
100
AcDbEntity
  8
OBJECT1
100
AcDbLine
 10
15.65086730165735
 20
13.43393423073456
 30
0.0
 11
15.65088400705504
 21
13.454130658813
 31
0.0
  0
LINE
  5
652
330
1F
100
AcDbEntity
  8
OBJECT2
100
AcDbLine
 10
15.68264116696703
 20
13.4316342554433
 30
0.0
 11
15.6826419624622
 21
13.45974426906343
 31
0.0
  0
LINE
  5
653
330
1F
100
AcDbEntity
  8
OBJECT2
100
AcDbLine
 10
15.66278084054433
 20
13.45975068410012
 30
0.0
 11
15.66279733009248
 21
13.43162587942163
 31
0.0
  0
LINE
  5
655
330
1F
100
AcDbEntity
  8
OBJECT2
100
AcDbLine
 10
13.37706643513682
 20
13.3224707965268
 30
0.0
 11
13.37706643513682
 21
14.52212858577445
 31
0.0
  0
LINE
  5
656
330
1F
100
AcDbEntity
  8
OBJECT1
100
AcDbLine
 10
12.38976187309853
 20
13.3224707965268
 30
0.0
 11
12.38976187309853
 21
13.64738995180823
 31
0.0
  0
ARC
  5
657
330
1F
100
AcDbEntity
  8
OBJECT1
100
AcDbCircle
 10
14.20507524972158
 20
12.01223325780313
 30
0.0
 40
1.815313376623078
100
AcDbArc
 50
180.0
 51
2.357408628641579
  0
LINE
  5
658
330
1F
100
AcDbEntity
  8
TEXT
100
AcDbLine
 10
17.46170891276995
 20
11.55935219192227
 30
0.0
 11
19.55841647467193
 21
14.10398171828981
 31
0.0
  0
LINE
  5
659
330
1F
100
AcDbEntity
  8
OBJECT1
100
AcDbLine
 10
17.96694481727907
 20
13.38779305495899
 30
0.0
 11
18.00163814971158
 21
13.3531084729729
 31
0.0
  0
LINE
  5
65A
330
1F
100
AcDbEntity
  8
OBJECT1
100
AcDbLine
 10
17.99454352640504
 20
12.82827101578254
 30
0.0
 11
17.86671700514285
 21
12.70044449452032
 31
0.0
  0
LINE
  5
65B
330
1F
100
AcDbEntity
  8
OBJECT1
100
AcDbLine
 10
17.96694521502661
 20
12.97620825052303
 30
0.0
 11
18.00163795083778
 21
13.0109268399259
 31
0.0
  0
LINE
  5
65C
330
1F
100
AcDbEntity
  8
OBJECT1
100
AcDbLine
 10
17.97913200152658
 20
12.8685425589322
 30
0.0
 11
17.99454412302641
 21
12.85313083517991
 31
0.0
  0
ARC
  5
65D
330
1F
100
AcDbEntity
  8
OBJECT2
100
AcDbCircle
 10
17.22065941730423
 20
3.485275693238662
 30
0.0
 40
4.742542045402098
100
AcDbArc
 50
76.87199295464484
 51
103.1280070453551
  0
LINE
  5
65E
330
1F
100
AcDbEntity
  8
TEXT
100
AcDbLine
 10
17.53147460061565
 20
11.97028844711994
 30
0.0
 11
19.38682566194343
 21
11.97028844711994
 31
0.0
  0
LINE
  5
65F
330
1F
100
AcDbEntity
  8
OBJECT1
100
AcDbLine
 10
18.15683531341078
 20
7.634704555168809
 30
0.0
 11
17.89527453787511
 21
7.634704555168809
 31
0.0
  0
LINE
  5
660
330
1F
100
AcDbEntity
  8
OBJECT2
100
AcDbLine
 10
22.44452013774532
 20
12.91756436142938
 30
0.0
 11
17.92961884740569
 21
12.91756436142938
 31
0.0
  0
LINE
  5
661
330
1F
100
AcDbEntity
  8
OBJECT2
100
AcDbLine
 10
22.64335414298515
 20
9.708435912739332
 30
0.0
 11
17.30567925946202
 21
9.708435912739332
 31
0.0
  0
LINE
  5
662
330
1F
100
AcDbEntity
  8
OBJECT2
100
AcDbLine
 10
17.54854817869595
 20
11.31300013708431
 30
0.0
 11
22.81300441590592
 21
11.31300013708431
 31
0.0
  0
LINE
  5
663
330
1F
100
AcDbEntity
  8
OBJECT1
100
AcDbLine
 10
17.69910392350978
 20
6.603871688394264
 30
0.0
 11
22.47370387006431
 21
6.603871688394264
 31
0.0
  0
INSERT
  5
664
330
1F
100
AcDbEntity
  8
OBJECT1
100
AcDbBlockReference
  2
SPECSHEET_FLOWARROW
 10
18.68062436421253
 20
4.907049308316473
 30
0.0
 41
0.1875
 42
0.1875
 43
0.1875
 50
270.0
  0
LINE
  5
665
330
1F
100
AcDbEntity
  8
OBJECT1
100
AcDbLine
 10
16.94558502386638
 20
10.61440392639298
 30
0.0
 11
16.94558502386638
 21
8.614780643204056
 31
0.0
  0
LINE
  5
666
330
1F
100
AcDbEntity
  8
OBJECT1
100
AcDbLine
 10
17.30567925946202
 20
10.61440392639298
 30
0.0
 11
17.30567925946202
 21
8.614780643204056
 31
0.0
  0
LINE
  5
667
330
1F
100
AcDbEntity
  8
OBJECT2
100
AcDbLine
 10
15.08657063091092
 20
8.103871688394264
 30
0.0
 11
15.08657063091092
 21
9.708435912739332
 31
0.0
  0
LINE
  5
668
330
1F
100
AcDbEntity
  8
OBJECT2
100
AcDbLine
 10
11.66756223936272
 20
8.103871688394264
 30
0.0
 11
11.66756223936272
 21
9.708435912739332
 31
0.0
  0
TEXT
  5
669
330
1F
100
AcDbEntity
  8
TEXT
100
AcDbText
 10
12.10899684796962
 20
5.669527604659435
 30
0.0
 40
0.28125
  1
FLOOR DRAIN
  7
ROMANS
 72
     2
 11
14.88131827654105
 21
5.810152604659435
 31
0.0
100
AcDbText
 73
     2
  0
TEXT
  5
66A
330
1F
100
AcDbEntity
  8
TEXT
100
AcDbText
 10
13.18060990581091
 20
4.782147407194045
 30
0.0
 40
0.28125
  1
DIRECTION OF FLOW
  7
ROMANS
 72
     1
 11
15.34355633438234
 21
4.922772407194045
 31
0.0
100
AcDbText
 73
     2
  0
LINE
  5
66B
330
1F
100
AcDbEntity
  8
OBJECT1
100
AcDbLine
 10
17.69910392350978
 20
7.420070226794251
 30
0.0
 11
17.69910392350978
 21
6.243362472234792
 31
0.0
  0
LINE
  5
66C
330
1F
100
AcDbEntity
  8
OBJECT1
100
AcDbLine
 10
16.74221491109868
 20
7.420070226794251
 30
0.0
 11
16.74221491109868
 21
6.258152365310365
 31
0.0
  0
LINE
  5
66D
330
1F
100
AcDbEntity
  8
TEXT
100
AcDbLine
 10
16.47417450024323
 20
6.172970790727362
 30
0.0
 11
15.26347834818456
 21
5.788219087636036
 31
0.0
  0
LINE
  5
66E
330
1F
100
AcDbEntity
  8
TEXT
100
AcDbLine
 10
15.26347834818456
 20
5.788219087636036
 30
0.0
 11
14.98222834818456
 21
5.788219087636036
 31
0.0
  0
ARC
  5
66F
330
1F
100
AcDbEntity
  8
OBJECT1
100
AcDbCircle
 10
16.98143716420143
 20
6.31497660147852
 30
0.0
 40
0.2458785883228915
100
AcDbArc
 50
193.3622478123848
 51
346.637752187615
  0
ARC
  5
670
330
1F
100
AcDbEntity
  8
OBJECT2
100
AcDbCircle
 10
16.98143716420143
 20
6.201328129142211
 30
0.0
 40
0.2458785883228915
100
AcDbArc
 50
13.36224781238488
 51
166.6377521876151
  0
SOLID
  5
671
330
1F
100
AcDbEntity
  8
TEXT
100
AcDbTrace
 10
16.45997757114608
 20
6.217644192536653
 30
0.0
 11
16.48837142934043
 21
6.128297388918156
 31
0.0
 12
16.74221491109868
 22
6.258152365310365
 32
0.0
 13
16.74221491109868
 23
6.258152365310365
 33
0.0
  0
ARC
  5
672
330
1F
100
AcDbEntity
  8
OBJECT1
100
AcDbCircle
 10
17.45988167040702
 20
6.31497660147852
 30
0.0
 40
0.2458785883228915
100
AcDbArc
 50
193.3622478123848
 51
346.637752187615
  0
LINE
  5
673
330
1F
100
AcDbEntity
  8
OBJECT1
100
AcDbLine
 10
16.28448352119768
 20
7.634704555168809
 30
0.0
 11
16.54604429673335
 21
7.634704555168809
 31
0.0
  0
LINE
  5
674
330
1F
100
AcDbEntity
  8
OBJECT1
100
AcDbLine
 10
16.14349829382288
 20
8.103871688394264
 30
0.0
 11
16.28448352119768
 21
7.634704555168809
 31
0.0
  0
LINE
  5
675
330
1F
100
AcDbEntity
  8
OBJECT2
100
AcDbLine
 10
17.89527453787511
 20
7.634704555168809
 30
0.0
 11
16.54604429673335
 21
7.634704555168809
 31
0.0
  0
LINE
  5
676
330
1F
100
AcDbEntity
  8
OBJECT2
100
AcDbLine
 10
16.74221491109868
 20
7.420070226794251
 30
0.0
 11
17.69910392350978
 21
7.420070226794251
 31
0.0
  0
LINE
  5
677
330
1F
100
AcDbEntity
  8
OBJECT1
100
AcDbLine
 10
16.54604429673335
 20
7.634704555168809
 30
0.0
 11
16.54604429673335
 21
7.420070226794251
 31
0.0
  0
LINE
  5
678
330
1F
100
AcDbEntity
  8
OBJECT1
100
AcDbLine
 10
16.54604429673335
 20
7.420070226794251
 30
0.0
 11
16.74221491109868
 21
7.420070226794251
 31
0.0
  0
LINE
  5
679
330
1F
100
AcDbEntity
  8
OBJECT1
100
AcDbLine
 10
17.89527453787511
 20
7.420070226794251
 30
0.0
 11
17.69910392350978
 21
7.420070226794251
 31
0.0
  0
LINE
  5
67A
330
1F
100
AcDbEntity
  8
OBJECT1
100
AcDbLine
 10
17.89527453787511
 20
7.634704555168809
 30
0.0
 11
17.89527453787511
 21
7.420070226794251
 31
0.0
  0
ARC
  5
67B
330
1F
100
AcDbEntity
  8
OBJECT1
100
AcDbCircle
 10
17.21565570056314
 20
8.686344954456728
 30
0.0
 40
0.115003007794949
100
AcDbArc
 50
218.4829764584347
 51
321.5170235415652
  0
ARC
  5
67C
330
1F
100
AcDbEntity
  8
OBJECT1
100
AcDbCircle
 10
17.0356085827653
 20
8.686344954456728
 30
0.0
 40
0.115003007794949
100
AcDbArc
 50
218.4829764584347
 51
321.5170235415652
  0
ARC
  5
67D
330
1F
100
AcDbEntity
  8
OBJECT2
100
AcDbCircle
 10
17.0356085827653
 20
8.54321633195147
 30
0.0
 40
0.115003007794949
100
AcDbArc
 50
38.48297645843473
 51
141.5170235415652
  0
TEXT
  5
67E
330
1F
100
AcDbEntity
  8
TEXT
100
AcDbText
 10
13.11969994883635
 20
12.22066910929405
 30
0.0
 40
0.28125
  1
BATTERY
  7
ROMANS
 11
13.11969994883635
 21
12.36129410929405
 31
0.0
100
AcDbText
 73
     2
  0
TEXT
  5
67F
330
1F
100
AcDbEntity
  8
TEXT
100
AcDbText
 10
13.06612852026493
 20
11.82267430699582
 30
0.0
 40
0.28125
  1
MONITOR
  7
ROMANS
 11
13.06612852026493
 21
11.96329930699582
 31
0.0
100
AcDbText
 73
     2
  0
TEXT
  5
680
330
1F
100
AcDbEntity
  8
TEXT
100
AcDbText
 10
13.38755709169352
 20
11.43462935729493
 30
0.0
 40
0.28125
  1
SWITCH
  7
ROMANS
 11
13.38755709169352
 21
11.57525435729493
 31
0.0
100
AcDbText
 73
     2
  0
LINE
  5
681
330
1F
100
AcDbEntity
  8
OBJECT2
100
AcDbLine
 10
13.37706643513682
 20
9.708435912739332
 30
0.0
 11
13.37706643513682
 21
11.31300013708431
 31
0.0
  0
LINE
  5
682
330
1F
100
AcDbEntity
  8
OBJECT1
100
AcDbLine
 10
12.38976187309853
 20
12.01223325780313
 30
0.0
 11
12.38976187309853
 21
13.04151705730697
 31
0.0
  0
LINE
  5
683
330
1F
100
AcDbEntity
  8
OBJECT2
100
AcDbLine
 10
11.66756223936272
 20
11.31300013708431
 30
0.0
 11
11.66756223936272
 21
12.91756436142938
 31
0.0
  0
LINE
  5
685
330
1F
100
AcDbEntity
  8
OBJECT2
100
AcDbLine
 10
13.37706643513682
 20
12.91756436142938
 30
0.0
 11
13.37706643513682
 21
13.0415124527768
 31
0.0
  0
ARC
  5
686
330
1F
100
AcDbEntity
  8
OBJECT1
  6
CONTINUOUS
100
AcDbCircle
 10
17.31737193853919
 20
11.26409114514299
 30
0.0
 40
0.6318961875
100
AcDbArc
 50
179.9999770000002
 51
223.6442259999945
  0
ARC
  5
687
330
1F
100
AcDbEntity
  8
OBJECT1
  6
CONTINUOUS
100
AcDbCircle
 10
16.93389178228919
 20
11.26409114514299
 30
0.0
 40
0.6318967500000002
100
AcDbArc
 50
316.3558350000057
 51
0.0000309999979089
  0
LINE
  5
688
330
1F
100
AcDbEntity
  8
OBJECT2
100
AcDbLine
 10
16.79607482668503
 20
9.708435912739332
 30
0.0
 11
16.79607482668503
 21
10.90696075865986
 31
0.0
  0
LINE
  5
689
330
1F
100
AcDbEntity
  8
OBJECT2
  6
CONTINUOUS
100
AcDbLine
 10
16.87953853228923
 20
10.77944255139294
 30
0.0
 11
17.37172603228923
 21
10.77944255139294
 31
0.0
  0
LINE
  5
68A
330
1F
100
AcDbEntity
  8
OBJECT2
  6
CONTINUOUS
100
AcDbLine
 10
16.94558502386638
 20
10.61440392639298
 30
0.0
 11
17.30567925946202
 21
10.61440392639298
 31
0.0
  0
LINE
  5
68B
330
1F
100
AcDbEntity
  8
OBJECT1
  6
CONTINUOUS
100
AcDbLine
 10
16.87953853228923
 20
10.62284114514298
 30
0.0
 11
16.87953853228923
 21
10.77944255139294
 31
0.0
  0
LINE
  5
68C
330
1F
100
AcDbEntity
  8
OBJECT1
  6
CONTINUOUS
100
AcDbLine
 10
16.8879760322892
 20
10.61440392639298
 30
0.0
 11
16.94558502386638
 21
10.61440392639298
 31
0.0
  0
ARC
  5
68D
330
1F
100
AcDbEntity
  8
OBJECT1
  6
CONTINUOUS
100
AcDbCircle
 10
16.88797546978922
 20
10.62284086389297
 30
0.0
 40
0.0084369375
100
AcDbArc
 50
179.9981770000012
 51
270.0054630000017
  0
ARC
  5
68E
330
1F
100
AcDbEntity
  8
OBJECT1
  6
CONTINUOUS
100
AcDbCircle
 10
16.8092215322892
 20
10.77944030139295
 30
0.0
 40
0.070317
100
AcDbArc
 50
0.0017400000060279
 51
43.6425479999965
  0
LINE
  5
68F
330
1F
100
AcDbEntity
  8
OBJECT1
  6
CONTINUOUS
100
AcDbLine
 10
17.37172603228923
 20
10.62284114514298
 30
0.0
 11
17.37172603228923
 21
10.77944255139294
 31
0.0
  0
ARC
  5
690
330
1F
100
AcDbEntity
  8
OBJECT1
  6
CONTINUOUS
100
AcDbCircle
 10
17.36328909478919
 20
10.62284086389297
 30
0.0
 40
0.0084369375
100
AcDbArc
 50
269.9945350000018
 51
0.001830999996992
  0
LINE
  5
691
330
1F
100
AcDbEntity
  8
OBJECT1
  6
CONTINUOUS
100
AcDbLine
 10
17.30567925946202
 20
10.61440392639298
 30
0.0
 11
17.3632882510392
 21
10.61440392639298
 31
0.0
  0
ARC
  5
692
330
1F
100
AcDbEntity
  8
OBJECT1
  6
CONTINUOUS
100
AcDbCircle
 10
17.44204275103921
 20
10.77944030139295
 30
0.0
 40
0.07031671875
100
AcDbArc
 50
136.3573000000001
 51
179.9982530000036
  0
LINE
  5
693
330
1F
100
AcDbEntity
  8
OBJECT1
100
AcDbLine
 10
16.44585772054581
 20
11.92885758766729
 30
0.0
 11
16.23047036190881
 21
11.92885758766729
 31
0.0
  0
LINE
  5
694
330
1F
100
AcDbEntity
  8
OBJECT2
100
AcDbLine
 10
16.40365906958744
 20
13.06951525503833
 30
0.0
 11
16.29678290691204
 21
13.06951545391217
 31
0.0
  0
LINE
  5
695
330
1F
100
AcDbEntity
  8
OBJECT2
100
AcDbLine
 10
16.40365946733503
 20
13.29452025673421
 30
0.0
 11
16.29678250916446
 21
13.29451210290912
 31
0.0
  0
LINE
  5
696
330
1F
100
AcDbEntity
  8
OBJECT1
100
AcDbLine
 10
16.42898409232634
 20
12.7937306309208
 30
0.0
 11
16.23047036190881
 21
12.7937306309208
 31
0.0
  0
LINE
  5
697
330
1F
100
AcDbEntity
  8
OBJECT1
100
AcDbLine
 10
16.58718258004263
 20
12.97108466527194
 30
0.0
 11
16.29563262095574
 21
12.97109321684462
 31
0.0
  0
ARC
  5
698
330
1F
100
AcDbEntity
  8
OBJECT1
100
AcDbCircle
 10
16.35314095255704
 20
13.42110083375087
 30
0.0
 40
0.0281491875
100
AcDbArc
 50
270.1022949999984
 51
44.93230400000409
  0
LINE
  5
699
330
1F
100
AcDbEntity
  8
OBJECT2
100
AcDbLine
 10
16.75816847185709
 20
13.05588306946873
 30
0.0
 11
16.37306890102944
 21
13.44098184801072
 31
0.0
  0
LINE
  5
69A
330
1F
100
AcDbEntity
  8
OBJECT2
100
AcDbLine
 10
16.27991285507174
 20
12.7937306309208
 30
0.0
 11
16.27991440594057
 21
11.92885758766729
 31
0.0
  0
LINE
  5
69B
330
1F
100
AcDbEntity
  8
OBJECT2
100
AcDbLine
 10
16.20234536190879
 20
12.61633311139021
 30
0.0
 11
16.20234536190879
 21
12.10625510719788
 31
0.0
  0
LINE
  5
69C
330
1F
100
AcDbEntity
  8
OBJECT1
100
AcDbLine
 10
15.5679022808187
 20
12.5882081113902
 30
0.0
 11
15.5679022808187
 21
12.13438010719789
 31
0.0
  0
LINE
  5
69D
330
1F
100
AcDbEntity
  8
OBJECT2
100
AcDbLine
 10
15.08657063091092
 20
11.31300013708431
 30
0.0
 11
15.08657063091092
 21
12.91756436142938
 31
0.0
  0
SOLID
  5
69E
330
1F
100
AcDbEntity
  8
TEXT
100
AcDbTrace
 10
15.28665228081869
 20
12.31441910929405
 30
0.0
 11
15.28665228081869
 21
12.40816910929405
 31
0.0
 12
15.5679022808187
 22
12.36129410929405
 32
0.0
 13
15.5679022808187
 23
12.36129410929405
 33
0.0
  0
ARC
  5
69F
330
1F
100
AcDbEntity
  8
OBJECT1
100
AcDbCircle
 10
15.59602728081871
 20
12.13438010719789
 30
0.0
 40
0.028125
100
AcDbArc
 50
180.0
 51
270.0
  0
LINE
  5
6A0
330
1F
100
AcDbEntity
  8
OBJECT1
100
AcDbLine
 10
16.06822800441243
 20
12.08690242423375
 30
0.0
 11
15.96947658611263
 21
12.08690242423375
 31
0.0
  0
LINE
  5
6A1
330
1F
100
AcDbEntity
  8
OBJECT2
100
AcDbLine
 10
16.06822800441243
 20
12.10625510719788
 30
0.0
 11
15.96947658611263
 21
12.10625510719788
 31
0.0
  0
LINE
  5
6A2
330
1F
100
AcDbEntity
  8
OBJECT1
100
AcDbLine
 10
15.96947658611263
 20
12.10625510719788
 30
0.0
 11
15.85136220892847
 21
12.10625510719788
 31
0.0
  0
LINE
  5
6A3
330
1F
100
AcDbEntity
  8
OBJECT1
100
AcDbLine
 10
15.96947658611263
 20
12.10625510719788
 30
0.0
 11
15.96947658611263
 21
12.08690242423375
 31
0.0
  0
LINE
  5
6A4
330
1F
100
AcDbEntity
  8
OBJECT1
100
AcDbLine
 10
15.76084007121633
 20
12.08690242423375
 30
0.0
 11
15.67031793350419
 21
12.08690242423375
 31
0.0
  0
LINE
  5
6A5
330
1F
100
AcDbEntity
  8
OBJECT2
100
AcDbLine
 10
15.85136220892847
 20
12.10625510719788
 30
0.0
 11
15.67031793350419
 21
12.10625510719788
 31
0.0
  0
LINE
  5
6A6
330
1F
100
AcDbEntity
  8
OBJECT1
100
AcDbLine
 10
15.85136220892847
 20
12.08690242423375
 30
0.0
 11
15.81973985845225
 21
12.08690242423375
 31
0.0
  0
LINE
  5
6A7
330
1F
100
AcDbEntity
  8
OBJECT1
100
AcDbLine
 10
15.85136220892847
 20
12.10625510719788
 30
0.0
 11
15.85136220892847
 21
12.08690242423375
 31
0.0
  0
LINE
  5
6A8
330
1F
100
AcDbEntity
  8
OBJECT1
100
AcDbLine
 10
15.81973985845225
 20
12.08690242423375
 30
0.0
 11
15.81554058637219
 21
12.06381885372491
 31
0.0
  0
LINE
  5
6A9
330
1F
100
AcDbEntity
  8
OBJECT2
100
AcDbLine
 10
15.81973985845225
 20
12.08690242423375
 30
0.0
 11
15.76084007121633
 21
12.08690242423375
 31
0.0
  0
ARC
  5
6AA
330
1F
100
AcDbEntity
  8
OBJECT1
100
AcDbCircle
 10
15.7313901775984
 20
11.94076285090517
 30
0.0
 40
0.1490773997853852
100
AcDbArc
 50
55.63418398040371
 51
78.6064097904051
  0
LINE
  5
6AB
330
1F
100
AcDbEntity
  8
OBJECT1
100
AcDbLine
 10
15.67031793350419
 20
12.10625510719788
 30
0.0
 11
15.59602728081871
 21
12.10625510719788
 31
0.0
  0
LINE
  5
6AC
330
1F
100
AcDbEntity
  8
OBJECT1
100
AcDbLine
 10
15.67031793350419
 20
12.10625510719788
 30
0.0
 11
15.67031793350419
 21
12.08690242423375
 31
0.0
  0
ARC
  5
6AD
330
1F
100
AcDbEntity
  8
OBJECT1
100
AcDbCircle
 10
16.2217857666496
 20
12.01755634743258
 30
0.0
 40
0.0702641273443136
100
AcDbArc
 50
138.0508214825571
 51
172.1293215993773
  0
ARC
  5
6AE
330
1F
100
AcDbEntity
  8
OBJECT1
100
AcDbCircle
 10
16.2217857666496
 20
12.01755634743258
 30
0.0
 40
0.0702641273443136
100
AcDbArc
 50
187.8706784006226
 51
221.9491785174428
  0
LINE
  5
6AF
330
1F
100
AcDbEntity
  8
OBJECT1
100
AcDbLine
 10
16.16643877824957
 20
12.00793454460793
 30
0.0
 11
16.1521835504359
 21
12.00793454460793
 31
0.0
  0
LINE
  5
6B0
330
1F
100
AcDbEntity
  8
OBJECT1
100
AcDbLine
 10
16.16643877824957
 20
12.02717815025724
 30
0.0
 11
16.1521835504359
 21
12.02717815025724
 31
0.0
  0
LINE
  5
6B1
330
1F
100
AcDbEntity
  8
OBJECT1
100
AcDbLine
 10
16.17422036190882
 20
12.10625510719788
 30
0.0
 11
16.06822800441243
 21
12.10625510719788
 31
0.0
  0
LINE
  5
6B2
330
1F
100
AcDbEntity
  8
OBJECT1
100
AcDbLine
 10
16.16643877824957
 20
12.00793454460793
 30
0.0
 11
16.16643877824957
 21
12.02717815025724
 31
0.0
  0
LINE
  5
6B3
330
1F
100
AcDbEntity
  8
OBJECT2
100
AcDbLine
 10
16.20234536190879
 20
11.97058680386857
 30
0.0
 11
16.20234536190879
 21
12.0645258909966
 31
0.0
  0
ARC
  5
6B4
330
1F
100
AcDbEntity
  8
OBJECT1
100
AcDbCircle
 10
16.23047036190881
 20
11.95698258766731
 30
0.0
 40
0.028125
100
AcDbArc
 50
180.0
 51
270.0
  0
LINE
  5
6B5
330
1F
100
AcDbEntity
  8
OBJECT1
100
AcDbLine
 10
16.20234536190879
 20
11.95698258766731
 30
0.0
 11
16.20234536190879
 21
11.97058680386857
 31
0.0
  0
LINE
  5
6B6
330
1F
100
AcDbEntity
  8
OBJECT1
100
AcDbLine
 10
16.20234536190879
 20
12.0645258909966
 30
0.0
 11
16.20234536190879
 21
12.07813010719786
 31
0.0
  0
LINE
  5
6B7
330
1F
100
AcDbEntity
  8
OBJECT1
100
AcDbLine
 10
16.16952766135628
 20
11.97058680386857
 30
0.0
 11
16.20234536190879
 21
11.97058680386857
 31
0.0
  0
ARC
  5
6B8
330
1F
100
AcDbEntity
  8
OBJECT1
100
AcDbCircle
 10
16.17422036190882
 20
12.07813010719786
 30
0.0
 40
0.028125
100
AcDbArc
 50
0.0
 51
90.0
  0
LINE
  5
6B9
330
1F
100
AcDbEntity
  8
OBJECT1
100
AcDbLine
 10
16.16952766135628
 20
12.0645258909966
 30
0.0
 11
16.20234536190879
 21
12.0645258909966
 31
0.0
  0
LINE
  5
6BA
330
1F
100
AcDbEntity
  8
OBJECT1
100
AcDbLine
 10
16.06822800441243
 20
12.10625510719788
 30
0.0
 11
16.06822800441243
 21
12.08690242423375
 31
0.0
  0
ARC
  5
6BB
330
1F
100
AcDbEntity
  8
OBJECT1
100
AcDbCircle
 10
15.59602728081871
 20
12.5882081113902
 30
0.0
 40
0.028125
100
AcDbArc
 50
90.0
 51
180.0
  0
LINE
  5
6C0
330
1F
100
AcDbEntity
  8
OBJECT1
100
AcDbLine
 10
15.51673034735348
 20
13.00624895997549
 30
0.0
 11
15.67313105364346
 21
13.00622350413138
 31
0.0
  0
LINE
  5
6C3
330
1F
100
AcDbEntity
  8
OBJECT1
100
AcDbLine
 10
15.67314775904118
 20
13.35778621235888
 30
0.0
 11
15.51674764937254
 21
13.35779436618398
 31
0.0
  0
LINE
  5
6C4
330
1F
100
AcDbEntity
  8
TEXT
100
AcDbLine
 10
15.28665228081869
 20
12.36129410929405
 30
0.0
 11
14.87003751200488
 21
12.36129410929405
 31
0.0
  0
LINE
  5
6C5
330
1F
100
AcDbEntity
  8
OBJECT1
100
AcDbLine
 10
15.51674764937254
 20
13.35779436618398
 30
0.0
 11
15.51034470908057
 21
13.37535531890054
 31
0.0
  0
LINE
  5
6C6
330
1F
100
AcDbEntity
  8
OBJECT1
100
AcDbLine
 10
15.42231641136638
 20
13.37535531890054
 30
0.0
 11
15.4030560173276
 21
13.3224707965268
 31
0.0
  0
LINE
  5
6C7
330
1F
100
AcDbEntity
  8
OBJECT2
100
AcDbLine
 10
15.49917033565168
 20
13.08539129214391
 30
0.0
 11
15.42061663714983
 21
13.08539396358591
 31
0.0
  0
LINE
  5
6C8
330
1F
100
AcDbEntity
  8
OBJECT1
100
AcDbLine
 10
15.51034470908057
 20
12.98865360209455
 30
0.0
 11
15.4222995070949
 21
12.98863669782304
 31
0.0
  0
LINE
  5
6C9
330
1F
100
AcDbEntity
  8
OBJECT1
100
AcDbLine
 10
15.42231561587125
 20
12.98865439758972
 30
0.0
 11
15.51034470908057
 21
12.98865360209455
 31
0.0
  0
LINE
  5
6CA
330
1F
100
AcDbEntity
  8
OBJECT2
100
AcDbLine
 10
15.49917053452543
 20
13.27863913392771
 30
0.0
 11
15.42061663714983
 21
13.27864160649596
 31
0.0
  0
LINE
  5
6CC
330
1F
100
AcDbEntity
  8
OBJECT2
100
AcDbLine
 10
15.49917033565168
 20
13.08539129214391
 30
0.0
 11
15.51673208386341
 21
13.04153166821562
 31
0.0
  0
LINE
  5
6CD
330
1F
100
AcDbEntity
  8
OBJECT1
100
AcDbLine
 10
15.51673034735348
 20
13.00624895997549
 30
0.0
 11
15.51034470908057
 21
12.98865360209455
 31
0.0
  0
LINE
  5
6CE
330
1F
100
AcDbEntity
  8
OBJECT2
100
AcDbLine
 10
15.51673740264763
 20
13.1495996430222
 30
0.0
 11
15.49917033565168
 21
13.08539129214391
 31
0.0
  0
LINE
  5
6D1
330
1F
100
AcDbEntity
  8
OBJECT2
100
AcDbLine
 10
15.49917053452543
 20
13.27863913392771
 30
0.0
 11
15.51674591670883
 21
13.32258980620158
 31
0.0
  0
LINE
  5
6D3
330
1F
100
AcDbEntity
  8
OBJECT2
100
AcDbLine
 10
15.51674059246695
 20
13.21441094195183
 30
0.0
 11
15.49917053452543
 21
13.27863913392771
 31
0.0
  0
LINE
  5
6D7
330
1F
100
AcDbEntity
  8
OBJECT2
100
AcDbLine
 10
15.31456262014676
 20
13.32253115963339
 30
0.0
 11
15.31456262014676
 21
13.04153850338346
 31
0.0
  0
LINE
  5
6D8
330
1F
100
AcDbEntity
  8
OBJECT2
100
AcDbLine
 10
15.27032677639675
 20
13.08546665963345
 30
0.0
 11
15.27032677639675
 21
13.27867162838344
 31
0.0
  0
LINE
  5
6D9
330
1F
100
AcDbEntity
  8
OBJECT2
100
AcDbLine
 10
15.35879987014676
 20
13.08546665963345
 30
0.0
 11
15.35879987014676
 21
13.27867162838344
 31
0.0
  0
LINE
  5
6DA
330
1F
100
AcDbEntity
  8
OBJECT2
100
AcDbLine
 10
15.40307143264675
 20
13.32252272213344
 30
0.0
 11
15.40307125209136
 21
13.04153833047371
 31
0.0
  0
LINE
  5
6DB
330
1F
100
AcDbEntity
  8
OBJECT2
100
AcDbLine
 10
15.40307358307366
 20
13.21450878920933
 30
0.0
 11
15.42061663714983
 21
13.27864160649596
 31
0.0
  0
LINE
  5
6DC
330
1F
100
AcDbEntity
  8
OBJECT2
100
AcDbLine
 10
15.42061663714983
 20
13.08539396358591
 30
0.0
 11
15.40305588330701
 21
13.04153414078388
 31
0.0
  0
LINE
  5
6DD
330
1F
100
AcDbEntity
  8
OBJECT1
100
AcDbLine
 10
15.4222995070949
 20
12.98863669782304
 30
0.0
 11
15.40306377321296
 21
13.0415124527768
 31
0.0
  0
LINE
  5
6DE
330
1F
100
AcDbEntity
  8
OBJECT2
100
AcDbLine
 10
15.40307358307366
 20
13.14951723493104
 30
0.0
 11
15.42061663714983
 21
13.08539396358591
 31
0.0
  0
LINE
  5
6DF
330
1F
100
AcDbEntity
  8
OBJECT2
100
AcDbLine
 10
15.42061663714983
 20
13.27864160649596
 30
0.0
 11
15.40307318532607
 21
13.32251793582202
 31
0.0
  0
LINE
  5
6E0
330
1F
100
AcDbEntity
  8
OBJECT2
100
AcDbLine
 10
15.22608952639674
 20
13.32246671840187
 30
0.0
 11
15.22608952639674
 21
13.04151681215182
 31
0.0
  0
LINE
  5
6E1
330
1F
100
AcDbEntity
  8
OBJECT1
100
AcDbLine
 10
15.42231641136638
 20
13.37535531890054
 30
0.0
 11
15.51034470908057
 21
13.37535531890054
 31
0.0
  0
LINE
  5
6E2
330
1F
100
AcDbEntity
  8
OBJECT1
100
AcDbLine
 10
16.17422036190882
 20
12.61633311139021
 30
0.0
 11
15.8369651161542
 21
12.61633311139021
 31
0.0
  0
LINE
  5
6E3
330
1F
100
AcDbEntity
  8
OBJECT1
100
AcDbLine
 10
15.79632650579272
 20
12.61633311139021
 30
0.0
 11
15.59602728081871
 21
12.61633311139021
 31
0.0
  0
LINE
  5
6E4
330
1F
100
AcDbEntity
  8
OBJECT1
100
AcDbLine
 10
15.8054659570668
 20
12.63346765050838
 30
0.0
 11
15.8054659570668
 21
12.62217922540068
 31
0.0
  0
LINE
  5
6E5
330
1F
100
AcDbEntity
  8
OBJECT1
100
AcDbLine
 10
15.82782566488008
 20
12.63346765050838
 30
0.0
 11
15.82782566488008
 21
12.62217922540068
 31
0.0
  0
LINE
  5
6E6
330
1F
100
AcDbEntity
  8
OBJECT1
100
AcDbLine
 10
15.79632650579272
 20
12.62217922540068
 30
0.0
 11
15.79632650579272
 21
12.61633311139021
 31
0.0
  0
LINE
  5
6E7
330
1F
100
AcDbEntity
  8
OBJECT1
100
AcDbLine
 10
15.8054659570668
 20
12.62217922540068
 30
0.0
 11
15.79632650579272
 21
12.62217922540068
 31
0.0
  0
LINE
  5
6E8
330
1F
100
AcDbEntity
  8
OBJECT1
100
AcDbLine
 10
15.8369651161542
 20
12.62217922540068
 30
0.0
 11
15.8369651161542
 21
12.61633311139021
 31
0.0
  0
LINE
  5
6E9
330
1F
100
AcDbEntity
  8
OBJECT1
100
AcDbLine
 10
15.82782566488008
 20
12.62217922540068
 30
0.0
 11
15.8369651161542
 21
12.62217922540068
 31
0.0
  0
LINE
  5
6EA
330
1F
100
AcDbEntity
  8
OBJECT2
100
AcDbLine
 10
15.8369651161542
 20
12.61633311139021
 30
0.0
 11
15.79632650579272
 21
12.61633311139021
 31
0.0
  0
LINE
  5
6EB
330
1F
100
AcDbEntity
  8
OBJECT2
100
AcDbLine
 10
15.8054659570668
 20
12.62217922540068
 30
0.0
 11
15.82782566488008
 21
12.62217922540068
 31
0.0
  0
ARC
  5
6EC
330
1F
100
AcDbEntity
  8
OBJECT1
100
AcDbCircle
 10
15.81664581097344
 20
12.63346765050838
 30
0.0
 40
0.0111798539066499
100
AcDbArc
 50
0.0
 51
180.0
  0
ARC
  5
6ED
330
1F
100
AcDbEntity
  8
OBJECT1
100
AcDbCircle
 10
16.23047036190881
 20
12.76560563092078
 30
0.0
 40
0.028125
100
AcDbArc
 50
90.0
 51
180.0
  0
ARC
  5
6EE
330
1F
100
AcDbEntity
  8
OBJECT1
100
AcDbCircle
 10
16.2217857666496
 20
12.70503187115551
 30
0.0
 40
0.0702641273443136
100
AcDbArc
 50
138.0508214825571
 51
172.1293215993773
  0
LINE
  5
6EF
330
1F
100
AcDbEntity
  8
OBJECT1
100
AcDbLine
 10
16.16643877824957
 20
12.71465367398016
 30
0.0
 11
16.1521835504359
 21
12.71465367398016
 31
0.0
  0
LINE
  5
6F0
330
1F
100
AcDbEntity
  8
OBJECT1
100
AcDbLine
 10
16.16643877824957
 20
12.69541006833085
 30
0.0
 11
16.1521835504359
 21
12.69541006833085
 31
0.0
  0
ARC
  5
6F1
330
1F
100
AcDbEntity
  8
OBJECT1
100
AcDbCircle
 10
16.2217857666496
 20
12.70503187115551
 30
0.0
 40
0.0702641273443136
100
AcDbArc
 50
187.8706784006226
 51
221.9491785174428
  0
LINE
  5
6F2
330
1F
100
AcDbEntity
  8
OBJECT1
100
AcDbLine
 10
16.16643877824957
 20
12.71465367398016
 30
0.0
 11
16.16643877824957
 21
12.69541006833085
 31
0.0
  0
LINE
  5
6F3
330
1F
100
AcDbEntity
  8
OBJECT2
100
AcDbLine
 10
16.20234536190879
 20
12.75200141471953
 30
0.0
 11
16.20234536190879
 21
12.65806232759149
 31
0.0
  0
LINE
  5
6F4
330
1F
100
AcDbEntity
  8
OBJECT1
100
AcDbLine
 10
16.20234536190879
 20
12.65806232759149
 30
0.0
 11
16.20234536190879
 21
12.64445811139023
 31
0.0
  0
LINE
  5
6F5
330
1F
100
AcDbEntity
  8
OBJECT1
100
AcDbLine
 10
16.20234536190879
 20
12.76560563092078
 30
0.0
 11
16.20234536190879
 21
12.75200141471953
 31
0.0
  0
ARC
  5
6F6
330
1F
100
AcDbEntity
  8
OBJECT1
100
AcDbCircle
 10
16.17422036190882
 20
12.64445811139023
 30
0.0
 40
0.028125
100
AcDbArc
 50
270.0
 51
0.0
  0
LINE
  5
6F7
330
1F
100
AcDbEntity
  8
OBJECT1
100
AcDbLine
 10
16.16952766135628
 20
12.65806232759149
 30
0.0
 11
16.20234536190879
 21
12.65806232759149
 31
0.0
  0
LINE
  5
6F8
330
1F
100
AcDbEntity
  8
OBJECT1
100
AcDbLine
 10
16.16952766135628
 20
12.75200141471953
 30
0.0
 11
16.20234536190879
 21
12.75200141471953
 31
0.0
  0
LINE
  5
6F9
330
1F
100
AcDbEntity
  8
OBJECT1
100
AcDbLine
 10
16.02383482600564
 20
12.98867110298741
 30
0.0
 11
15.86439612381866
 21
12.98865399984214
 31
0.0
  0
LINE
  5
6FA
330
1F
100
AcDbEntity
  8
OBJECT1
100
AcDbLine
 10
15.90096026192044
 20
13.37536367159938
 30
0.0
 11
16.02385252577224
 21
13.37537262091964
 31
0.0
  0
LINE
  5
6FB
330
1F
100
AcDbEntity
  8
OBJECT1
100
AcDbLine
 10
15.67314775904118
 20
13.35778621235888
 30
0.0
 11
15.67314756016739
 21
13.37536406934697
 31
0.0
  0
ARC
  5
6FC
330
1F
100
AcDbEntity
  8
OBJECT2
100
AcDbCircle
 10
15.79549272224436
 20
13.67874562635879
 30
0.0
 40
0.32119171875
100
AcDbArc
 50
250.8299409999988
 51
289.1694640000003
  0
LINE
  5
6FD
330
1F
100
AcDbEntity
  8
OBJECT1
100
AcDbLine
 10
15.86372611804641
 20
12.99456751175606
 30
0.0
 11
15.67314815678872
 21
12.99458501264891
 31
0.0
  0
LINE
  5
6FE
330
1F
100
AcDbEntity
  8
OBJECT2
100
AcDbLine
 10
15.86439612381866
 20
12.98865399984214
 30
0.0
 11
15.86439552719729
 21
13.34303216420437
 31
0.0
  0
LINE
  5
700
330
1F
100
AcDbEntity
  8
OBJECT2
100
AcDbLine
 10
15.67314762311745
 20
13.35778621236597
 30
0.0
 11
15.67314815678872
 21
12.99458501264891
 31
0.0
  0
LINE
  5
708
330
1F
100
AcDbEntity
  8
OBJECT1
100
AcDbLine
 10
15.69002296401508
 20
13.37536411201006
 30
0.0
 11
15.69002356063641
 21
13.40388519773796
 31
0.0
  0
LINE
  5
709
330
1F
100
AcDbEntity
  8
OBJECT1
100
AcDbLine
 10
15.67314756016739
 20
13.37536406934697
 30
0.0
 11
15.69002180171402
 21
13.3753646659683
 31
0.0
  0
LINE
  5
70A
330
1F
100
AcDbEntity
  8
OBJECT2
100
AcDbLine
 10
15.69002180171402
 20
13.3753646659683
 30
0.0
 11
15.69002180171402
 21
13.3753646659683
 31
0.0
  0
LINE
  5
70B
330
1F
100
AcDbEntity
  8
OBJECT2
100
AcDbLine
 10
15.69002180171402
 20
13.3753646659683
 30
0.0
 11
15.69002180171402
 21
13.3753646659683
 31
0.0
  0
ARC
  5
70C
330
1F
100
AcDbEntity
  8
OBJECT1
100
AcDbCircle
 10
15.65670186067977
 20
13.43404997527585
 30
0.0
 40
0.00583565625
100
AcDbArc
 50
181.1378169999937
 51
234.1926269999991
  0
LINE
  5
70D
330
1F
100
AcDbEntity
  8
OBJECT2
100
AcDbLine
 10
15.67699434479502
 20
13.42600413866901
 30
0.0
 11
15.66839384920963
 21
13.42599459272742
 31
0.0
  0
ARC
  5
70E
330
1F
100
AcDbEntity
  8
OBJECT2
100
AcDbCircle
 10
15.67704505760949
 20
13.43160064577409
 30
0.0
 40
0.005596875
100
AcDbArc
 50
269.4796449999994
 51
0.3456419999986333
  0
LINE
  5
70F
330
1F
100
AcDbEntity
  8
OBJECT2
100
AcDbLine
 10
15.69002356063641
 20
13.40391105132965
 30
0.0
 11
15.69002296401508
 21
13.44039822527773
 31
0.0
  0
ARC
  5
710
330
1F
100
AcDbEntity
  8
OBJECT2
100
AcDbCircle
 10
15.6684127422189
 20
13.43160899847302
 30
0.0
 40
0.0056154375
100
AcDbArc
 50
179.827759000002
 51
269.808395
  0
LINE
  5
711
330
1F
100
AcDbEntity
  8
OBJECT1
100
AcDbLine
 10
15.69002356063641
 20
13.40388519773796
 30
0.0
 11
15.65328739671303
 21
13.42931697813301
 31
0.0
  0
LINE
  5
712
330
1F
100
AcDbEntity
  8
OBJECT2
100
AcDbLine
 10
16.02383482600564
 20
12.98867110298741
 30
0.0
 11
16.02385252577224
 21
13.37537262091964
 31
0.0
  0
LINE
  5
713
330
1F
100
AcDbEntity
  8
OBJECT1
100
AcDbLine
 10
16.28318749741267
 20
13.38780061216266
 30
0.0
 11
16.24849476160149
 21
13.3530911709538
 31
0.0
  0
LINE
  5
714
330
1F
100
AcDbEntity
  8
OBJECT2
100
AcDbLine
 10
16.28892043193239
 20
13.37555376578046
 30
0.0
 11
16.28888602676807
 21
13.29258143623141
 31
0.0
  0
LINE
  5
715
330
1F
100
AcDbEntity
  8
OBJECT1
100
AcDbLine
 10
16.13414490997458
 20
13.04154297651462
 30
0.0
 11
16.22926824095891
 21
13.04154266320176
 31
0.0
  0
LINE
  5
716
330
1F
100
AcDbEntity
  8
OBJECT1
100
AcDbLine
 10
16.13414452843367
 20
13.32251817673497
 30
0.0
 11
16.22926863870645
 21
13.32252705486132
 31
0.0
  0
LINE
  5
717
330
1F
100
AcDbEntity
  8
OBJECT2
100
AcDbLine
 10
16.27990806874403
 20
13.08638949658501
 30
0.0
 11
16.27990806874403
 21
13.27762095709101
 31
0.0
  0
LINE
  5
718
330
1F
100
AcDbEntity
  8
OBJECT2
100
AcDbLine
 10
16.28890392540846
 20
12.98847438766208
 30
0.0
 11
16.28890312991333
 21
13.07147237192907
 31
0.0
  0
ARC
  5
719
330
1F
100
AcDbEntity
  8
OBJECT2
100
AcDbCircle
 10
16.29680279429023
 20
13.08641057720595
 30
0.0
 40
0.0168946875
100
AcDbArc
 50
180.0713810000056
 51
269.9324649999982
  0
ARC
  5
71A
330
1F
100
AcDbEntity
  8
OBJECT2
100
AcDbCircle
 10
16.29677475308695
 20
13.27764541856621
 30
0.0
 40
0.0168665625
100
AcDbArc
 50
89.97294199999954
 51
180.0837400000047
  0
LINE
  5
71B
330
1F
100
AcDbEntity
  8
OBJECT2
100
AcDbLine
 10
16.205490915706
 20
13.27864217396268
 30
0.0
 11
16.20549071683221
 21
13.08538558173236
 31
0.0
  0
LINE
  5
71C
330
1F
100
AcDbEntity
  8
OBJECT2
100
AcDbLine
 10
16.22926863870645
 20
13.32252705486132
 30
0.0
 11
16.22926824095891
 21
13.04154266320176
 31
0.0
  0
LINE
  5
71D
330
1F
100
AcDbEntity
  8
OBJECT2
100
AcDbLine
 10
16.18171328302648
 20
13.3225271037989
 30
0.0
 11
16.18171310247109
 21
13.04154271213917
 31
0.0
  0
ARC
  5
71E
330
1F
100
AcDbEntity
  8
OBJECT1
100
AcDbCircle
 10
16.23600489145741
 20
12.99840753646208
 30
0.0
 40
0.01767825
100
AcDbArc
 50
45.12865399999831
 51
89.80207099999757
  0
LINE
  5
71F
330
1F
100
AcDbEntity
  8
OBJECT1
100
AcDbLine
 10
16.22926863870645
 20
13.01607707426376
 30
0.0
 11
16.23606594570856
 21
13.01608602358393
 31
0.0
  0
LINE
  5
720
330
1F
100
AcDbEntity
  8
OBJECT1
100
AcDbLine
 10
16.22926863870645
 20
13.04154325982318
 30
0.0
 11
16.22926863870645
 21
13.01607707426376
 31
0.0
  0
ARC
  5
721
330
1F
100
AcDbEntity
  8
OBJECT1
100
AcDbCircle
 10
16.23606296260184
 20
13.36555200552564
 30
0.0
 40
0.01760175
100
AcDbArc
 50
270.0104979999987
 51
314.9336399999942
  0
LINE
  5
722
330
1F
100
AcDbEntity
  8
OBJECT1
100
AcDbLine
 10
16.22926863870645
 20
13.34795008480995
 30
0.0
 11
16.23606614458235
 21
13.34795008480995
 31
0.0
  0
LINE
  5
723
330
1F
100
AcDbEntity
  8
OBJECT1
100
AcDbLine
 10
16.22926824095891
 20
13.32254435688034
 30
0.0
 11
16.22926863870645
 21
13.34795008480995
 31
0.0
  0
ARC
  5
724
330
1F
100
AcDbEntity
  8
OBJECT1
100
AcDbCircle
 10
16.29561352907264
 20
12.98868081864805
 30
0.0
 40
0.0175876875
100
AcDbArc
 50
225.1258239999976
 51
270.0617830000021
  0
LINE
  5
725
330
1F
100
AcDbEntity
  8
OBJECT1
100
AcDbLine
 10
16.28320460055793
 20
12.97621739871704
 30
0.0
 11
16.24847686296109
 21
13.01093598811991
 31
0.0
  0
LINE
  5
726
330
1F
100
AcDbEntity
  8
OBJECT2
100
AcDbLine
 10
16.15793559394765
 20
13.27864220452084
 30
0.0
 11
16.15793554445521
 21
13.08538561229045
 31
0.0
  0
LINE
  5
727
330
1F
100
AcDbEntity
  8
OBJECT2
100
AcDbLine
 10
16.13414494227846
 20
13.0415428912303
 30
0.0
 11
16.13414454453088
 21
13.32251813469577
 31
0.0
  0
LINE
  5
728
330
1F
100
AcDbEntity
  8
OBJECT2
100
AcDbLine
 10
16.13390410612821
 20
13.211444541973
 30
0.0
 11
16.11634315341165
 21
13.27557735925972
 31
0.0
  0
LINE
  5
729
330
1F
100
AcDbEntity
  8
OBJECT2
100
AcDbLine
 10
16.13414494227846
 20
13.0415428912303
 30
0.0
 11
16.11637795632351
 21
13.08844886375448
 31
0.0
  0
LINE
  5
72A
330
1F
100
AcDbEntity
  8
OBJECT1
100
AcDbLine
 10
16.13414494227846
 20
13.0415428912303
 30
0.0
 11
16.11629144622826
 21
12.99489446025407
 31
0.0
  0
LINE
  5
72B
330
1F
100
AcDbEntity
  8
OBJECT1
100
AcDbLine
 10
16.11629144622826
 20
12.99486860666237
 30
0.0
 11
16.02471066614248
 21
12.99486801004104
 31
0.0
  0
LINE
  5
72C
330
1F
100
AcDbEntity
  8
OBJECT2
100
AcDbLine
 10
16.13392160702106
 20
13.15259898306021
 30
0.0
 11
16.11637795632351
 21
13.08844886375448
 31
0.0
  0
LINE
  5
72D
330
1F
100
AcDbEntity
  8
OBJECT2
100
AcDbLine
 10
16.11637795632351
 20
13.08844886375448
 30
0.0
 11
16.0238519291509
 21
13.08844090880313
 31
0.0
  0
LINE
  5
72E
330
1F
100
AcDbEntity
  8
OBJECT2
100
AcDbLine
 10
16.13414454453088
 20
13.32251813469577
 30
0.0
 11
16.11634315341165
 21
13.27557735925972
 31
0.0
  0
LINE
  5
72F
330
1F
100
AcDbEntity
  8
OBJECT1
100
AcDbLine
 10
16.11629204284959
 20
13.36914130870164
 30
0.0
 11
16.13414454453088
 21
13.32251813469577
 31
0.0
  0
LINE
  5
730
330
1F
100
AcDbEntity
  8
OBJECT1
100
AcDbLine
 10
16.13414454453088
 20
13.32251813469577
 30
0.0
 11
16.13414454453088
 21
13.32251813469577
 31
0.0
  0
LINE
  5
731
330
1F
100
AcDbEntity
  8
OBJECT2
100
AcDbLine
 10
16.11634315341165
 20
13.27557735925972
 30
0.0
 11
16.02385232689845
 21
13.27557716038589
 31
0.0
  0
LINE
  5
732
330
1F
100
AcDbEntity
  8
OBJECT1
100
AcDbLine
 10
16.02471026839494
 20
13.36914130870164
 30
0.0
 11
16.11629204284959
 21
13.36914130870164
 31
0.0
  0
ARC
  5
733
330
1F
100
AcDbEntity
  8
OBJECT1
100
AcDbCircle
 10
16.2956002045292
 20
13.3754785914908
 30
0.0
 40
0.01749009375
100
AcDbArc
 50
89.89499700000331
 51
135.2099910000035
  0
LINE
  5
734
330
1F
100
AcDbEntity
  8
OBJECT1
100
AcDbLine
 10
16.29563222320816
 20
13.39296854626721
 30
0.0
 11
16.35319126762392
 21
13.39295084650052
 31
0.0
  0
LINE
  5
735
330
1F
100
AcDbEntity
  8
OBJECT1
100
AcDbLine
 10
16.3658597264244
 20
13.44819142036334
 30
0.0
 11
16.37306890102944
 21
13.44098184801072
 31
0.0
  0
LINE
  5
736
330
1F
100
AcDbEntity
  8
OBJECT1
100
AcDbLine
 10
17.25022478681973
 20
12.37904994468488
 30
0.0
 11
17.25022461814462
 21
12.02065392638871
 31
0.0
  0
LINE
  5
737
330
1F
100
AcDbEntity
  8
OBJECT2
100
AcDbLine
 10
17.13491975663295
 20
12.30831690431426
 30
0.0
 11
17.13491955775916
 21
12.52318590595226
 31
0.0
  0
LINE
  5
738
330
1F
100
AcDbEntity
  8
OBJECT2
100
AcDbLine
 10
17.03928732098226
 20
12.25288799697975
 30
0.0
 11
17.03928672436089
 21
12.58678613925016
 31
0.0
  0
LINE
  5
739
330
1F
100
AcDbEntity
  8
OBJECT2
100
AcDbLine
 10
16.58648373086814
 20
12.9345207315444
 30
0.0
 11
16.58648373086814
 21
11.7870293659005
 31
0.0
  0
LINE
  5
73A
330
1F
100
AcDbEntity
  8
OBJECT2
100
AcDbLine
 10
16.67084977458671
 20
11.84677182380698
 30
0.0
 11
16.67085037120808
 21
12.82548121436568
 31
0.0
  0
LINE
  5
73B
330
1F
100
AcDbEntity
  8
OBJECT2
100
AcDbLine
 10
16.50201716785312
 20
11.83732387478144
 30
0.0
 11
16.5021117276399
 21
12.93453605295749
 31
0.0
  0
LINE
  5
73C
330
1F
100
AcDbEntity
  8
OBJECT2
100
AcDbLine
 10
16.71022956769701
 20
12.50377045521656
 30
0.0
 11
16.71022877220188
 21
12.24192726734716
 31
0.0
  0
LINE
  5
73D
330
1F
100
AcDbEntity
  8
OBJECT2
100
AcDbLine
 10
17.3133761628227
 20
11.87808148873028
 30
0.0
 11
16.93788840175567
 21
11.87808148873028
 31
0.0
  0
LINE
  5
73E
330
1F
100
AcDbEntity
  8
OBJECT2
100
AcDbLine
 10
17.25022461814462
 20
12.02065392638871
 30
0.0
 11
16.99990742663032
 21
12.02065392638871
 31
0.0
  0
CIRCLE
  5
73F
330
1F
100
AcDbEntity
  8
OBJECT2
100
AcDbCircle
 10
17.12563228228923
 20
11.95128019650985
 30
0.0
 40
0.0632461330745494
  0
LINE
  5
740
330
1F
100
AcDbEntity
  8
OBJECT1
  6
CONTINUOUS
100
AcDbLine
 10
16.75608665728923
 20
11.31280927014299
 30
0.0
 11
16.9289221176254
 21
11.80312259472742
 31
0.0
  0
LINE
  5
741
330
1F
100
AcDbEntity
  8
OBJECT1
  6
CONTINUOUS
100
AcDbLine
 10
16.89363529053663
 20
11.85461297219754
 30
0.0
 11
16.6854757510392
 21
11.264091426393
 31
0.0
  0
LINE
  5
742
330
1F
100
AcDbEntity
  8
OBJECT1
  6
CONTINUOUS
100
AcDbLine
 10
17.05531978228923
 20
11.79002864514296
 30
0.0
 11
17.05531978228923
 21
11.30065364514294
 31
0.0
  0
LINE
  5
743
330
1F
100
AcDbEntity
  8
OBJECT1
  6
CONTINUOUS
100
AcDbLine
 10
17.01875756353921
 20
11.264091426393
 30
0.0
 11
16.77864825103921
 21
11.264091426393
 31
0.0
  0
LINE
  5
744
330
1F
100
AcDbEntity
  8
OBJECT2
100
AcDbLine
 10
16.75615393789127
 20
11.31300013708431
 30
0.0
 11
17.05531978228923
 21
11.31300013708431
 31
0.0
  0
LINE
  5
745
330
1F
100
AcDbEntity
  8
OBJECT1
  6
CONTINUOUS
100
AcDbLine
 10
16.75212328228921
 20
11.301566582643
 30
0.0
 11
16.75608665728923
 21
11.31280927014299
 31
0.0
  0
ARC
  5
746
330
1F
100
AcDbEntity
  8
OBJECT1
  6
CONTINUOUS
100
AcDbCircle
 10
16.77864853228918
 20
11.29221642639294
 30
0.0
 40
0.028125
100
AcDbArc
 50
160.5823359999926
 51
269.9994540000023
  0
ARC
  5
747
330
1F
100
AcDbEntity
  8
OBJECT1
  6
CONTINUOUS
100
AcDbCircle
 10
17.01875700103919
 20
11.30065420764296
 30
0.0
 40
0.03656278125
100
AcDbArc
 50
270.0008539999999
 51
359.999146
  0
LINE
  5
748
330
1F
100
AcDbEntity
  8
OBJECT1
100
AcDbLine
 10
16.97615006584931
 20
12.09888212877518
 30
0.0
 11
16.72161011988392
 21
12.00318068392201
 31
0.0
  0
ARC
  5
749
330
1F
100
AcDbEntity
  8
OBJECT1
100
AcDbCircle
 10
16.6926316244569
 20
11.88195577786027
 30
0.0
 40
0.0175978125
100
AcDbArc
 50
270.0635989999966
 51
359.9644930000005
  0
LINE
  5
74A
330
1F
100
AcDbEntity
  8
OBJECT1
100
AcDbLine
 10
16.69265131296138
 20
11.86435803349391
 30
0.0
 11
16.68842783044858
 21
11.8643498796689
 31
0.0
  0
LINE
  5
74B
330
1F
100
AcDbEntity
  8
OBJECT2
100
AcDbLine
 10
16.71022956769701
 20
11.98672646380344
 30
0.0
 11
16.71021186793041
 21
12.03777915356042
 31
0.0
  0
ARC
  5
74C
330
1F
100
AcDbEntity
  8
OBJECT1
100
AcDbCircle
 10
16.72776108709383
 20
11.9867634543269
 30
0.0
 40
0.01753171875
100
AcDbArc
 50
110.5393940000015
 51
180.1214899999961
  0
LINE
  5
74D
330
1F
100
AcDbEntity
  8
OBJECT1
100
AcDbLine
 10
16.71022956769701
 20
11.98672646380344
 30
0.0
 11
16.71022897107568
 21
11.88194483980225
 31
0.0
  0
ARC
  5
74E
330
1F
100
AcDbEntity
  8
OBJECT1
100
AcDbCircle
 10
16.65331109573375
 20
11.80456364776611
 30
0.0
 40
0.01753846875
100
AcDbArc
 50
269.8704989999968
 51
0.1295009999965952
  0
LINE
  5
74F
330
1F
100
AcDbEntity
  8
OBJECT1
100
AcDbLine
 10
16.67084977458671
 20
11.84677182380698
 30
0.0
 11
16.67084957571292
 21
11.80460322364882
 31
0.0
  0
ARC
  5
750
330
1F
100
AcDbEntity
  8
OBJECT1
100
AcDbCircle
 10
16.68836100885776
 20
11.84683864539781
 30
0.0
 40
0.0175111875
100
AcDbArc
 50
89.78094499999938
 51
180.2190550000006
  0
LINE
  5
751
330
1F
100
AcDbEntity
  8
OBJECT2
100
AcDbLine
 10
16.45541935467198
 20
11.88006738549358
 30
0.0
 11
16.44585809984475
 21
11.86315018721003
 31
0.0
  0
LINE
  5
752
330
1F
100
AcDbEntity
  8
OBJECT1
100
AcDbLine
 10
16.44585772054581
 20
11.92885758766729
 30
0.0
 11
16.44585730434963
 21
11.85140867910837
 31
0.0
  0
LINE
  5
753
330
1F
100
AcDbEntity
  8
OBJECT2
100
AcDbLine
 10
16.45541955354578
 20
11.9707906218305
 30
0.0
 11
16.44585790097096
 21
11.93389217690082
 31
0.0
  0
LINE
  5
754
330
1F
100
AcDbEntity
  8
OBJECT2
100
AcDbLine
 10
16.45541915579819
 20
12.01351706294775
 30
0.0
 11
16.44585809984475
 21
11.99944037889545
 31
0.0
  0
LINE
  5
755
330
1F
100
AcDbEntity
  8
OBJECT2
100
AcDbLine
 10
16.45541955354578
 20
11.9707906218305
 30
0.0
 11
16.44585790097096
 21
11.9876903192212
 31
0.0
  0
LINE
  5
756
330
1F
100
AcDbEntity
  8
OBJECT2
100
AcDbLine
 10
16.50211074238518
 20
11.97079937227693
 30
0.0
 11
16.45541955354578
 21
11.9707906218305
 31
0.0
  0
LINE
  5
757
330
1F
100
AcDbEntity
  8
OBJECT2
100
AcDbLine
 10
16.50211251402078
 20
12.01352541582122
 30
0.0
 11
16.45541915579819
 21
12.01351706294775
 31
0.0
  0
LINE
  5
758
330
1F
100
AcDbEntity
  8
OBJECT2
100
AcDbLine
 10
16.50211094125897
 20
11.8800506800959
 30
0.0
 11
16.45541935467198
 21
11.88006738549358
 31
0.0
  0
LINE
  5
759
330
1F
100
AcDbEntity
  8
OBJECT2
100
AcDbLine
 10
16.45541935467198
 20
11.88006738549358
 30
0.0
 11
16.44585809984475
 21
11.91694872727799
 31
0.0
  0
ARC
  5
75A
330
1F
100
AcDbEntity
  8
OBJECT1
100
AcDbCircle
 10
16.51967665783213
 20
11.8046072813739
 30
0.0
 40
0.0175820625
100
AcDbArc
 50
180.0485229999985
 51
270.0429529999995
  0
LINE
  5
75B
330
1F
100
AcDbEntity
  8
OBJECT1
100
AcDbLine
 10
16.5021117276399
 20
11.83733627084245
 30
0.0
 11
16.50209460163718
 21
11.80459239137116
 31
0.0
  0
LINE
  5
75C
330
1F
100
AcDbEntity
  8
OBJECT1
100
AcDbLine
 10
16.50211094125897
 20
11.83732384123106
 30
0.0
 11
16.45541935467198
 21
11.83734054662875
 31
0.0
  0
LINE
  5
75D
330
1F
100
AcDbEntity
  8
OBJECT1
100
AcDbLine
 10
16.45541935467198
 20
11.83734054662875
 30
0.0
 11
16.44585730434963
 21
11.85140867910837
 31
0.0
  0
LINE
  5
75E
330
1F
100
AcDbEntity
  8
OBJECT2
100
AcDbLine
 10
16.67085037120808
 20
12.28630137774999
 30
0.0
 11
16.71021166905662
 21
12.28631032707025
 31
0.0
  0
LINE
  5
75F
330
1F
100
AcDbEntity
  8
OBJECT2
100
AcDbLine
 10
16.44585809984475
 20
11.99944037889545
 30
0.0
 11
16.44585772054581
 21
11.92885758766729
 31
0.0
  0
LINE
  5
760
330
1F
100
AcDbEntity
  8
OBJECT1
100
AcDbLine
 10
16.65327145499007
 20
11.78702522381453
 30
0.0
 11
16.51968983859805
 21
11.78702522381453
 31
0.0
  0
LINE
  5
761
330
1F
100
AcDbEntity
  8
OBJECT2
100
AcDbLine
 10
16.9999081244933
 20
12.08243665910296
 30
0.0
 11
16.99990792561955
 21
12.22556791002261
 31
0.0
  0
LINE
  5
762
330
1F
100
AcDbEntity
  8
OBJECT1
100
AcDbLine
 10
16.99990742663032
 20
12.02065392638871
 30
0.0
 11
16.94632591555981
 21
12.02065392638871
 31
0.0
  0
LINE
  5
763
330
1F
100
AcDbEntity
  8
OBJECT1
100
AcDbLine
 10
16.99990732899817
 20
12.08253132302331
 30
0.0
 11
16.99990742663032
 21
12.02065392638871
 31
0.0
  0
ARC
  5
764
330
1F
100
AcDbEntity
  8
OBJECT1
  6
CONTINUOUS
100
AcDbCircle
 10
16.94632618300569
 20
12.01221586389294
 30
0.0
 40
0.0084380625
100
AcDbArc
 50
90.00181600000194
 51
179.9972840000044
  0
LINE
  5
765
330
1F
100
AcDbEntity
  8
OBJECT1
  6
CONTINUOUS
100
AcDbLine
 10
16.93788840175567
 20
12.01221614514295
 30
0.0
 11
16.93788840175567
 21
11.87808148873028
 31
0.0
  0
LINE
  5
766
330
1F
100
AcDbEntity
  8
OBJECT1
100
AcDbLine
 10
16.92679187058432
 20
11.87808148873028
 30
0.0
 11
16.93788840175567
 21
11.87808148873028
 31
0.0
  0
ARC
  5
767
330
1F
100
AcDbEntity
  8
OBJECT1
  6
CONTINUOUS
100
AcDbCircle
 10
16.96207870961681
 20
11.79143489514299
 30
0.0
 40
0.03515625
100
AcDbArc
 50
90.0
 51
160.5824444635314
  0
ARC
  5
768
330
1F
100
AcDbEntity
  8
OBJECT1
  6
CONTINUOUS
100
AcDbCircle
 10
17.0187572822892
 20
11.79002864514296
 30
0.0
 40
0.0365625
100
AcDbArc
 50
0.000214000000694
 51
89.99957300000001
  0
LINE
  5
769
330
1F
100
AcDbEntity
  8
OBJECT1
  6
CONTINUOUS
100
AcDbLine
 10
17.01875756353921
 20
11.82659114514299
 30
0.0
 11
16.96207870961681
 21
11.82659114514299
 31
0.0
  0
ARC
  5
76A
330
1F
100
AcDbEntity
  8
OBJECT1
  6
CONTINUOUS
100
AcDbCircle
 10
16.92679187058432
 20
11.84292523873028
 30
0.0
 40
0.03515625
100
AcDbArc
 50
90.0
 51
160.5823859128668
  0
ARC
  5
76B
330
1F
100
AcDbEntity
  8
OBJECT1
100
AcDbCircle
 10
16.98233603484493
 20
12.08243307937488
 30
0.0
 40
0.0175719375
100
AcDbArc
 50
0.0111239999961129
 51
110.6098919999989
  0
SOLID
  5
76C
330
1F
100
AcDbEntity
  8
TEXT
100
AcDbTrace
 10
17.60438268010374
 20
11.80621860162557
 30
0.0
 11
17.67673536609756
 21
11.74660189818197
 31
0.0
 12
17.46170891276995
 22
11.55935219192227
 32
0.0
 13
17.46170891276995
 23
11.55935219192227
 33
0.0
  0
LINE
  5
76D
330
1F
100
AcDbEntity
  8
OBJECT1
  6
CONTINUOUS
100
AcDbLine
 10
17.49517790728923
 20
11.31280927014299
 30
0.0
 11
17.32234244695301
 21
11.80312259472742
 31
0.0
  0
LINE
  5
76E
330
1F
100
AcDbEntity
  8
OBJECT1
  6
CONTINUOUS
100
AcDbLine
 10
17.35762929325069
 20
11.85461295745153
 30
0.0
 11
17.5657885322892
 21
11.264091426393
 31
0.0
  0
LINE
  5
76F
330
1F
100
AcDbEntity
  8
OBJECT1
  6
CONTINUOUS
100
AcDbLine
 10
17.19594478228923
 20
11.79002864514296
 30
0.0
 11
17.19594478228923
 21
11.30065364514294
 31
0.0
  0
LINE
  5
770
330
1F
100
AcDbEntity
  8
OBJECT1
  6
CONTINUOUS
100
AcDbLine
 10
17.2325070010392
 20
11.264091426393
 30
0.0
 11
17.4726163135392
 21
11.264091426393
 31
0.0
  0
LINE
  5
771
330
1F
100
AcDbEntity
  8
OBJECT1
  6
CONTINUOUS
100
AcDbLine
 10
17.49914100103923
 20
11.301566582643
 30
0.0
 11
17.49517790728923
 21
11.31280927014299
 31
0.0
  0
ARC
  5
772
330
1F
100
AcDbEntity
  8
OBJECT1
  6
CONTINUOUS
100
AcDbCircle
 10
17.47261603228919
 20
11.29221642639294
 30
0.0
 40
0.028125
100
AcDbArc
 50
270.0005490000018
 51
19.41766400000726
  0
ARC
  5
773
330
1F
100
AcDbEntity
  8
OBJECT1
  6
CONTINUOUS
100
AcDbCircle
 10
17.23250756353918
 20
11.30065420764296
 30
0.0
 40
0.03656278125
100
AcDbArc
 50
180.0008389999984
 51
269.9991589999986
  0
LINE
  5
774
330
1F
100
AcDbEntity
  8
OBJECT2
100
AcDbLine
 10
17.19594478228923
 20
11.31300013708431
 30
0.0
 11
17.49511062668715
 21
11.31300013708431
 31
0.0
  0
LINE
  5
775
330
1F
100
AcDbEntity
  8
OBJECT1
100
AcDbLine
 10
17.30493864901861
 20
12.02065392638871
 30
0.0
 11
17.25022461814462
 21
12.02065392638871
 31
0.0
  0
ARC
  5
776
330
1F
100
AcDbEntity
  8
OBJECT1
  6
CONTINUOUS
100
AcDbCircle
 10
17.2891858549616
 20
11.79143489514299
 30
0.0
 40
0.03515625
100
AcDbArc
 50
19.41755553646847
 51
90.0
  0
ARC
  5
777
330
1F
100
AcDbEntity
  8
OBJECT1
  6
CONTINUOUS
100
AcDbCircle
 10
17.30493838157272
 20
12.01221586389294
 30
0.0
 40
0.0084380625
100
AcDbArc
 50
0.0027159999955736
 51
89.99818399999801
  0
LINE
  5
778
330
1F
100
AcDbEntity
  8
OBJECT1
  6
CONTINUOUS
100
AcDbLine
 10
17.3133761628227
 20
12.01221614514295
 30
0.0
 11
17.3133761628227
 21
11.87808148873028
 31
0.0
  0
LINE
  5
779
330
1F
100
AcDbEntity
  8
OBJECT1
100
AcDbLine
 10
17.32447270800498
 20
11.87808148873028
 30
0.0
 11
17.3133761628227
 21
11.87808148873028
 31
0.0
  0
ARC
  5
77A
330
1F
100
AcDbEntity
  8
OBJECT1
  6
CONTINUOUS
100
AcDbCircle
 10
17.32447270800498
 20
11.84292523873028
 30
0.0
 40
0.03515625
100
AcDbArc
 50
19.41758860550072
 51
90.0
  0
LINE
  5
77B
330
1F
100
AcDbEntity
  8
OBJECT1
  6
CONTINUOUS
100
AcDbLine
 10
17.2325070010392
 20
11.82659114514299
 30
0.0
 11
17.2891858549616
 21
11.82659114514299
 31
0.0
  0
ARC
  5
77C
330
1F
100
AcDbEntity
  8
OBJECT1
  6
CONTINUOUS
100
AcDbCircle
 10
17.23250756353918
 20
11.79002836389295
 30
0.0
 40
0.03656278125
100
AcDbArc
 50
90.00083899999841
 51
179.9995799999968
  0
LINE
  5
77D
330
1F
100
AcDbEntity
  8
OBJECT2
100
AcDbLine
 10
17.35093785098453
 20
12.57344807242506
 30
0.0
 11
17.0154256490977
 21
12.90898612790354
 31
0.0
  0
ARC
  5
77E
330
1F
100
AcDbEntity
  8
OBJECT2
100
AcDbCircle
 10
17.14056240245554
 20
12.37906486021856
 30
0.0
 40
0.10965290625
100
AcDbArc
 50
24.1373600000004
 51
84.62607199999881
  0
LINE
  5
77F
330
1F
100
AcDbEntity
  8
OBJECT2
100
AcDbLine
 10
17.39660294512745
 20
13.39867781206193
 30
0.0
 11
17.02171920880948
 21
13.02379596237258
 31
0.0
  0
ARC
  5
780
330
1F
100
AcDbEntity
  8
OBJECT2
100
AcDbCircle
 10
17.13459260926119
 20
12.83495993657337
 30
0.0
 40
0.14029790625
100
AcDbArc
 50
134.9485170000051
 51
180.0608829999951
  0
LINE
  5
781
330
1F
100
AcDbEntity
  8
OBJECT2
100
AcDbLine
 10
16.71022956769701
 20
12.65020678952279
 30
0.0
 11
16.71022877220188
 21
12.89882407538021
 31
0.0
  0
LINE
  5
782
330
1F
100
AcDbEntity
  8
OBJECT1
100
AcDbLine
 10
16.42898409232634
 20
12.7937306309208
 30
0.0
 11
16.42898404805767
 21
12.91693194463022
 31
0.0
  0
LINE
  5
783
330
1F
100
AcDbEntity
  8
OBJECT2
100
AcDbLine
 10
16.44585819928163
 20
12.82238038798576
 30
0.0
 11
16.4458574037865
 21
12.67434868819876
 31
0.0
  0
LINE
  5
784
330
1F
100
AcDbEntity
  8
OBJECT2
100
AcDbLine
 10
16.50211261345769
 20
12.8364654249116
 30
0.0
 11
16.50211104069585
 21
12.66026385032137
 31
0.0
  0
LINE
  5
785
330
1F
100
AcDbEntity
  8
OBJECT2
100
AcDbLine
 10
16.45541965298269
 20
12.7937306309208
 30
0.0
 11
16.44585800040788
 21
12.75683218599112
 31
0.0
  0
LINE
  5
786
330
1F
100
AcDbEntity
  8
OBJECT2
100
AcDbLine
 10
16.4289842469315
 20
12.36345859520483
 30
0.0
 11
16.42898409232634
 21
12.7937306309208
 31
0.0
  0
LINE
  5
787
330
1F
100
AcDbEntity
  8
OBJECT2
100
AcDbLine
 10
16.67085037120808
 20
12.45494157209219
 30
0.0
 11
16.71022936882322
 21
12.45495032253862
 31
0.0
  0
LINE
  5
788
330
1F
100
AcDbEntity
  8
OBJECT2
100
AcDbLine
 10
16.4554194541089
 20
12.70300739458389
 30
0.0
 11
16.44585819928163
 21
12.7398887363683
 31
0.0
  0
LINE
  5
789
330
1F
100
AcDbEntity
  8
OBJECT2
100
AcDbLine
 10
16.4554194541089
 20
12.70300739458389
 30
0.0
 11
16.44585819928163
 21
12.68609019630034
 31
0.0
  0
LINE
  5
78A
330
1F
100
AcDbEntity
  8
OBJECT2
100
AcDbLine
 10
16.4554194541089
 20
12.66028055571905
 30
0.0
 11
16.4458574037865
 21
12.67434868819876
 31
0.0
  0
LINE
  5
78B
330
1F
100
AcDbEntity
  8
OBJECT2
100
AcDbLine
 10
16.50211104069585
 20
12.7029906891862
 30
0.0
 11
16.4554194541089
 21
12.70300739458389
 31
0.0
  0
LINE
  5
78C
330
1F
100
AcDbEntity
  8
OBJECT2
100
AcDbLine
 10
16.50211104069585
 20
12.66026385032137
 30
0.0
 11
16.4554194541089
 21
12.66028055571905
 31
0.0
  0
LINE
  5
78D
330
1F
100
AcDbEntity
  8
OBJECT2
100
AcDbLine
 10
16.45541965298269
 20
12.7937306309208
 30
0.0
 11
16.44585800040788
 21
12.81063032831158
 31
0.0
  0
LINE
  5
78E
330
1F
100
AcDbEntity
  8
OBJECT2
100
AcDbLine
 10
16.5021108418221
 20
12.79373938136723
 30
0.0
 11
16.45541965298269
 21
12.7937306309208
 31
0.0
  0
LINE
  5
78F
330
1F
100
AcDbEntity
  8
OBJECT2
100
AcDbLine
 10
16.45541925523511
 20
12.83645707203805
 30
0.0
 11
16.44585819928163
 21
12.82238038798576
 31
0.0
  0
LINE
  5
790
330
1F
100
AcDbEntity
  8
OBJECT2
100
AcDbLine
 10
16.50211261345769
 20
12.8364654249116
 30
0.0
 11
16.45541925523511
 21
12.83645707203805
 31
0.0
  0
LINE
  5
791
330
1F
100
AcDbEntity
  8
OBJECT2
100
AcDbLine
 10
16.99429431536911
 20
12.54812825796929
 30
0.0
 11
16.99429491199045
 21
12.83481098011046
 31
0.0
  0
LINE
  5
792
330
1F
100
AcDbEntity
  8
OBJECT2
100
AcDbLine
 10
17.11734090527595
 20
12.54078086608561
 30
0.0
 11
17.05686458134897
 21
12.54076376294034
 31
0.0
  0
ARC
  5
793
330
1F
100
AcDbEntity
  8
OBJECT2
100
AcDbCircle
 10
17.11726354337466
 20
12.52312425507978
 30
0.0
 40
0.017656875
100
AcDbArc
 50
0.2000269999978097
 51
89.74889800000187
  0
ARC
  5
794
330
1F
100
AcDbEntity
  8
OBJECT2
100
AcDbCircle
 10
17.15253022892132
 20
12.50576535812592
 30
0.0
 40
0.01761159375
100
AcDbArc
 50
180.0394900000008
 51
264.4665989999988
  0
ARC
  5
795
330
1F
100
AcDbEntity
  8
OBJECT2
100
AcDbCircle
 10
17.05689858876572
 20
12.55837542847146
 30
0.0
 40
0.01761159375
100
AcDbArc
 50
180.1098329999966
 51
269.8895570000004
  0
ARC
  5
796
330
1F
100
AcDbEntity
  8
OBJECT2
100
AcDbCircle
 10
17.01201635584931
 20
12.62810296299917
 30
0.0
 40
0.017722125
100
AcDbArc
 50
179.9368289999995
 51
249.3921360000019
  0
ARC
  5
797
330
1F
100
AcDbEntity
  8
OBJECT2
100
AcDbCircle
 10
17.02176554640074
 20
12.58678335501724
 30
0.0
 40
0.01752075
100
AcDbArc
 50
359.9243320000029
 51
69.60372899999796
  0
LINE
  5
798
330
1F
100
AcDbEntity
  8
OBJECT2
100
AcDbLine
 10
17.0278715681359
 20
12.6032053575831
 30
0.0
 11
17.00577828192275
 21
12.61151430420381
 31
0.0
  0
ARC
  5
799
330
1F
100
AcDbEntity
  8
OBJECT2
100
AcDbCircle
 10
16.99140547480877
 20
12.89884455937982
 30
0.0
 40
0.28117715625
100
AcDbArc
 50
134.9923479999947
 51
180.0041810000024
  0
LINE
  5
79A
330
1F
100
AcDbEntity
  8
OBJECT2
100
AcDbLine
 10
16.58718258004263
 20
12.97108466527194
 30
0.0
 11
16.62482759715068
 21
12.97109321684462
 31
0.0
  0
ARC
  5
79B
330
1F
100
AcDbEntity
  8
OBJECT2
100
AcDbCircle
 10
16.62490257256659
 20
13.14671209107828
 30
0.0
 40
0.1756186875
100
AcDbArc
 50
269.9755549999964
 51
307.6321560000022
  0
LINE
  5
79C
330
1F
100
AcDbEntity
  8
OBJECT2
100
AcDbLine
 10
16.42053311226028
 20
13.27763746361495
 30
0.0
 11
16.42053390775545
 21
13.08640679860403
 31
0.0
  0
LINE
  5
79D
330
1F
100
AcDbEntity
  8
OBJECT2
100
AcDbLine
 10
16.42053331113408
 20
13.18201357953685
 30
0.0
 11
16.42053331113408
 21
13.18201357953685
 31
0.0
  0
ARC
  5
79E
330
1F
100
AcDbEntity
  8
OBJECT2
100
AcDbCircle
 10
16.40363818784034
 20
13.08641057720586
 30
0.0
 40
0.01689525
100
AcDbArc
 50
270.0707550000004
 51
359.9871369999939
  0
ARC
  5
79F
330
1F
100
AcDbEntity
  8
OBJECT2
100
AcDbCircle
 10
16.40365509211181
 20
13.27764064559545
 30
0.0
 40
0.0168795
100
AcDbArc
 50
359.989058999997
 51
89.98519499999973
  0
ARC
  5
7A0
330
1F
100
AcDbEntity
  8
OBJECT1
100
AcDbCircle
 10
16.44653625032785
 20
12.91696575317317
 30
0.0
 40
0.01755253125
100
AcDbArc
 50
89.91394399999961
 51
180.1101989999994
  0
ARC
  5
7A1
330
1F
100
AcDbEntity
  8
OBJECT1
100
AcDbCircle
 10
16.58713425371354
 20
12.95345987407131
 30
0.0
 40
0.0176248125
100
AcDbArc
 50
0.152282999995627
 51
89.84215900000046
  0
LINE
  5
7A2
330
1F
100
AcDbEntity
  8
OBJECT1
100
AcDbLine
 10
16.60476023815692
 20
12.95350660941011
 30
0.0
 11
16.60476083477826
 21
12.95209917965346
 31
0.0
  0
LINE
  5
7A3
330
1F
100
AcDbEntity
  8
OBJECT1
100
AcDbLine
 10
16.58648392974193
 20
12.93452730251107
 30
0.0
 11
16.58648392974193
 21
12.93452730251107
 31
0.0
  0
ARC
  5
7A4
330
1F
100
AcDbEntity
  8
OBJECT1
100
AcDbCircle
 10
16.58717820481938
 20
12.95210335600287
 30
0.0
 40
0.017582625
100
AcDbArc
 50
270.0142210000022
 51
359.9864039999944
  0
LINE
  5
7A5
330
1F
100
AcDbEntity
  8
OBJECT1
100
AcDbLine
 10
16.58648392974193
 20
12.93452730251107
 30
0.0
 11
16.44656270054092
 21
12.93451815431714
 31
0.0
  0
LINE
  5
7A6
330
1F
100
AcDbEntity
  8
OBJECT2
100
AcDbLine
 10
17.05700259975382
 20
12.95578112885726
 30
0.0
 11
17.03547610381998
 21
12.93425463292342
 31
0.0
  0
LINE
  5
7A7
330
1F
100
AcDbEntity
  8
OBJECT2
100
AcDbLine
 10
16.81427277334488
 20
13.11937470210213
 30
0.0
 11
16.79260984999643
 21
13.09769348236571
 31
0.0
  0
LINE
  5
7A8
330
1F
100
AcDbEntity
  8
OBJECT2
100
AcDbLine
 10
17.35093824873207
 20
12.54960429918085
 30
0.0
 11
17.82194295956394
 21
13.02060901001272
 31
0.0
  0
LINE
  5
7A9
330
1F
100
AcDbEntity
  8
OBJECT1
100
AcDbLine
 10
17.97341656789966
 20
12.87376120585113
 30
0.0
 11
17.90610773631112
 21
12.94107839013855
 31
0.0
  0
LINE
  5
7AA
330
1F
100
AcDbEntity
  8
OBJECT2
100
AcDbLine
 10
17.5474736730096
 20
12.87850772641115
 30
0.0
 11
17.47008810575033
 21
12.95587619052511
 31
0.0
  0
LINE
  5
7AB
330
1F
100
AcDbEntity
  8
OBJECT2
100
AcDbLine
 10
17.29787733152231
 20
12.92072803375271
 30
0.0
 11
17.29787772926989
 21
12.83629616951594
 31
0.0
  0
LINE
  5
7AC
330
1F
100
AcDbEntity
  8
OBJECT2
100
AcDbLine
 10
17.49959560543798
 20
12.38900695833874
 30
0.0
 11
17.97341597127832
 21
12.86282573318882
 31
0.0
  0
LINE
  5
7AD
330
1F
100
AcDbEntity
  8
OBJECT1
100
AcDbLine
 10
17.53415131721323
 20
12.3678772156004
 30
0.0
 11
17.66197664523274
 21
12.49570254361995
 31
0.0
  0
LINE
  5
7AE
330
1F
100
AcDbEntity
  8
OBJECT1
100
AcDbLine
 10
17.2440962923472
 20
12.44273648920429
 30
0.0
 11
17.35093824873207
 21
12.54960429918085
 31
0.0
  0
ARC
  5
7AF
330
1F
100
AcDbEntity
  8
OBJECT1
100
AcDbCircle
 10
17.52172170582517
 20
12.38030841797871
 30
0.0
 40
0.01757925
100
AcDbArc
 50
225.0035099999956
 51
314.9960630000033
  0
ARC
  5
7B0
330
1F
100
AcDbEntity
  8
OBJECT1
100
AcDbCircle
 10
17.3628597376066
 20
12.53767405985999
 30
0.0
 40
0.01686571875
100
AcDbArc
 50
134.9790429999996
 51
225.0218809999946
  0
LINE
  5
7B1
330
1F
100
AcDbEntity
  8
OBJECT2
100
AcDbLine
 10
17.35093824873207
 20
12.54960429918085
 30
0.0
 11
17.35093824873207
 21
12.54960429918085
 31
0.0
  0
ARC
  5
7B2
330
1F
100
AcDbEntity
  8
OBJECT2
100
AcDbCircle
 10
17.33903605061449
 20
12.56152638467671
 30
0.0
 40
0.0168463125
100
AcDbArc
 50
314.952559999997
 51
45.04744000000294
  0
LINE
  5
7B3
330
1F
100
AcDbEntity
  8
OBJECT1
100
AcDbLine
 10
17.49387877969461
 20
12.38329092809053
 30
0.0
 11
17.50929209443715
 21
12.3678772156004
 31
0.0
  0
LINE
  5
7B4
330
1F
100
AcDbEntity
  8
OBJECT1
100
AcDbLine
 10
17.49959560543798
 20
12.38900695833874
 30
0.0
 11
17.48766616161221
 21
12.3890063617174
 31
0.0
  0
LINE
  5
7B5
330
1F
100
AcDbEntity
  8
OBJECT1
100
AcDbLine
 10
17.49387877969461
 20
12.38329092809053
 30
0.0
 11
17.49387877969461
 21
12.38329092809053
 31
0.0
  0
LINE
  5
7B6
330
1F
100
AcDbEntity
  8
OBJECT1
100
AcDbLine
 10
17.48766616161221
 20
12.3890063617174
 30
0.0
 11
17.35093824873207
 21
12.52574342279146
 31
0.0
  0
LINE
  5
7B7
330
1F
100
AcDbEntity
  8
OBJECT2
100
AcDbLine
 10
17.5474736730096
 20
12.87850772641115
 30
0.0
 11
17.47008810575033
 21
12.80115716093755
 31
0.0
  0
LINE
  5
7B8
330
1F
100
AcDbEntity
  8
OBJECT2
100
AcDbLine
 10
17.47008790687654
 20
12.83631386928263
 30
0.0
 11
17.47008810575033
 21
12.80115716093755
 31
0.0
  0
LINE
  5
7B9
330
1F
100
AcDbEntity
  8
OBJECT2
100
AcDbLine
 10
17.29787772926989
 20
12.83629616951594
 30
0.0
 11
17.47008790687654
 21
12.83631386928263
 31
0.0
  0
ARC
  5
7BA
330
1F
100
AcDbEntity
  8
OBJECT1
100
AcDbCircle
 10
17.25598456930006
 20
12.4308124149706
 30
0.0
 40
0.016837875
100
AcDbArc
 50
134.9142059999954
 51
204.2196039999963
  0
ARC
  5
7BB
330
1F
100
AcDbEntity
  8
OBJECT1
100
AcDbCircle
 10
17.14088855545838
 20
12.37911338542144
 30
0.0
 40
0.1093365
100
AcDbArc
 50
359.9669040000057
 51
24.18409000000324
  0
LINE
  5
7BC
330
1F
100
AcDbEntity
  8
OBJECT1
100
AcDbLine
 10
17.77642850689386
 20
12.4061099047349
 30
0.0
 11
17.68683487363993
 21
12.49570314024128
 31
0.0
  0
LINE
  5
7BD
330
1F
100
AcDbEntity
  8
OBJECT2
100
AcDbLine
 10
17.66197664523274
 20
12.49570254361995
 30
0.0
 11
17.86671700514285
 21
12.70044449452032
 31
0.0
  0
LINE
  5
7BE
330
1F
100
AcDbEntity
  8
OBJECT1
100
AcDbLine
 10
17.95631083727057
 20
12.58599223511166
 30
0.0
 11
17.8667174028904
 21
12.67558566949179
 31
0.0
  0
ARC
  5
7BF
330
1F
100
AcDbEntity
  8
OBJECT1
100
AcDbCircle
 10
17.9438802315136
 20
12.57356242484976
 30
0.0
 40
0.01757896875
100
AcDbArc
 50
315.0000000000046
 51
44.99825300000341
  0
ARC
  5
7C0
330
1F
100
AcDbEntity
  8
OBJECT1
100
AcDbCircle
 10
17.87914979851142
 20
12.68801528087985
 30
0.0
 40
0.017580375
100
AcDbArc
 50
135.0087280000071
 51
224.9930109999981
  0
ARC
  5
7C1
330
1F
100
AcDbEntity
  8
OBJECT1
100
AcDbCircle
 10
17.78885732278679
 20
12.41854389134613
 30
0.0
 40
0.01758065625
100
AcDbArc
 50
225.0122379999954
 51
314.991698999993
  0
LINE
  5
7C2
330
1F
100
AcDbEntity
  8
OBJECT1
100
AcDbLine
 10
17.9563102406492
 20
12.56113241571421
 30
0.0
 11
17.80128693417481
 21
12.40611070023007
 31
0.0
  0
LINE
  5
7C3
330
1F
100
AcDbEntity
  8
OBJECT2
100
AcDbLine
 10
17.87879838853821
 20
12.48362215459343
 30
0.0
 11
17.76434632800334
 21
12.59807381738076
 31
0.0
  0
LINE
  5
7C4
330
1F
100
AcDbEntity
  8
OBJECT1
100
AcDbLine
 10
17.97341597127832
 20
12.86284402957684
 30
0.0
 11
17.97341656789966
 21
12.87376120585113
 31
0.0
  0
ARC
  5
7C5
330
1F
100
AcDbEntity
  8
OBJECT1
100
AcDbCircle
 10
17.67440585887321
 20
12.48327213673681
 30
0.0
 40
0.0175786875
100
AcDbArc
 50
45.00524099999626
 51
134.9969399999956
  0
LINE
  5
7C6
330
1F
100
AcDbEntity
  8
OBJECT1
100
AcDbLine
 10
17.9544994948622
 20
13.39295124424811
 30
0.0
 11
17.42434037413372
 21
13.39295184086944
 31
0.0
  0
LINE
  5
7C7
330
1F
100
AcDbEntity
  8
OBJECT2
100
AcDbLine
 10
17.47008810575033
 20
12.92071928330628
 30
0.0
 11
17.47008810575033
 21
12.95587619052511
 31
0.0
  0
LINE
  5
7C8
330
1F
100
AcDbEntity
  8
OBJECT2
100
AcDbLine
 10
17.29787733152231
 20
12.92072803375271
 30
0.0
 11
17.47008810575033
 21
12.92071928330628
 31
0.0
  0
ARC
  5
7C9
330
1F
100
AcDbEntity
  8
OBJECT1
100
AcDbCircle
 10
17.42444080539374
 20
13.46348183110842
 30
0.0
 40
0.0705301875
100
AcDbArc
 50
225.0679929999961
 51
269.9183350000013
  0
LINE
  5
7CA
330
1F
100
AcDbEntity
  8
OBJECT2
100
AcDbLine
 10
17.96122819040944
 20
13.37557047117823
 30
0.0
 11
17.96122878703077
 21
13.2928546888082
 31
0.0
  0
ARC
  5
7CB
330
1F
100
AcDbEntity
  8
OBJECT2
100
AcDbCircle
 10
17.9539273349908
 20
13.08640341774977
 30
0.0
 40
0.01687921875
100
AcDbArc
 50
270.0173800000029
 51
359.9839019999945
  0
ARC
  5
7CC
330
1F
100
AcDbEntity
  8
OBJECT2
100
AcDbCircle
 10
17.95390008928261
 20
13.27761479200376
 30
0.0
 40
0.01690565625
100
AcDbArc
 50
0.0790559999979842
 51
89.88687100000332
  0
LINE
  5
7CD
330
1F
100
AcDbEntity
  8
OBJECT2
100
AcDbLine
 10
17.8301824992346
 20
13.08640699747786
 30
0.0
 11
17.8301824992346
 21
13.27765476563397
 31
0.0
  0
LINE
  5
7CE
330
1F
100
AcDbEntity
  8
OBJECT2
100
AcDbLine
 10
17.9708061506344
 20
13.27763806023628
 30
0.0
 11
17.97080694612952
 21
13.08639864477894
 31
0.0
  0
LINE
  5
7CF
330
1F
100
AcDbEntity
  8
OBJECT2
100
AcDbLine
 10
17.96122898590456
 20
12.98847339329316
 30
0.0
 11
17.96122858815702
 21
13.07118937453702
 31
0.0
  0
LINE
  5
7D0
330
1F
100
AcDbEntity
  8
OBJECT2
100
AcDbLine
 10
17.95393250570914
 20
13.0695242043586
 30
0.0
 11
17.84705554753857
 21
13.06951565278592
 31
0.0
  0
LINE
  5
7D1
330
1F
100
AcDbEntity
  8
OBJECT2
100
AcDbLine
 10
17.97080714500332
 20
13.18201338066302
 30
0.0
 11
17.97080714500332
 21
13.18201338066302
 31
0.0
  0
ARC
  5
7D2
330
1F
100
AcDbEntity
  8
OBJECT2
100
AcDbCircle
 10
17.84706051938312
 20
13.0863930763131
 30
0.0
 40
0.01687809375
100
AcDbArc
 50
179.9530030000025
 51
269.982619999997
  0
LINE
  5
7D3
330
1F
100
AcDbEntity
  8
OBJECT2
100
AcDbLine
 10
17.95393330120423
 20
13.29452045560796
 30
0.0
 11
17.84705674078124
 21
13.29452900718055
 31
0.0
  0
ARC
  5
7D4
330
1F
100
AcDbEntity
  8
OBJECT2
100
AcDbCircle
 10
17.84704580272323
 20
13.27766550481823
 30
0.0
 40
0.01686346875
100
AcDbArc
 50
89.96262400000231
 51
180.0367429999996
  0
ARC
  5
7D5
330
1F
100
AcDbEntity
  8
OBJECT1
100
AcDbCircle
 10
17.91854908125232
 20
12.95350302968202
 30
0.0
 40
0.0175820625
100
AcDbArc
 50
90.04512000000053
 51
224.9615479999958
  0
ARC
  5
7D6
330
1F
100
AcDbEntity
  8
OBJECT1
100
AcDbCircle
 10
17.95453688313324
 20
12.9887001094049
 30
0.0
 40
0.01760709375
100
AcDbArc
 50
269.8796540000011
 51
314.8079830000067
  0
LINE
  5
7D7
330
1F
100
AcDbEntity
  8
OBJECT1
100
AcDbLine
 10
17.95449989260974
 20
12.97109301797087
 30
0.0
 11
17.91853516008755
 21
12.97108506301952
 31
0.0
  0
ARC
  5
7D8
330
1F
100
AcDbEntity
  8
OBJECT1
100
AcDbCircle
 10
17.9544947218914
 20
13.37534614155191
 30
0.0
 40
0.017605125
100
AcDbArc
 50
44.99301099999825
 51
89.98518800000271
  0
LINE
  5
7D9
330
1F
100
AcDbEntity
  8
TEXT
100
AcDbLine
 10
19.1770819690154
 20
9.750729741521979
 30
0.0
 11
19.1770819690154
 21
8.103871688394264
 31
0.0
  0
LINE
  5
7DA
330
1F
100
AcDbEntity
  8
OBJECT2
100
AcDbLine
 10
21.92458741400737
 20
8.103871688394264
 30
0.0
 11
21.92458741400733
 21
9.70843591273929
 31
0.0
  0
LINE
  5
7DB
330
1F
100
AcDbEntity
  8
OBJECT2
100
AcDbLine
 10
18.50557902245917
 20
8.103871688394264
 30
0.0
 11
18.50557902245917
 21
9.708435912739332
 31
0.0
  0
LINE
  5
7DC
330
1F
100
AcDbEntity
  8
OBJECT1
100
AcDbLine
 10
22.47370387006431
 20
8.103871688394264
 30
0.0
 11
22.81300441590592
 21
11.31300013708431
 31
0.0
  0
TEXT
  5
7DD
330
1F
100
AcDbEntity
  8
TEXT
100
AcDbText
 10
20.76475477421871
 20
5.814690664496168
 30
0.0
 40
0.28125
  1
FLOOR
  7
ROMANS
 72
     2
 11
22.06386191707585
 21
5.955315664496168
 31
0.0
100
AcDbText
 73
     2
  0
LINE
  5
7DE
330
1F
100
AcDbEntity
  8
OBJECT1
100
AcDbLine
 10
22.47370387006431
 20
8.103871688394264
 30
0.0
 11
18.29782054078558
 21
8.103871688394264
 31
0.0
  0
LINE
  5
7DF
330
1F
100
AcDbEntity
  8
TEXT
100
AcDbLine
 10
20.00843326512176
 20
6.816206712178171
 30
0.0
 11
20.27968113508858
 21
5.955060433601744
 31
0.0
  0
LINE
  5
7E0
330
1F
100
AcDbEntity
  8
TEXT
100
AcDbLine
 10
20.27968113508858
 20
5.955060433601744
 30
0.0
 11
20.56093113508858
 21
5.955060433601744
 31
0.0
  0
LINE
  5
7E1
330
1F
100
AcDbEntity
  8
OBJECT1
100
AcDbLine
 10
18.29782054078558
 20
8.103871688394264
 30
0.0
 11
18.15683531341078
 21
7.634704555168809
 31
0.0
  0
SOLID
  5
7E2
330
1F
100
AcDbEntity
  8
TEXT
100
AcDbTrace
 10
19.2239569690154
 20
8.385121688394264
 30
0.0
 11
19.1302069690154
 21
8.385121688394264
 31
0.0
 12
19.1770819690154
 22
8.103871688394264
 32
0.0
 13
19.1770819690154
 23
8.103871688394264
 33
0.0
  0
SOLID
  5
7E3
330
1F
100
AcDbEntity
  8
TEXT
100
AcDbTrace
 10
20.053142773141
 20
6.830289521474526
 30
0.0
 11
19.96372375710252
 21
6.802123902881817
 31
0.0
 12
19.92393640934342
 22
7.084463760293516
 32
0.0
 13
19.92393640934342
 23
7.084463760293516
 33
0.0
  0
LINE
  5
7E4
330
1F
100
AcDbEntity
  8
OBJECT1
100
AcDbLine
 10
22.47370387006431
 20
6.603871688394264
 30
0.0
 11
22.47370387006431
 21
8.103871688394264
 31
0.0
  0
LINE
  5
7E5
330
1F
100
AcDbEntity
  8
TEXT
100
AcDbLine
 10
19.1770819690154
 20
10.58590924593622
 30
0.0
 11
19.1770819690154
 21
11.97028844711994
 31
0.0
  0
LINE
  5
7E6
330
1F
100
AcDbEntity
  8
OBJECT2
100
AcDbLine
 10
20.21508321823327
 20
9.708435912739332
 30
0.0
 11
20.21508321823327
 21
11.31300013708431
 31
0.0
  0
TEXT
  5
7E7
330
1F
100
AcDbEntity
  8
TEXT
100
AcDbText
 10
18.33944472648112
 20
10.24330946522326
 30
0.0
 40
0.28125
  1
12" MIN.
  7
ROMANS
 72
     1
 11
19.28364115505255
 21
10.38393446522326
 31
0.0
100
AcDbText
 73
     2
  0
TEXT
  5
7E8
330
1F
100
AcDbEntity
  8
TEXT
100
AcDbText
 10
18.22560544076689
 20
9.801140936835508
 30
0.0
 40
0.28125
  1
30" MAX.
  7
ROMANS
 72
     1
 11
19.20328401219546
 21
9.941765936835508
 31
0.0
100
AcDbText
 73
     2
  0
LINE
  5
7E9
330
1F
100
AcDbEntity
  8
OBJECT1
100
AcDbLine
 10
18.79147079384721
 20
13.0415127340268
 30
0.0
 11
20.98310094810345
 21
13.04152117152685
 31
0.0
  0
LINE
  5
7EA
330
1F
100
AcDbEntity
  8
OBJECT1
100
AcDbLine
 10
18.79149992930324
 20
13.32247079652688
 30
0.0
 11
20.98309864521895
 21
13.32247079652688
 31
0.0
  0
LINE
  5
7EB
330
1F
100
AcDbEntity
  8
OBJECT2
100
AcDbLine
 10
18.50557902245917
 20
11.31300013708431
 30
0.0
 11
18.50557902245917
 21
12.91756436142938
 31
0.0
  0
SOLID
  5
7EC
330
1F
100
AcDbEntity
  8
TEXT
100
AcDbTrace
 10
19.2239569690154
 20
11.68903844711994
 30
0.0
 11
19.1302069690154
 21
11.68903844711994
 31
0.0
 12
19.1770819690154
 22
11.97028844711994
 32
0.0
 13
19.1770819690154
 23
11.97028844711994
 33
0.0
  0
LINE
  5
7ED
330
1F
100
AcDbEntity
  8
OBJECT2
100
AcDbLine
 10
18.79121755893304
 20
13.21147073500287
 30
0.0
 11
18.77367390823549
 21
13.27559500071691
 31
0.0
  0
LINE
  5
7EE
330
1F
100
AcDbEntity
  8
OBJECT2
100
AcDbLine
 10
18.79147569710235
 20
13.04152553090179
 30
0.0
 11
18.77367430598307
 21
13.088467101833
 31
0.0
  0
LINE
  5
7EF
330
1F
100
AcDbEntity
  8
OBJECT1
100
AcDbLine
 10
18.79147079384721
 20
13.0415127340268
 30
0.0
 11
18.77360529678063
 21
12.99488604924582
 31
0.0
  0
LINE
  5
7F0
330
1F
100
AcDbEntity
  8
OBJECT2
100
AcDbLine
 10
18.79121835442816
 20
13.15259932249839
 30
0.0
 11
18.77367430598307
 21
13.088467101833
 31
0.0
  0
LINE
  5
7F1
330
1F
100
AcDbEntity
  8
OBJECT2
100
AcDbLine
 10
18.79147510048098
 20
13.32253557727921
 30
0.0
 11
18.77367390823549
 21
13.27559500071691
 31
0.0
  0
LINE
  5
7F2
330
1F
100
AcDbEntity
  8
OBJECT1
100
AcDbLine
 10
18.79149992930324
 20
13.32247079652688
 30
0.0
 11
18.77360569452817
 21
13.36915855241133
 31
0.0
  0
ARC
  5
7F3
330
1F
100
AcDbEntity
  8
OBJECT1
100
AcDbCircle
 10
17.98210576119193
 20
12.84070162153943
 30
0.0
 40
0.01758403125
100
AcDbArc
 50
315.0157319999959
 51
44.9790270000023
  0
ARC
  5
7F4
330
1F
100
AcDbEntity
  8
OBJECT2
100
AcDbCircle
 10
18.4528057773016
 20
13.67876068245689
 30
0.0
 40
0.32118890625
100
AcDbArc
 50
250.8299260000005
 51
289.1696009999997
  0
LINE
  5
7F5
330
1F
100
AcDbEntity
  8
OBJECT1
100
AcDbLine
 10
18.52104056522011
 20
12.99458515321333
 30
0.0
 11
18.33046220621488
 21
12.99461896175628
 31
0.0
  0
LINE
  5
7F6
330
1F
100
AcDbEntity
  8
OBJECT1
100
AcDbLine
 10
18.33044430757449
 20
13.357812206515
 30
0.0
 11
18.33046141071976
 21
13.37538151193041
 31
0.0
  0
LINE
  5
7F7
330
1F
100
AcDbEntity
  8
OBJECT1
100
AcDbLine
 10
18.22962743129536
 20
13.35781160989367
 30
0.0
 11
18.22324179302245
 21
13.37538986462925
 31
0.0
  0
LINE
  5
7F8
330
1F
100
AcDbEntity
  8
OBJECT1
100
AcDbLine
 10
18.22324219076999
 20
12.98868854557085
 30
0.0
 11
18.13519678991058
 21
12.98867144242558
 31
0.0
  0
LINE
  5
7F9
330
1F
100
AcDbEntity
  8
OBJECT1
100
AcDbLine
 10
18.13519678991058
 20
12.98867144242558
 30
0.0
 11
18.22324219076999
 21
12.98868854557085
 31
0.0
  0
LINE
  5
7FA
330
1F
100
AcDbEntity
  8
OBJECT2
100
AcDbLine
 10
18.22494176611274
 20
13.08540205910159
 30
0.0
 11
18.13349721456778
 21
13.08539370640275
 31
0.0
  0
LINE
  5
7FB
330
1F
100
AcDbEntity
  8
OBJECT2
100
AcDbLine
 10
18.22494116949141
 20
13.27866740177825
 30
0.0
 11
18.13349761231536
 21
13.27864970201164
 31
0.0
  0
LINE
  5
7FC
330
1F
100
AcDbEntity
  8
OBJECT1
100
AcDbLine
 10
18.22962743129536
 20
13.35781160989367
 30
0.0
 11
18.33044430757449
 21
13.357812206515
 31
0.0
  0
LINE
  5
7FD
330
1F
100
AcDbEntity
  8
OBJECT1
100
AcDbLine
 10
18.22962802791674
 20
13.00624035009349
 30
0.0
 11
18.33046141071976
 21
13.00624074784099
 31
0.0
  0
LINE
  5
7FE
330
1F
100
AcDbEntity
  8
OBJECT2
100
AcDbLine
 10
18.33046200734109
 20
13.35782075808759
 30
0.0
 11
18.33046220621488
 21
12.99461896175628
 31
0.0
  0
LINE
  5
7FF
330
1F
100
AcDbEntity
  8
OBJECT2
100
AcDbLine
 10
18.24246851253882
 20
13.21452523742385
 30
0.0
 11
18.22494116949141
 21
13.27866740177825
 31
0.0
  0
LINE
  5
800
330
1F
100
AcDbEntity
  8
OBJECT2
100
AcDbLine
 10
18.22494176611274
 20
13.08540205910159
 30
0.0
 11
18.24246791591748
 21
13.04153428134822
 31
0.0
  0
LINE
  5
801
330
1F
100
AcDbEntity
  8
OBJECT1
100
AcDbLine
 10
18.22962802791674
 20
13.00624035009349
 30
0.0
 11
18.22324219076999
 21
12.98868854557085
 31
0.0
  0
LINE
  5
802
330
1F
100
AcDbEntity
  8
OBJECT2
100
AcDbLine
 10
18.24246791591748
 20
13.14951797211679
 30
0.0
 11
18.22494176611274
 21
13.08540205910159
 31
0.0
  0
LINE
  5
803
330
1F
100
AcDbEntity
  8
OBJECT2
100
AcDbLine
 10
18.22494116949141
 20
13.27866740177825
 30
0.0
 11
18.24245101164597
 21
13.32253557727921
 31
0.0
  0
LINE
  5
804
330
1F
100
AcDbEntity
  8
OBJECT1
100
AcDbLine
 10
18.13519659103678
 20
13.37537335810532
 30
0.0
 11
18.22324179302245
 21
13.37538986462925
 31
0.0
  0
LINE
  5
805
330
1F
100
AcDbEntity
  8
OBJECT1
100
AcDbLine
 10
18.34733585114018
 20
13.37538190967799
 30
0.0
 11
18.34733644776152
 21
13.4039029954059
 31
0.0
  0
LINE
  5
806
330
1F
100
AcDbEntity
  8
OBJECT2
100
AcDbLine
 10
18.34733585114018
 20
13.37538190967799
 30
0.0
 11
18.34733585114018
 21
13.37538190967799
 31
0.0
  0
LINE
  5
807
330
1F
100
AcDbEntity
  8
OBJECT2
100
AcDbLine
 10
18.34733585114018
 20
13.37538190967799
 30
0.0
 11
18.34733585114018
 21
13.37538190967799
 31
0.0
  0
LINE
  5
808
330
1F
100
AcDbEntity
  8
OBJECT1
100
AcDbLine
 10
18.33046141071976
 20
13.37538151193041
 30
0.0
 11
18.34733585114018
 21
13.37538190967799
 31
0.0
  0
ARC
  5
809
330
1F
100
AcDbEntity
  8
OBJECT1
100
AcDbCircle
 10
18.31401474780487
 20
13.4340677729437
 30
0.0
 40
0.00583565625
100
AcDbArc
 50
181.1378169999937
 51
234.1926269999991
  0
LINE
  5
80A
330
1F
100
AcDbEntity
  8
OBJECT2
100
AcDbLine
 10
18.33430723192012
 20
13.42602193633695
 30
0.0
 11
18.32570673633469
 21
13.42601239039535
 31
0.0
  0
ARC
  5
80B
330
1F
100
AcDbEntity
  8
OBJECT2
100
AcDbCircle
 10
18.33435794473454
 20
13.43161844344203
 30
0.0
 40
0.005596875
100
AcDbArc
 50
269.4796449999994
 51
0.3456419999986333
  0
LINE
  5
80C
330
1F
100
AcDbEntity
  8
OBJECT2
100
AcDbLine
 10
18.34733644776152
 20
13.40392884899759
 30
0.0
 11
18.34733585114018
 21
13.44041602294566
 31
0.0
  0
ARC
  5
80D
330
1F
100
AcDbEntity
  8
OBJECT2
100
AcDbCircle
 10
18.325725629344
 20
13.43162679614087
 30
0.0
 40
0.0056154375
100
AcDbArc
 50
179.827759000002
 51
269.808395
  0
LINE
  5
80E
330
1F
100
AcDbEntity
  8
OBJECT1
100
AcDbLine
 10
18.34733644776152
 20
13.4039029954059
 30
0.0
 11
18.31060028383814
 21
13.42933477580095
 31
0.0
  0
LINE
  5
80F
330
1F
100
AcDbEntity
  8
OBJECT2
100
AcDbLine
 10
18.04463742338295
 20
13.27864197649231
 30
0.0
 11
18.04463737389051
 21
13.08538538426199
 31
0.0
  0
LINE
  5
810
330
1F
100
AcDbEntity
  8
OBJECT2
100
AcDbLine
 10
18.06841511246178
 20
13.32252687577036
 30
0.0
 11
18.06841493190638
 21
13.04154248411072
 31
0.0
  0
LINE
  5
811
330
1F
100
AcDbEntity
  8
OBJECT2
100
AcDbLine
 10
18.02084677171376
 20
13.04154266320176
 30
0.0
 11
18.02084637396622
 21
13.32251790666731
 31
0.0
  0
LINE
  5
812
330
1F
100
AcDbEntity
  8
OBJECT2
100
AcDbLine
 10
18.0921927451413
 20
13.27864194593414
 30
0.0
 11
18.09219254626751
 21
13.08538535370391
 31
0.0
  0
LINE
  5
813
330
1F
100
AcDbEntity
  8
OBJECT2
100
AcDbLine
 10
18.11597046814175
 20
13.32252682683278
 30
0.0
 11
18.11597007039416
 21
13.04154243517331
 31
0.0
  0
LINE
  5
814
330
1F
100
AcDbEntity
  8
OBJECT1
100
AcDbLine
 10
18.02084673940987
 20
13.04154274848608
 30
0.0
 11
18.11597007039416
 21
13.04154243517331
 31
0.0
  0
LINE
  5
815
330
1F
100
AcDbEntity
  8
OBJECT1
100
AcDbLine
 10
18.02084617509243
 20
13.01607747201134
 30
0.0
 11
18.01406636898313
 21
13.01607687539001
 31
0.0
  0
ARC
  5
816
330
1F
100
AcDbEntity
  8
OBJECT1
100
AcDbCircle
 10
18.0141025640115
 20
12.99841688352984
 30
0.0
 40
0.01765996875
100
AcDbArc
 50
90.11753100000094
 51
134.8955730000078
  0
LINE
  5
817
330
1F
100
AcDbEntity
  8
OBJECT1
100
AcDbLine
 10
18.02084617509243
 20
13.01607747201134
 30
0.0
 11
18.02084677171376
 21
13.04154266320176
 31
0.0
  0
LINE
  5
818
330
1F
100
AcDbEntity
  8
OBJECT1
100
AcDbLine
 10
18.02084557847105
 20
13.34795903413012
 30
0.0
 11
18.01406636898313
 21
13.34794988593611
 31
0.0
  0
LINE
  5
819
330
1F
100
AcDbEntity
  8
OBJECT1
100
AcDbLine
 10
18.02084557847105
 20
13.34795903413012
 30
0.0
 11
18.02084637396617
 21
13.32252705486132
 31
0.0
  0
ARC
  5
81A
330
1F
100
AcDbEntity
  8
OBJECT1
100
AcDbCircle
 10
18.01405463543
 20
13.36547205826522
 30
0.0
 40
0.01752215625
100
AcDbArc
 50
224.8771970000039
 51
270.0378269999981
  0
LINE
  5
81B
330
1F
100
AcDbEntity
  8
OBJECT1
100
AcDbLine
 10
18.11597046814175
 20
13.32252682683278
 30
0.0
 11
18.11597046814175
 21
13.32252682683278
 31
0.0
  0
LINE
  5
81C
330
1F
100
AcDbEntity
  8
OBJECT1
100
AcDbLine
 10
18.02084635786897
 20
13.32251794870643
 30
0.0
 11
18.11597046814175
 21
13.32252682683278
 31
0.0
  0
LINE
  5
81D
330
1F
100
AcDbEntity
  8
OBJECT1
100
AcDbLine
 10
18.13519659103678
 20
13.37537335810532
 30
0.0
 11
18.11597046814175
 21
13.32252682683278
 31
0.0
  0
LINE
  5
81E
330
1F
100
AcDbEntity
  8
OBJECT2
100
AcDbLine
 10
18.11597106476308
 20
13.21453458449161
 30
0.0
 11
18.13349761231536
 21
13.27864970201164
 31
0.0
  0
LINE
  5
81F
330
1F
100
AcDbEntity
  8
OBJECT2
100
AcDbLine
 10
18.13349721456778
 20
13.08539370640275
 30
0.0
 11
18.11597066701554
 21
13.04155138449348
 31
0.0
  0
LINE
  5
820
330
1F
100
AcDbEntity
  8
OBJECT1
100
AcDbLine
 10
18.13519678991058
 20
12.98867144242558
 30
0.0
 11
18.11597066701554
 21
13.04155138449348
 31
0.0
  0
LINE
  5
821
330
1F
100
AcDbEntity
  8
OBJECT2
100
AcDbLine
 10
18.11597086588933
 20
13.14952652368947
 30
0.0
 11
18.13349721456778
 21
13.08539370640275
 31
0.0
  0
LINE
  5
822
330
1F
100
AcDbEntity
  8
OBJECT2
100
AcDbLine
 10
18.13349761231536
 20
13.27864970201164
 30
0.0
 11
18.11597046814175
 21
13.32252682683278
 31
0.0
  0
LINE
  5
823
330
1F
100
AcDbEntity
  8
OBJECT2
100
AcDbLine
 10
18.68114847768421
 20
12.98868834669701
 30
0.0
 11
18.68116577970327
 21
13.37538151193041
 31
0.0
  0
LINE
  5
824
330
1F
100
AcDbEntity
  8
OBJECT1
100
AcDbLine
 10
18.68114847768421
 20
12.98868834669701
 30
0.0
 11
18.52170977549724
 21
12.98867124355183
 31
0.0
  0
LINE
  5
825
330
1F
100
AcDbEntity
  8
OBJECT1
100
AcDbLine
 10
18.68202451669485
 20
13.36915914903266
 30
0.0
 11
18.77360569452817
 21
13.36915855241133
 31
0.0
  0
LINE
  5
826
330
1F
100
AcDbEntity
  8
OBJECT2
100
AcDbLine
 10
18.77367390823549
 20
13.27559500071691
 30
0.0
 11
18.68116577970327
 21
13.27560335341576
 31
0.0
  0
LINE
  5
827
330
1F
100
AcDbEntity
  8
OBJECT2
100
AcDbLine
 10
18.77367430598307
 20
13.088467101833
 30
0.0
 11
18.68116558082948
 21
13.08845815251282
 31
0.0
  0
LINE
  5
828
330
1F
100
AcDbEntity
  8
OBJECT1
100
AcDbLine
 10
18.68202451669485
 20
12.99490215802217
 30
0.0
 11
18.77360529678063
 21
12.99488604924582
 31
0.0
  0
LINE
  5
829
330
1F
100
AcDbEntity
  8
OBJECT2
100
AcDbLine
 10
18.52170977549724
 20
12.98867124355183
 30
0.0
 11
18.5217091788759
 21
13.35983833260814
 31
0.0
  0
LINE
  5
82A
330
1F
100
AcDbEntity
  8
OBJECT1
100
AcDbLine
 10
18.55827311810385
 20
13.37538171080424
 30
0.0
 11
18.68116577970327
 21
13.37538151193041
 31
0.0
  0
LINE
  5
82B
330
1F
100
AcDbEntity
  8
OBJECT2
100
AcDbLine
 10
18.96840725960233
 20
13.32247079652688
 30
0.0
 11
18.96840725960233
 21
13.0415127340268
 31
0.0
  0
LINE
  5
82C
330
1F
100
AcDbEntity
  8
OBJECT2
100
AcDbLine
 10
18.92417000960232
 20
13.08539349965187
 30
0.0
 11
18.92417000960232
 21
13.27859874965187
 31
0.0
  0
LINE
  5
82D
330
1F
100
AcDbEntity
  8
OBJECT2
100
AcDbLine
 10
18.87993304085232
 20
13.32245828090182
 30
0.0
 11
18.87993304085232
 21
13.04146534340188
 31
0.0
  0
LINE
  5
82E
330
1F
100
AcDbEntity
  8
OBJECT2
100
AcDbLine
 10
18.96840725960233
 20
13.32246671840187
 30
0.0
 11
18.96840725960233
 21
13.04151681215182
 31
0.0
  0
LINE
  5
82F
330
1F
100
AcDbEntity
  8
OBJECT2
100
AcDbLine
 10
18.83569579085235
 20
13.08539349965187
 30
0.0
 11
18.83569579085235
 21
13.27859874965187
 31
0.0
  0
LINE
  5
830
330
1F
100
AcDbEntity
  8
OBJECT2
100
AcDbLine
 10
18.79147569710235
 20
13.04152553090179
 30
0.0
 11
18.79147510048098
 21
13.32253557727921
 31
0.0
  0
LINE
  5
831
330
1F
100
AcDbEntity
  8
OBJECT2
100
AcDbLine
 10
20.21508321823327
 20
12.91756436142938
 30
0.0
 11
20.21508321823327
 21
13.0415127340268
 31
0.0
  0
ARC
  5
832
330
1F
100
AcDbEntity
  8
OBJECT1
100
AcDbCircle
 10
20.96802384449203
 20
13.11175870134647
 30
0.0
 40
0.0718370392772733
100
AcDbArc
 50
282.113397257412
 51
77.88566345986716
  0
ARC
  5
833
330
1F
100
AcDbEntity
  8
OBJECT1
100
AcDbCircle
 10
20.96802384449203
 20
13.25223326670718
 30
0.0
 40
0.0718370392772733
100
AcDbArc
 50
282.1143365401328
 51
77.8866027425879
  0
ARC
  5
834
330
1F
100
AcDbEntity
  8
OBJECT2
100
AcDbCircle
 10
20.99817574883037
 20
13.11175870134647
 30
0.0
 40
0.0718370392772733
100
AcDbArc
 50
102.1143365401328
 51
257.8866027425879
  0
LINE
  5
835
330
1F
100
AcDbEntity
  8
OBJECT2
100
AcDbLine
 10
21.92458741400737
 20
11.31300013708431
 30
0.0
 11
21.92458741400737
 21
12.91756436142938
 31
0.0
  0
LINE
  5
837
330
1F
100
AcDbEntity
  8
OBJECT2
100
AcDbLine
 10
22.27420072688531
 20
16.12669281011948
 30
0.0
 11
13.06849680693767
 21
16.12669281011943
 31
0.0
  0
LINE
  5
838
330
1F
100
AcDbEntity
  8
OBJECT2
100
AcDbLine
 10
13.06849680693767
 20
14.52212858577445
 30
0.0
 11
22.07603585958452
 21
14.52212858577445
 31
0.0
  0
LINE
  5
839
330
1F
100
AcDbEntity
  8
OBJECT1
100
AcDbLine
 10
18.50557902245917
 20
18.82631292939626
 30
0.0
 11
15.08657063091092
 21
18.24381864951988
 31
0.0
  0
LINE
  5
83A
330
1F
100
AcDbEntity
  8
OBJECT2
100
AcDbLine
 10
15.08657063091092
 20
17.7312570344645
 30
0.0
 11
15.08657063091092
 21
18.24381864951988
 31
0.0
  0
LINE
  5
83B
330
1F
100
AcDbEntity
  8
OBJECT2
100
AcDbLine
 10
11.66756223936272
 20
17.7312570344645
 30
0.0
 11
11.66756223936272
 21
18.69848501326544
 31
0.0
  0
LINE
  5
83C
330
1F
100
AcDbEntity
  8
OBJECT1
100
AcDbLine
 10
13.06849680693767
 20
13.64738995180823
 30
0.0
 11
13.06849680693767
 21
17.20591334102204
 31
0.0
  0
LINE
  5
83D
330
1F
100
AcDbEntity
  8
OBJECT2
100
AcDbLine
 10
13.37706643513682
 20
16.12669281011943
 30
0.0
 11
13.37706643513682
 21
17.7312570344645
 31
0.0
  0
LINE
  5
83F
330
1F
100
AcDbEntity
  8
OBJECT2
100
AcDbLine
 10
15.08657063091092
 20
14.52212858577445
 30
0.0
 11
15.08657063091092
 21
16.12669281011943
 31
0.0
  0
LINE
  5
840
330
1F
100
AcDbEntity
  8
OBJECT1
100
AcDbLine
 10
16.36587682956967
 20
13.47205269450032
 30
0.0
 11
16.7738815081783
 21
13.88005737310891
 31
0.0
  0
LINE
  5
842
330
1F
100
AcDbEntity
  8
OBJECT1
100
AcDbLine
 10
15.46758376481609
 20
13.5419265071024
 30
0.0
 11
15.64923627072822
 21
13.54194321250008
 31
0.0
  0
LINE
  5
843
330
1F
100
AcDbEntity
  8
OBJECT1
100
AcDbLine
 10
15.46670888775885
 20
13.50713946196518
 30
0.0
 11
15.64923604056511
 21
13.50713110926625
 31
0.0
  0
ARC
  5
844
330
1F
100
AcDbEntity
  8
OBJECT1
100
AcDbCircle
 10
15.46666155579868
 20
13.51272304227441
 30
0.0
 40
0.00558365625
100
AcDbArc
 50
179.5134279999995
 51
270.4846040000034
  0
LINE
  5
845
330
1F
100
AcDbEntity
  8
OBJECT1
100
AcDbLine
 10
15.46107737932142
 20
13.53629583497553
 30
0.0
 11
15.46107810089095
 21
13.51277045969604
 31
0.0
  0
ARC
  5
846
330
1F
100
AcDbEntity
  8
OBJECT1
100
AcDbCircle
 10
15.46669082153398
 20
13.5363130957258
 30
0.0
 40
0.00561346875
100
AcDbArc
 50
89.81996500000091
 51
180.1761780000056
  0
LINE
  5
847
330
1F
100
AcDbEntity
  8
OBJECT1
100
AcDbLine
 10
15.94172993437251
 20
13.54190988281018
 30
0.0
 11
16.14142426980663
 21
13.5419094850626
 31
0.0
  0
LINE
  5
848
330
1F
100
AcDbEntity
  8
OBJECT1
100
AcDbLine
 10
16.14142410395125
 20
13.5071134664675
 30
0.0
 11
15.94173016626467
 21
13.50709596557464
 31
0.0
  0
LINE
  5
849
330
1F
100
AcDbEntity
  8
OBJECT1
100
AcDbLine
 10
15.85632917564927
 20
13.53631306169913
 30
0.0
 11
15.93611733707142
 21
13.53629635630144
 31
0.0
  0
LINE
  5
84A
330
1F
100
AcDbEntity
  8
OBJECT1
100
AcDbLine
 10
15.93611720422831
 20
13.51274413207559
 30
0.0
 11
15.83766873420212
 21
13.5127411386787
 31
0.0
  0
LINE
  5
84B
330
1F
100
AcDbEntity
  8
OBJECT2
100
AcDbLine
 10
15.93611733707142
 20
13.53629635630144
 30
0.0
 11
15.93611654157629
 21
13.51274413202204
 31
0.0
  0
ARC
  5
84C
330
1F
100
AcDbEntity
  8
OBJECT1
100
AcDbCircle
 10
15.94177173088517
 20
13.51275133931937
 30
0.0
 40
0.00565453125
100
AcDbArc
 50
180.0730290000054
 51
269.5811160000003
  0
ARC
  5
84D
330
1F
100
AcDbEntity
  8
OBJECT1
100
AcDbCircle
 10
15.94171561546021
 20
13.53631039259826
 30
0.0
 40
0.0055996875
100
AcDbArc
 50
89.85251199999874
 51
180.1436159999986
  0
LINE
  5
84E
330
1F
100
AcDbEntity
  8
OBJECT1
100
AcDbLine
 10
15.69563677313927
 20
13.47383765851341
 30
0.0
 11
15.72516217146731
 21
13.47381995874681
 31
0.0
  0
LINE
  5
84F
330
1F
100
AcDbEntity
  8
OBJECT1
100
AcDbLine
 10
15.6826419624622
 20
13.45974426906343
 30
0.0
 11
15.72516177371973
 21
13.45975282063602
 31
0.0
  0
LINE
  5
850
330
1F
100
AcDbEntity
  8
OBJECT1
100
AcDbLine
 10
15.69563617651793
 20
13.48932097682728
 30
0.0
 11
15.71918820192354
 21
13.49489163034067
 31
0.0
  0
LINE
  5
851
330
1F
100
AcDbEntity
  8
OBJECT1
100
AcDbLine
 10
15.73465541146106
 20
13.53631345944671
 30
0.0
 11
15.65486705116512
 21
13.53631326057288
 31
0.0
  0
LINE
  5
852
330
1F
100
AcDbEntity
  8
OBJECT1
100
AcDbLine
 10
15.7532907576441
 20
13.51273857310539
 30
0.0
 11
15.6826419624622
 21
13.5127364249777
 31
0.0
  0
LINE
  5
853
330
1F
100
AcDbEntity
  8
OBJECT2
100
AcDbLine
 10
15.75329704431014
 20
13.5715041752085
 30
0.0
 11
15.75329724318393
 21
13.54168643242064
 31
0.0
  0
LINE
  5
854
330
1F
100
AcDbEntity
  8
OBJECT1
100
AcDbLine
 10
15.71673350282974
 20
13.60176779301616
 30
0.0
 11
15.7345866011324
 21
13.60660897749645
 31
0.0
  0
LINE
  5
855
330
1F
100
AcDbEntity
  8
OBJECT2
100
AcDbLine
 10
15.7345866011324
 20
13.60660897749645
 30
0.0
 11
15.75329764093152
 21
13.60123600452252
 31
0.0
  0
LINE
  5
856
330
1F
100
AcDbEntity
  8
OBJECT2
100
AcDbLine
 10
15.75329704431014
 20
13.5715041752085
 30
0.0
 11
15.75329764093152
 21
13.60123600452252
 31
0.0
  0
LINE
  5
857
330
1F
100
AcDbEntity
  8
OBJECT2
100
AcDbLine
 10
15.83766884866467
 20
13.57146161621912
 30
0.0
 11
15.83766884866463
 21
13.54168663129439
 31
0.0
  0
LINE
  5
858
330
1F
100
AcDbEntity
  8
OBJECT2
100
AcDbLine
 10
15.83766845091709
 20
13.60123660114385
 30
0.0
 11
15.79549209468138
 21
13.60660897749645
 31
0.0
  0
LINE
  5
859
330
1F
100
AcDbEntity
  8
OBJECT1
100
AcDbLine
 10
15.8742331856402
 20
13.60175983806482
 30
0.0
 11
15.85638048508512
 21
13.60660857974886
 31
0.0
  0
LINE
  5
85A
330
1F
100
AcDbEntity
  8
OBJECT2
100
AcDbLine
 10
15.85638048508512
 20
13.60660857974886
 30
0.0
 11
15.83766845091709
 21
13.60123660114385
 31
0.0
  0
LINE
  5
85B
330
1F
100
AcDbEntity
  8
OBJECT2
100
AcDbLine
 10
15.83766884866467
 20
13.57146161621912
 30
0.0
 11
15.83766845091709
 21
13.60123660114385
 31
0.0
  0
LINE
  5
85C
330
1F
100
AcDbEntity
  8
OBJECT1
100
AcDbLine
 10
15.73460370427767
 20
13.60662608064171
 30
0.0
 11
15.85638048508512
 21
13.60660857974886
 31
0.0
  0
LINE
  5
85D
330
1F
100
AcDbEntity
  8
OBJECT2
100
AcDbLine
 10
15.79549209468138
 20
13.60660897749645
 30
0.0
 11
15.75329764093152
 21
13.60123600452252
 31
0.0
  0
LINE
  5
85E
330
1F
100
AcDbEntity
  8
OBJECT2
100
AcDbLine
 10
15.74274022732919
 20
13.4893555808654
 30
0.0
 11
15.74274022732919
 21
13.47382035649431
 31
0.0
  0
LINE
  5
85F
330
1F
100
AcDbEntity
  8
OBJECT1
100
AcDbLine
 10
15.72516217146731
 20
13.47381995874681
 30
0.0
 11
15.72516177371973
 21
13.45975282063602
 31
0.0
  0
LINE
  5
860
330
1F
100
AcDbEntity
  8
OBJECT2
100
AcDbLine
 10
15.74274022732919
 20
13.4893555808654
 30
0.0
 11
15.71918820192354
 21
13.49489163034067
 31
0.0
  0
LINE
  5
861
330
1F
100
AcDbEntity
  8
OBJECT1
100
AcDbLine
 10
15.75329724318393
 20
13.49489182921451
 30
0.0
 11
15.71918820192354
 21
13.49489163034067
 31
0.0
  0
LINE
  5
862
330
1F
100
AcDbEntity
  8
OBJECT1
100
AcDbLine
 10
15.73465541146106
 20
13.53631345944671
 30
0.0
 11
15.71673390057732
 21
13.54119680516888
 31
0.0
  0
LINE
  5
863
330
1F
100
AcDbEntity
  8
OBJECT1
100
AcDbLine
 10
15.7532907576441
 20
13.51273857310539
 30
0.0
 11
15.75328014003867
 21
13.49489143146692
 31
0.0
  0
LINE
  5
864
330
1F
100
AcDbEntity
  8
OBJECT1
100
AcDbLine
 10
15.89533031307826
 20
13.47382890806699
 30
0.0
 11
15.86578721498357
 21
13.47381975987298
 31
0.0
  0
LINE
  5
865
330
1F
100
AcDbEntity
  8
OBJECT1
100
AcDbLine
 10
15.86580471587642
 20
13.4597613722087
 30
0.0
 11
15.90096082760013
 21
13.45974387131585
 31
0.0
  0
LINE
  5
866
330
1F
100
AcDbEntity
  8
OBJECT1
100
AcDbLine
 10
15.89533031307821
 20
13.48933867659388
 30
0.0
 11
15.87177788992507
 21
13.49487393057407
 31
0.0
  0
LINE
  5
867
330
1F
100
AcDbEntity
  8
OBJECT1
100
AcDbLine
 10
15.89533031307821
 20
13.48933867659388
 30
0.0
 11
15.89533031307826
 21
13.47382890806699
 31
0.0
  0
LINE
  5
868
330
1F
100
AcDbEntity
  8
OBJECT2
100
AcDbLine
 10
15.84822646114075
 20
13.4893555808654
 30
0.0
 11
15.84822646114075
 21
13.47381995874681
 31
0.0
  0
LINE
  5
869
330
1F
100
AcDbEntity
  8
OBJECT1
100
AcDbLine
 10
15.86578721498357
 20
13.47381975987298
 30
0.0
 11
15.86580471587642
 21
13.4597613722087
 31
0.0
  0
LINE
  5
86A
330
1F
100
AcDbEntity
  8
OBJECT2
100
AcDbLine
 10
15.84822646114075
 20
13.4893555808654
 30
0.0
 11
15.79549209468138
 21
13.49489123259317
 31
0.0
  0
LINE
  5
86B
330
1F
100
AcDbEntity
  8
OBJECT2
100
AcDbLine
 10
15.84822646114075
 20
13.4893555808654
 30
0.0
 11
15.87177788992507
 21
13.49487393057407
 31
0.0
  0
LINE
  5
86C
330
1F
100
AcDbEntity
  8
OBJECT1
100
AcDbLine
 10
15.83766924641222
 20
13.4948741294479
 30
0.0
 11
15.87177788992507
 21
13.49487393057407
 31
0.0
  0
LINE
  5
86D
330
1F
100
AcDbEntity
  8
OBJECT1
100
AcDbLine
 10
15.85632917564927
 20
13.53631306169913
 30
0.0
 11
15.87423239014508
 21
13.54118885021753
 31
0.0
  0
LINE
  5
86E
330
1F
100
AcDbEntity
  8
OBJECT1
100
AcDbLine
 10
15.83766873420212
 20
13.5127411386787
 30
0.0
 11
15.83766924641222
 21
13.4948741294479
 31
0.0
  0
LINE
  5
86F
330
1F
100
AcDbEntity
  8
OBJECT2
100
AcDbLine
 10
15.83766924641222
 20
13.4948741294479
 30
0.0
 11
15.75328014003867
 21
13.49489143146692
 31
0.0
  0
LINE
  5
870
330
1F
100
AcDbEntity
  8
OBJECT2
100
AcDbLine
 10
15.72516217146731
 20
13.47381995874681
 30
0.0
 11
15.86578721498357
 21
13.47381975987298
 31
0.0
  0
LINE
  5
871
330
1F
100
AcDbEntity
  8
OBJECT2
100
AcDbLine
 10
15.86580471587642
 20
13.4597613722087
 30
0.0
 11
15.72516177371973
 21
13.45975282063602
 31
0.0
  0
LINE
  5
872
330
1F
100
AcDbEntity
  8
OBJECT2
100
AcDbLine
 10
15.74274022732919
 20
13.4893555808654
 30
0.0
 11
15.79549209468138
 21
13.49489123259317
 31
0.0
  0
LINE
  5
873
330
1F
100
AcDbEntity
  8
OBJECT2
100
AcDbLine
 10
15.85632917564927
 20
13.53631306169913
 30
0.0
 11
15.73465541146106
 21
13.53631345944671
 31
0.0
  0
LINE
  5
874
330
1F
100
AcDbEntity
  8
OBJECT2
100
AcDbLine
 10
15.7532907576441
 20
13.51273857310539
 30
0.0
 11
15.83766873420212
 21
13.5127411386787
 31
0.0
  0
LINE
  5
875
330
1F
100
AcDbEntity
  8
OBJECT1
100
AcDbLine
 10
15.71673390057732
 20
13.54119680516888
 30
0.0
 11
15.71673350282974
 21
13.60176779301616
 31
0.0
  0
LINE
  5
876
330
1F
100
AcDbEntity
  8
OBJECT1
100
AcDbLine
 10
15.8742331856402
 20
13.60175983806482
 30
0.0
 11
15.87423239014508
 21
13.54118885021753
 31
0.0
  0
LINE
  5
877
330
1F
100
AcDbEntity
  8
OBJECT2
100
AcDbLine
 10
15.75329724318393
 20
13.54168643242064
 30
0.0
 11
15.79549209468138
 21
13.53631306169913
 31
0.0
  0
LINE
  5
878
330
1F
100
AcDbEntity
  8
OBJECT2
100
AcDbLine
 10
15.79549209468138
 20
13.53631306169913
 30
0.0
 11
15.83766884866463
 21
13.54168663129439
 31
0.0
  0
LINE
  5
879
330
1F
100
AcDbEntity
  8
OBJECT2
100
AcDbLine
 10
15.83766884866463
 20
13.54168663129439
 30
0.0
 11
15.85632917564927
 21
13.53631306169913
 31
0.0
  0
LINE
  5
87A
330
1F
100
AcDbEntity
  8
OBJECT2
100
AcDbLine
 10
15.73465541146106
 20
13.53631345944671
 30
0.0
 11
15.75329724318393
 21
13.54168643242064
 31
0.0
  0
LINE
  5
87B
330
1F
100
AcDbEntity
  8
OBJECT1
100
AcDbLine
 10
15.66279773985205
 20
13.51273597819695
 30
0.0
 11
15.66278083558053
 21
13.45973512086942
 31
0.0
  0
LINE
  5
87C
330
1F
100
AcDbEntity
  8
OBJECT1
100
AcDbLine
 10
15.69563617651793
 20
13.48932097682728
 30
0.0
 11
15.69563677313927
 21
13.47383765851341
 31
0.0
  0
LINE
  5
87D
330
1F
100
AcDbEntity
  8
OBJECT1
100
AcDbLine
 10
15.6826419624622
 20
13.5127364249777
 30
0.0
 11
15.6826419624622
 21
13.45974426906343
 31
0.0
  0
ARC
  5
87E
330
1F
100
AcDbEntity
  8
OBJECT1
100
AcDbCircle
 10
15.65649662293655
 20
13.45413980700701
 30
0.0
 40
0.00561290625
100
AcDbArc
 50
89.81026500000355
 51
180.0929259999956
  0
LINE
  5
87F
330
1F
100
AcDbEntity
  8
OBJECT1
100
AcDbLine
 10
15.65651521004417
 20
13.45975268248136
 30
0.0
 11
15.66278084054433
 21
13.45975068410012
 31
0.0
  0
LINE
  5
880
330
1F
100
AcDbEntity
  8
OBJECT2
100
AcDbLine
 10
15.65486705116512
 20
13.53631326057288
 30
0.0
 11
15.65486665341758
 21
13.51273558044937
 31
0.0
  0
ARC
  5
881
330
1F
100
AcDbEntity
  8
OBJECT1
100
AcDbCircle
 10
15.64924141015724
 20
13.51275625419603
 30
0.0
 40
0.00562528125
100
AcDbArc
 50
269.9459080000016
 51
359.7894289999936
  0
LINE
  5
882
330
1F
100
AcDbEntity
  8
OBJECT1
100
AcDbLine
 10
15.66279754097826
 20
13.51273582159373
 30
0.0
 11
15.65486665341758
 21
13.51273558044937
 31
0.0
  0
ARC
  5
883
330
1F
100
AcDbEntity
  8
OBJECT1
100
AcDbCircle
 10
15.64924064595143
 20
13.53631667545388
 30
0.0
 40
0.00562640625
100
AcDbArc
 50
359.965225000006
 51
90.04248799999928
  0
ARC
  5
884
330
1F
100
AcDbEntity
  8
OBJECT1
100
AcDbCircle
 10
16.14143782624218
 20
13.512712360058
 30
0.0
 40
0.00559884375
100
AcDbArc
 50
269.8602600000039
 51
0.3182679999992022
  0
LINE
  5
885
330
1F
100
AcDbEntity
  8
OBJECT1
100
AcDbLine
 10
16.1470382092604
 20
13.5362963783001
 30
0.0
 11
16.14703658361324
 21
13.51274346049257
 31
0.0
  0
ARC
  5
886
330
1F
100
AcDbEntity
  8
OBJECT1
100
AcDbCircle
 10
16.14146822091251
 20
13.5363396270443
 30
0.0
 40
0.00557015625
100
AcDbArc
 50
359.5551299999998
 51
90.45261400000036
  0
LINE
  5
888
330
1F
100
AcDbEntity
  8
OBJECT2
100
AcDbLine
 10
16.91677918184075
 20
14.07020805404548
 30
0.0
 11
17.40203220479892
 21
13.5849550310873
 31
0.0
  0
LINE
  5
889
330
1F
100
AcDbEntity
  8
OBJECT2
100
AcDbLine
 10
17.28961939602679
 20
13.75305210113035
 30
0.0
 11
17.08487744512642
 21
13.95779285878796
 31
0.0
  0
LINE
  5
88A
330
1F
100
AcDbEntity
  8
OBJECT1
100
AcDbLine
 10
17.19932970453513
 20
14.04738669091568
 30
0.0
 11
17.10973646902874
 21
13.9577930576618
 31
0.0
  0
LINE
  5
88B
330
1F
100
AcDbEntity
  8
OBJECT1
100
AcDbLine
 10
16.9106092221846
 20
14.064515988088
 30
0.0
 11
16.77388071268318
 21
13.92779662678054
 31
0.0
  0
LINE
  5
88C
330
1F
100
AcDbEntity
  8
OBJECT1
100
AcDbLine
 10
16.95705112273803
 20
14.08561918117644
 30
0.0
 11
17.08487744512642
 21
13.95779285878796
 31
0.0
  0
LINE
  5
88D
330
1F
100
AcDbEntity
  8
OBJECT2
100
AcDbLine
 10
16.79607482668503
 20
13.9499892558247
 30
0.0
 11
16.79607482668503
 21
14.52212858577445
 31
0.0
  0
ARC
  5
88E
330
1F
100
AcDbEntity
  8
OBJECT1
100
AcDbCircle
 10
16.7857960364704
 20
13.9158705638091
 30
0.0
 40
0.016858125
100
AcDbArc
 50
134.9735639999996
 51
225.029174999996
  0
LINE
  5
88F
330
1F
100
AcDbEntity
  8
OBJECT1
100
AcDbLine
 10
16.77388130930451
 20
13.90394390421624
 30
0.0
 11
16.77388130930451
 21
13.90394390421624
 31
0.0
  0
ARC
  5
890
330
1F
100
AcDbEntity
  8
OBJECT1
100
AcDbCircle
 10
16.7619272051297
 20
13.8920005392257
 30
0.0
 40
0.01689778125
100
AcDbArc
 50
315.0263669999935
 51
44.97453300000158
  0
ARC
  5
891
330
1F
100
AcDbEntity
  8
OBJECT1
100
AcDbCircle
 10
17.09730685764069
 20
13.97022545328278
 30
0.0
 40
0.017580375
100
AcDbArc
 50
225.0074160000006
 51
314.9930109999982
  0
LINE
  5
892
330
1F
100
AcDbEntity
  8
OBJECT1
100
AcDbLine
 10
16.91677918184075
 20
14.07020805404548
 30
0.0
 11
16.93219110446679
 21
14.08561997667152
 31
0.0
  0
LINE
  5
893
330
1F
100
AcDbEntity
  8
OBJECT1
100
AcDbLine
 10
16.92236862892662
 20
14.06451638583559
 30
0.0
 11
16.9106092221846
 21
14.064515988088
 31
0.0
  0
ARC
  5
894
330
1F
100
AcDbEntity
  8
OBJECT1
100
AcDbCircle
 10
16.9446209147286
 20
14.07318300695354
 30
0.0
 40
0.01758346875
100
AcDbArc
 50
45.01311500000308
 51
134.9842679999993
  0
LINE
  5
895
330
1F
100
AcDbEntity
  8
OBJECT1
100
AcDbLine
 10
17.22418992168012
 20
14.04738569654677
 30
0.0
 11
17.37921104054292
 21
13.89236298669379
 31
0.0
  0
LINE
  5
896
330
1F
100
AcDbEntity
  8
OBJECT2
100
AcDbLine
 10
17.30169998392706
 20
13.96987404330957
 30
0.0
 11
17.18724852001348
 21
13.85542257939607
 31
0.0
  0
LINE
  5
897
330
1F
100
AcDbEntity
  8
OBJECT1
100
AcDbLine
 10
17.41744452517251
 20
13.62522697198463
 30
0.0
 11
17.28961939602679
 21
13.75305210113035
 31
0.0
  0
LINE
  5
898
330
1F
100
AcDbEntity
  8
OBJECT1
100
AcDbLine
 10
17.37921203491184
 20
13.86750436053901
 30
0.0
 11
17.28961879940546
 21
13.77791072728504
 31
0.0
  0
ARC
  5
899
330
1F
100
AcDbEntity
  8
OBJECT1
100
AcDbCircle
 10
17.40501431716312
 20
13.61279755947032
 30
0.0
 40
0.0175786875
100
AcDbArc
 50
315.0017550000039
 51
44.99825300000341
  0
LINE
  5
89A
330
1F
100
AcDbEntity
  8
OBJECT1
100
AcDbLine
 10
17.39634232645303
 20
13.59071411750943
 30
0.0
 11
17.39634292307437
 21
13.57976114395427
 31
0.0
  0
LINE
  5
89B
330
1F
100
AcDbEntity
  8
OBJECT1
100
AcDbLine
 10
17.40203220479892
 20
13.5849550310873
 30
0.0
 11
17.40203220479892
 21
13.5849550310873
 31
0.0
  0
LINE
  5
89C
330
1F
100
AcDbEntity
  8
OBJECT1
100
AcDbLine
 10
17.40203220479892
 20
13.5849550310873
 30
0.0
 11
17.41744452517251
 21
13.60036774920851
 31
0.0
  0
ARC
  5
89D
330
1F
100
AcDbEntity
  8
OBJECT1
100
AcDbCircle
 10
17.36677804830057
 20
13.8799331764319
 30
0.0
 40
0.01758065625
100
AcDbArc
 50
315.012238
 51
44.99213400000471
  0
ARC
  5
89E
330
1F
100
AcDbEntity
  8
OBJECT1
100
AcDbCircle
 10
17.32744707870382
 20
13.48579845257901
 30
0.0
 40
0.01772521875
100
AcDbArc
 50
135.0312189999992
 51
224.9687810000007
  0
LINE
  5
89F
330
1F
100
AcDbEntity
  8
OBJECT1
100
AcDbLine
 10
17.39634292307437
 20
13.57976114395427
 30
0.0
 11
17.31490669461907
 21
13.49832491549901
 31
0.0
  0
ARC
  5
8A0
330
1F
100
AcDbEntity
  8
OBJECT1
100
AcDbCircle
 10
17.30204980290997
 20
13.7654817125184
 30
0.0
 40
0.0175786875
100
AcDbArc
 50
135.0052490000036
 51
224.9978029999986
  0
ARC
  5
8A1
330
1F
100
AcDbEntity
  8
OBJECT1
100
AcDbCircle
 10
17.21175911704939
 20
14.03495489191604
 30
0.0
 40
0.01757953125
100
AcDbArc
 50
45.00065599999448
 51
134.9947549999931
  0
LINE
  5
8A2
330
1F
100
AcDbEntity
  8
OBJECT2
100
AcDbLine
 10
16.79607482668503
 20
16.12669281011943
 30
0.0
 11
16.79607482668503
 21
17.7312570344645
 31
0.0
  0
LINE
  5
8A3
330
1F
100
AcDbEntity
  8
OBJECT1
100
AcDbLine
 10
15.08657063091092
 20
18.24381864951988
 30
0.0
 11
11.66756223936272
 21
18.69848501326544
 31
0.0
  0
LINE
  5
8A4
330
1F
100
AcDbEntity
  8
OBJECT2
100
AcDbLine
 10
18.50557902245917
 20
17.7312570344645
 30
0.0
 11
18.50557902245917
 21
18.82631292939626
 31
0.0
  0
LINE
  5
8A5
330
1F
100
AcDbEntity
  8
OBJECT1
100
AcDbLine
 10
22.47473974998486
 20
17.75048085304365
 30
0.0
 11
18.50557902245917
 21
18.82631292939626
 31
0.0
  0
TEXT
  5
8A6
330
1F
100
AcDbEntity
  8
TEXT
100
AcDbText
 10
20.06309510414504
 20
13.99520996608774
 30
0.0
 40
0.28125
  1
AIR GAP
  7
ROMANS
 72
     2
 11
21.73720224700218
 21
14.13583496608774
 31
0.0
100
AcDbText
 73
     2
  0
LINE
  5
8A8
330
1F
100
AcDbEntity
  8
OBJECT2
100
AcDbLine
 10
18.50557902245917
 20
14.52212858577445
 30
0.0
 11
18.50557902245917
 21
16.12669281011943
 31
0.0
  0
LINE
  5
8A9
330
1F
100
AcDbEntity
  8
TEXT
100
AcDbLine
 10
19.55841647467193
 20
14.10398171828981
 30
0.0
 11
19.83966647467193
 21
14.10398171828981
 31
0.0
  0
LINE
  5
8AA
330
1F
100
AcDbEntity
  8
OBJECT1
100
AcDbLine
 10
18.59904282149761
 20
13.54192768047812
 30
0.0
 11
18.79873715693173
 21
13.54192728273054
 31
0.0
  0
LINE
  5
8AB
330
1F
100
AcDbEntity
  8
OBJECT1
100
AcDbLine
 10
18.79873699107631
 20
13.50713126413543
 30
0.0
 11
18.59904305338977
 21
13.50711376324258
 31
0.0
  0
LINE
  5
8AC
330
1F
100
AcDbEntity
  8
OBJECT2
100
AcDbLine
 10
18.38247505859241
 20
13.47383775641475
 30
0.0
 11
18.52310010210867
 21
13.47383755754091
 31
0.0
  0
LINE
  5
8AD
330
1F
100
AcDbEntity
  8
OBJECT2
100
AcDbLine
 10
18.52311760300152
 20
13.45977916987655
 30
0.0
 11
18.38247466084483
 21
13.45977061830396
 31
0.0
  0
LINE
  5
8AE
330
1F
100
AcDbEntity
  8
OBJECT1
100
AcDbLine
 10
18.37404638995484
 20
13.6017855906841
 30
0.0
 11
18.3918994882575
 21
13.60662677516438
 31
0.0
  0
LINE
  5
8AF
330
1F
100
AcDbEntity
  8
OBJECT1
100
AcDbLine
 10
18.39196829858612
 20
13.53633125711465
 30
0.0
 11
18.37404678770242
 21
13.54121460283673
 31
0.0
  0
LINE
  5
8B0
330
1F
100
AcDbEntity
  8
OBJECT2
100
AcDbLine
 10
18.40005311445425
 20
13.48937337853326
 30
0.0
 11
18.37650108904864
 21
13.49490942800861
 31
0.0
  0
LINE
  5
8B1
330
1F
100
AcDbEntity
  8
OBJECT1
100
AcDbLine
 10
18.41061013030904
 20
13.49490962688244
 30
0.0
 11
18.37650108904864
 21
13.49490942800861
 31
0.0
  0
LINE
  5
8B2
330
1F
100
AcDbEntity
  8
OBJECT1
100
AcDbLine
 10
18.41060364476921
 20
13.51275637077333
 30
0.0
 11
18.33995484958725
 21
13.51275422264563
 31
0.0
  0
LINE
  5
8B3
330
1F
100
AcDbEntity
  8
OBJECT1
100
AcDbLine
 10
18.39196829858612
 20
13.53633125711465
 30
0.0
 11
18.31217993829022
 21
13.53633105824082
 31
0.0
  0
LINE
  5
8B4
330
1F
100
AcDbEntity
  8
OBJECT1
100
AcDbLine
 10
18.32011062697715
 20
13.51275377586489
 30
0.0
 11
18.32009372270563
 21
13.45975291853736
 31
0.0
  0
LINE
  5
8B5
330
1F
100
AcDbEntity
  8
OBJECT1
100
AcDbLine
 10
18.35294906364299
 20
13.48933877449522
 30
0.0
 11
18.35294966026437
 21
13.47385545618135
 31
0.0
  0
LINE
  5
8B6
330
1F
100
AcDbEntity
  8
OBJECT1
100
AcDbLine
 10
18.33995484958725
 20
13.51275422264563
 30
0.0
 11
18.3399548495873
 21
13.45976206673128
 31
0.0
  0
LINE
  5
8B7
330
1F
100
AcDbEntity
  8
OBJECT1
100
AcDbLine
 10
18.31382809716927
 20
13.4597704801493
 30
0.0
 11
18.32009372766943
 21
13.45976848176798
 31
0.0
  0
ARC
  5
8B8
330
1F
100
AcDbEntity
  8
OBJECT1
100
AcDbCircle
 10
18.31380951006165
 20
13.45415760467486
 30
0.0
 40
0.00561290625
100
AcDbArc
 50
89.81026500000355
 51
180.0929259999956
  0
LINE
  5
8B9
330
1F
100
AcDbEntity
  8
OBJECT1
100
AcDbLine
 10
18.32011042810336
 20
13.51275361926167
 30
0.0
 11
18.31217954054264
 21
13.51275337811731
 31
0.0
  0
LINE
  5
8BA
330
1F
100
AcDbEntity
  8
OBJECT2
100
AcDbLine
 10
18.31217993829022
 20
13.53633105824082
 30
0.0
 11
18.31217954054264
 21
13.51275337811731
 31
0.0
  0
ARC
  5
8BB
330
1F
100
AcDbEntity
  8
OBJECT1
100
AcDbCircle
 10
18.30655429728234
 20
13.51277405186397
 30
0.0
 40
0.00562528125
100
AcDbArc
 50
269.9459080000016
 51
359.7894289999936
  0
LINE
  5
8BC
330
1F
100
AcDbEntity
  8
OBJECT1
100
AcDbLine
 10
18.38247505859241
 20
13.47383775641475
 30
0.0
 11
18.38247466084483
 21
13.45977061830396
 31
0.0
  0
LINE
  5
8BD
330
1F
100
AcDbEntity
  8
OBJECT1
100
AcDbLine
 10
18.35294966026437
 20
13.47385545618135
 30
0.0
 11
18.38247505859241
 21
13.47383775641475
 31
0.0
  0
LINE
  5
8BE
330
1F
100
AcDbEntity
  8
OBJECT1
100
AcDbLine
 10
18.3399548495873
 20
13.45976206673128
 30
0.0
 11
18.38247466084483
 21
13.45977061830396
 31
0.0
  0
LINE
  5
8BF
330
1F
100
AcDbEntity
  8
OBJECT1
100
AcDbLine
 10
18.35294906364299
 20
13.48933877449522
 30
0.0
 11
18.37650108904864
 21
13.49490942800861
 31
0.0
  0
LINE
  5
8C0
330
1F
100
AcDbEntity
  8
OBJECT1
100
AcDbLine
 10
18.37404678770242
 20
13.54121460283673
 30
0.0
 11
18.37404638995484
 21
13.6017855906841
 31
0.0
  0
ARC
  5
8C1
330
1F
100
AcDbEntity
  8
OBJECT1
100
AcDbCircle
 10
18.30655353307653
 20
13.53633447312182
 30
0.0
 40
0.00562640625
100
AcDbArc
 50
359.965225000006
 51
90.04248799999928
  0
ARC
  5
8C2
330
1F
100
AcDbEntity
  8
OBJECT1
100
AcDbCircle
 10
18.12397444292374
 20
13.51274083994235
 30
0.0
 40
0.00558365625
100
AcDbArc
 50
179.5134279999995
 51
270.4846040000034
  0
LINE
  5
8C3
330
1F
100
AcDbEntity
  8
OBJECT1
100
AcDbLine
 10
18.11839026644652
 20
13.53631363264347
 30
0.0
 11
18.11839098801605
 21
13.51278825736398
 31
0.0
  0
ARC
  5
8C4
330
1F
100
AcDbEntity
  8
OBJECT1
100
AcDbCircle
 10
18.12400370865904
 20
13.53633089339373
 30
0.0
 40
0.00561346875
100
AcDbArc
 50
89.81996500000091
 51
180.1761780000056
  0
LINE
  5
8C5
330
1F
100
AcDbEntity
  8
OBJECT1
100
AcDbLine
 10
18.12489665194119
 20
13.54194430477034
 30
0.0
 11
18.30654915785332
 21
13.54196101016802
 31
0.0
  0
LINE
  5
8C6
330
1F
100
AcDbEntity
  8
OBJECT1
100
AcDbLine
 10
18.12402177488391
 20
13.50715725963311
 30
0.0
 11
18.30654892769021
 21
13.50714890693419
 31
0.0
  0
LINE
  5
8C7
330
1F
100
AcDbEntity
  8
OBJECT1
100
AcDbLine
 10
18.39191659140277
 20
13.60664387830965
 30
0.0
 11
18.51369337221018
 21
13.6066263774168
 31
0.0
  0
LINE
  5
8C8
330
1F
100
AcDbEntity
  8
OBJECT2
100
AcDbLine
 10
18.45280498180648
 20
13.60662677516438
 30
0.0
 11
18.41061052805658
 21
13.60125380219045
 31
0.0
  0
LINE
  5
8C9
330
1F
100
AcDbEntity
  8
OBJECT2
100
AcDbLine
 10
18.51364206277438
 20
13.53633085936706
 30
0.0
 11
18.39196829858612
 21
13.53633125711465
 31
0.0
  0
LINE
  5
8CA
330
1F
100
AcDbEntity
  8
OBJECT2
100
AcDbLine
 10
18.41060364476921
 20
13.51275637077333
 30
0.0
 11
18.49498162132722
 21
13.51275893634664
 31
0.0
  0
LINE
  5
8CB
330
1F
100
AcDbEntity
  8
OBJECT2
100
AcDbLine
 10
18.49498213353727
 20
13.49489192711575
 30
0.0
 11
18.41059302716377
 21
13.49490922913486
 31
0.0
  0
LINE
  5
8CC
330
1F
100
AcDbEntity
  8
OBJECT2
100
AcDbLine
 10
18.40005311445425
 20
13.48937337853326
 30
0.0
 11
18.45280498180648
 21
13.49490903026111
 31
0.0
  0
LINE
  5
8CD
330
1F
100
AcDbEntity
  8
OBJECT2
100
AcDbLine
 10
18.41061013030904
 20
13.54170423008858
 30
0.0
 11
18.45280498180648
 21
13.53633085936706
 31
0.0
  0
LINE
  5
8CE
330
1F
100
AcDbEntity
  8
OBJECT2
100
AcDbLine
 10
18.49498173578973
 20
13.57147941388706
 30
0.0
 11
18.49498173578973
 21
13.54170442896233
 31
0.0
  0
LINE
  5
8CF
330
1F
100
AcDbEntity
  8
OBJECT2
100
AcDbLine
 10
18.51369337221018
 20
13.6066263774168
 30
0.0
 11
18.49498133804219
 21
13.60125439881179
 31
0.0
  0
LINE
  5
8D0
330
1F
100
AcDbEntity
  8
OBJECT1
100
AcDbLine
 10
18.53154607276526
 20
13.60177763573275
 30
0.0
 11
18.51369337221018
 21
13.6066263774168
 31
0.0
  0
LINE
  5
8D1
330
1F
100
AcDbEntity
  8
OBJECT2
100
AcDbLine
 10
18.49498133804219
 20
13.60125439881179
 30
0.0
 11
18.45280498180648
 21
13.60662677516438
 31
0.0
  0
LINE
  5
8D2
330
1F
100
AcDbEntity
  8
OBJECT2
100
AcDbLine
 10
18.49498173578973
 20
13.57147941388706
 30
0.0
 11
18.49498133804219
 21
13.60125439881179
 31
0.0
  0
LINE
  5
8D3
330
1F
100
AcDbEntity
  8
OBJECT2
100
AcDbLine
 10
18.50553934826585
 20
13.48937337853326
 30
0.0
 11
18.45280498180648
 21
13.49490903026111
 31
0.0
  0
LINE
  5
8D4
330
1F
100
AcDbEntity
  8
OBJECT1
100
AcDbLine
 10
18.49498213353727
 20
13.49489192711575
 30
0.0
 11
18.52909077705012
 21
13.49489172824201
 31
0.0
  0
LINE
  5
8D5
330
1F
100
AcDbEntity
  8
OBJECT2
100
AcDbLine
 10
18.50553934826585
 20
13.48937337853326
 30
0.0
 11
18.50553934826585
 21
13.47383775641466
 31
0.0
  0
LINE
  5
8D6
330
1F
100
AcDbEntity
  8
OBJECT1
100
AcDbLine
 10
18.55264320020332
 20
13.48935647426182
 30
0.0
 11
18.55264320020332
 21
13.47384670573492
 31
0.0
  0
LINE
  5
8D7
330
1F
100
AcDbEntity
  8
OBJECT1
100
AcDbLine
 10
18.55264320020332
 20
13.47384670573492
 30
0.0
 11
18.52310010210867
 21
13.47383755754091
 31
0.0
  0
LINE
  5
8D8
330
1F
100
AcDbEntity
  8
OBJECT1
100
AcDbLine
 10
18.52310010210867
 20
13.47383755754091
 30
0.0
 11
18.52311760300152
 21
13.45977916987655
 31
0.0
  0
LINE
  5
8D9
330
1F
100
AcDbEntity
  8
OBJECT1
100
AcDbLine
 10
18.52311760300152
 20
13.45977916987655
 30
0.0
 11
18.55827371472523
 21
13.45976166898378
 31
0.0
  0
LINE
  5
8DA
330
1F
100
AcDbEntity
  8
OBJECT1
100
AcDbLine
 10
18.51364206277438
 20
13.53633085936706
 30
0.0
 11
18.53154527727018
 21
13.54120664788547
 31
0.0
  0
LINE
  5
8DB
330
1F
100
AcDbEntity
  8
OBJECT1
100
AcDbLine
 10
18.55264320020332
 20
13.48935647426182
 30
0.0
 11
18.52909077705012
 21
13.49489172824201
 31
0.0
  0
LINE
  5
8DC
330
1F
100
AcDbEntity
  8
OBJECT2
100
AcDbLine
 10
18.50553934826585
 20
13.48937337853326
 30
0.0
 11
18.52909077705012
 21
13.49489172824201
 31
0.0
  0
LINE
  5
8DD
330
1F
100
AcDbEntity
  8
OBJECT1
100
AcDbLine
 10
18.49498162132722
 20
13.51275893634664
 30
0.0
 11
18.49498213353727
 21
13.49489192711575
 31
0.0
  0
ARC
  5
8DE
330
1F
100
AcDbEntity
  8
OBJECT1
100
AcDbCircle
 10
18.59908461801023
 20
13.51276913698731
 30
0.0
 40
0.00565453125
100
AcDbArc
 50
180.0730290000054
 51
269.5811160000003
  0
LINE
  5
8DF
330
1F
100
AcDbEntity
  8
OBJECT2
100
AcDbLine
 10
18.59343022419652
 20
13.53631415396938
 30
0.0
 11
18.5934294287014
 21
13.51276192968998
 31
0.0
  0
LINE
  5
8E0
330
1F
100
AcDbEntity
  8
OBJECT1
100
AcDbLine
 10
18.59343009135341
 20
13.51276192974353
 30
0.0
 11
18.49498162132722
 21
13.51275893634664
 31
0.0
  0
LINE
  5
8E1
330
1F
100
AcDbEntity
  8
OBJECT1
100
AcDbLine
 10
18.51364206277438
 20
13.53633085936706
 30
0.0
 11
18.59343022419652
 21
13.53631415396938
 31
0.0
  0
LINE
  5
8E2
330
1F
100
AcDbEntity
  8
OBJECT1
100
AcDbLine
 10
18.53154607276526
 20
13.60177763573275
 30
0.0
 11
18.53154527727018
 21
13.54120664788547
 31
0.0
  0
LINE
  5
8E3
330
1F
100
AcDbEntity
  8
OBJECT2
100
AcDbLine
 10
18.49498173578973
 20
13.54170442896233
 30
0.0
 11
18.51364206277438
 21
13.53633085936706
 31
0.0
  0
ARC
  5
8E4
330
1F
100
AcDbEntity
  8
OBJECT1
100
AcDbCircle
 10
18.59902850258531
 20
13.5363281902662
 30
0.0
 40
0.0055996875
100
AcDbArc
 50
89.85251199999874
 51
180.1436159999986
  0
LINE
  5
8E5
330
1F
100
AcDbEntity
  8
OBJECT2
100
AcDbLine
 10
18.45280498180648
 20
13.53633085936706
 30
0.0
 11
18.49498173578973
 21
13.54170442896233
 31
0.0
  0
LINE
  5
8E6
330
1F
100
AcDbEntity
  8
OBJECT2
100
AcDbLine
 10
18.41060993143524
 20
13.57152197287644
 30
0.0
 11
18.41061013030904
 21
13.54170423008858
 31
0.0
  0
LINE
  5
8E7
330
1F
100
AcDbEntity
  8
OBJECT2
100
AcDbLine
 10
18.3918994882575
 20
13.60662677516438
 30
0.0
 11
18.41061052805658
 21
13.60125380219045
 31
0.0
  0
LINE
  5
8E8
330
1F
100
AcDbEntity
  8
OBJECT2
100
AcDbLine
 10
18.41060993143524
 20
13.57152197287644
 30
0.0
 11
18.41061052805658
 21
13.60125380219045
 31
0.0
  0
LINE
  5
8E9
330
1F
100
AcDbEntity
  8
OBJECT2
100
AcDbLine
 10
18.40005311445425
 20
13.48937337853326
 30
0.0
 11
18.40005311445425
 21
13.47383815416225
 31
0.0
  0
LINE
  5
8EA
330
1F
100
AcDbEntity
  8
OBJECT1
100
AcDbLine
 10
18.41060364476921
 20
13.51275637077333
 30
0.0
 11
18.41059302716377
 21
13.49490922913486
 31
0.0
  0
LINE
  5
8EB
330
1F
100
AcDbEntity
  8
OBJECT2
100
AcDbLine
 10
18.39196829858612
 20
13.53633125711465
 30
0.0
 11
18.41061013030904
 21
13.54170423008858
 31
0.0
  0
ARC
  5
8EC
330
1F
100
AcDbEntity
  8
OBJECT1
100
AcDbCircle
 10
18.79875071336728
 20
13.51273015772594
 30
0.0
 40
0.00559884375
100
AcDbArc
 50
269.8602600000039
 51
0.3182679999992022
  0
LINE
  5
8ED
330
1F
100
AcDbEntity
  8
OBJECT1
100
AcDbLine
 10
18.80435109638546
 20
13.53631417596796
 30
0.0
 11
18.80434947073834
 21
13.51276125816051
 31
0.0
  0
ARC
  5
8EE
330
1F
100
AcDbEntity
  8
OBJECT1
100
AcDbCircle
 10
18.79878110803757
 20
13.53635742471223
 30
0.0
 40
0.00557015625
100
AcDbArc
 50
359.5551299999998
 51
90.45261400000036
  0
LINE
  5
8EF
330
1F
100
AcDbEntity
  8
OBJECT2
100
AcDbLine
 10
20.21508321823327
 20
14.38429680273552
 30
0.0
 11
20.21508321823327
 21
14.52212858577445
 31
0.0
  0
LINE
  5
8F0
330
1F
100
AcDbEntity
  8
OBJECT2
100
AcDbLine
 10
20.21508321823327
 20
16.12669281011943
 30
0.0
 11
20.21508321823327
 21
17.7312570344645
 31
0.0
  0
LINE
  5
8F1
330
1F
100
AcDbEntity
  8
OBJECT2
100
AcDbLine
 10
21.92458741400737
 20
14.80296880961316
 30
0.0
 11
21.92458741400737
 21
16.12669281011943
 31
0.0
  0
LINE
  5
8F2
330
1F
100
AcDbEntity
  8
OBJECT1
100
AcDbLine
 10
22.07603585958452
 20
14.52212858577445
 30
0.0
 11
22.47473974998486
 21
17.75048085304365
 31
0.0
  0
LINE
  5
8F3
330
1F
100
AcDbEntity
  8
OBJECT2
100
AcDbLine
 10
21.92458741400737
 20
14.52212858577445
 30
0.0
 11
21.92458741400737
 21
14.77433304030853
 31
0.0
  0
LINE
  5
908
330
1F
100
AcDbEntity
  8
0
100
AcDbLine
 10
15.51674764937254
 20
13.35779436618398
 30
0.0
 11
15.51673034735348
 21
13.00624895997549
 31
0.0
  0
ENDSEC
  0
SECTION
  2
OBJECTS
  0
DICTIONARY
  5
C
330
0
100
AcDbDictionary
  3
ACAD_GROUP
350
D
  3
ACAD_LAYOUT
350
1A
  3
ACAD_MLINESTYLE
350
17
  3
ACAD_PLOTSETTINGS
350
19
  3
ACAD_PLOTSTYLENAME
350
E
  3
ACDBHEADERROUNDTRIPXREC
350
C55
  3
ACDBVARIABLEDICTIONARY
350
178
  0
DICTIONARY
  5
C77
330
1F
100
AcDbDictionary
280
     1
  3
ACAD_LAYOUTSELFREF
360
C78
  0
DICTIONARY
  5
C75
330
1B
100
AcDbDictionary
280
     1
  3
ACAD_LAYOUTSELFREF
360
C76
  0
DICTIONARY
  5
D
102
{ACAD_REACTORS
330
C
102
}
330
C
100
AcDbDictionary
  0
DICTIONARY
  5
1A
102
{ACAD_REACTORS
330
C
102
}
330
C
100
AcDbDictionary
  0
DICTIONARY
  5
17
102
{ACAD_REACTORS
330
C
102
}
330
C
100
AcDbDictionary
  3
STANDARD
350
18
  0
DICTIONARY
  5
19
102
{ACAD_REACTORS
330
C
102
}
330
C
100
AcDbDictionary
  0
ACDBDICTIONARYWDFLT
  5
E
102
{ACAD_REACTORS
330
C
102
}
330
C
100
AcDbDictionary
281
     1
  3
Normal
350
F
100
AcDbDictionaryWithDefault
340
F
  0
DICTIONARY
  5
C55
102
{ACAD_REACTORS
330
C
102
}
330
C
100
AcDbDictionary
  3
CEPSNTYPE
350
C5F
  3
FINGERPRINTGUID
350
C60
  3
HYPERLINKBASE
350
C58
  3
INSUNITS
350
C5E
  3
LAYOUTDICT
350
C5A
  3
LWETCUNION
350
C5D
  3
PLOTSETDICT
350
C5B
  3
PLOTSTYLNAMDICT
350
C5C
  3
PSVPSCALE
350
C62
  3
PUCSBASE
350
C65
  3
PUCSORGBACK
350
C6B
  3
PUCSORGBOTTOM
350
C67
  3
PUCSORGFRONT
350
C6A
  3
PUCSORGLEFT
350
C68
  3
PUCSORGRIGHT
350
C69
  3
PUCSORGTOP
350
C66
  3
PUCSORTHOREF
350
C63
  3
PUCSORTHOVIEW
350
C64
  3
STYLESHEET
350
C59
  3
TSTACKALIGN
350
C56
  3
TSTACKSIZE
350
C57
  3
UCSBASE
350
C6E
  3
UCSORGBACK
350
C74
  3
UCSORGBOTTOM
350
C70
  3
UCSORGFRONT
350
C73
  3
UCSORGLEFT
350
C71
  3
UCSORGRIGHT
350
C72
  3
UCSORGTOP
350
C6F
  3
UCSORTHOREF
350
C6C
  3
UCSORTHOVIEW
350
C6D
  3
VERSIONGUID
350
C61
  0
DICTIONARY
  5
178
102
{ACAD_REACTORS
330
C
102
}
330
C
100
AcDbDictionary
  3
DIMASSOC
350
8F5
  3
SORTENTS
350
179
  0
XRECORD
  5
C78
102
{ACAD_REACTORS
330
C77
102
}
330
C77
100
AcDbXrecord
340
1F
  0
XRECORD
  5
C76
102
{ACAD_REACTORS
330
C75
102
}
330
C75
100
AcDbXrecord
340
1B
  0
MLINESTYLE
  5
18
102
{ACAD_REACTORS
330
17
102
}
330
17
100
AcDbMlineStyle
  2
STANDARD
 70
     0
  3

 62
   256
 51
90.0
 52
90.0
 71
     2
 49
0.5
 62
   256
  6
BYLAYER
 49
-0.5
 62
   256
  6
BYLAYER
  0
ACDBPLACEHOLDER
  5
F
102
{ACAD_REACTORS
330
E
102
}
330
E
100
AcDbPlaceHolder
280
     0
  0
XRECORD
  5
C5F
102
{ACAD_REACTORS
330
C55
102
}
330
C55
100
AcDbXrecord
 90
        0
  0
XRECORD
  5
C60
102
{ACAD_REACTORS
330
C55
102
}
330
C55
100
AcDbXrecord
  1
{FDEAD576-A652-11D2-9A35-0060089B3A3F}
  0
XRECORD
  5
C58
102
{ACAD_REACTORS
330
C55
102
}
330
C55
100
AcDbXrecord
  1

  0
XRECORD
  5
C5E
102
{ACAD_REACTORS
330
C55
102
}
330
C55
100
AcDbXrecord
 90
        1
  0
XRECORD
  5
C5A
102
{ACAD_REACTORS
330
C55
102
}
330
C55
100
AcDbXrecord
340
1A
  0
XRECORD
  5
C5D
102
{ACAD_REACTORS
330
C55
102
}
330
C55
100
AcDbXrecord
 90
    11805
  0
XRECORD
  5
C5B
102
{ACAD_REACTORS
330
C55
102
}
330
C55
100
AcDbXrecord
340
19
  0
XRECORD
  5
C5C
102
{ACAD_REACTORS
330
C55
102
}
330
C55
100
AcDbXrecord
340
E
  0
XRECORD
  5
C62
102
{ACAD_REACTORS
330
C55
102
}
330
C55
100
AcDbXrecord
 40
0.0
  0
XRECORD
  5
C65
102
{ACAD_REACTORS
330
C55
102
}
330
C55
100
AcDbXrecord
340
0
  0
XRECORD
  5
C6B
102
{ACAD_REACTORS
330
C55
102
}
330
C55
100
AcDbXrecord
 10
0.0
 20
0.0
 30
0.0
  0
XRECORD
  5
C67
102
{ACAD_REACTORS
330
C55
102
}
330
C55
100
AcDbXrecord
 10
0.0
 20
0.0
 30
0.0
  0
XRECORD
  5
C6A
102
{ACAD_REACTORS
330
C55
102
}
330
C55
100
AcDbXrecord
 10
0.0
 20
0.0
 30
0.0
  0
XRECORD
  5
C68
102
{ACAD_REACTORS
330
C55
102
}
330
C55
100
AcDbXrecord
 10
0.0
 20
0.0
 30
0.0
  0
XRECORD
  5
C69
102
{ACAD_REACTORS
330
C55
102
}
330
C55
100
AcDbXrecord
 10
0.0
 20
0.0
 30
0.0
  0
XRECORD
  5
C66
102
{ACAD_REACTORS
330
C55
102
}
330
C55
100
AcDbXrecord
 10
0.0
 20
0.0
 30
0.0
  0
XRECORD
  5
C63
102
{ACAD_REACTORS
330
C55
102
}
330
C55
100
AcDbXrecord
340
0
  0
XRECORD
  5
C64
102
{ACAD_REACTORS
330
C55
102
}
330
C55
100
AcDbXrecord
 70
     0
  0
XRECORD
  5
C59
102
{ACAD_REACTORS
330
C55
102
}
330
C55
100
AcDbXrecord
  1
WILKINS.ctb
  0
XRECORD
  5
C56
102
{ACAD_REACTORS
330
C55
102
}
330
C55
100
AcDbXrecord
 90
        1
  0
XRECORD
  5
C57
102
{ACAD_REACTORS
330
C55
102
}
330
C55
100
AcDbXrecord
 90
       70
  0
XRECORD
  5
C6E
102
{ACAD_REACTORS
330
C55
102
}
330
C55
100
AcDbXrecord
340
0
  0
XRECORD
  5
C74
102
{ACAD_REACTORS
330
C55
102
}
330
C55
100
AcDbXrecord
 10
0.0
 20
0.0
 30
0.0
  0
XRECORD
  5
C70
102
{ACAD_REACTORS
330
C55
102
}
330
C55
100
AcDbXrecord
 10
0.0
 20
0.0
 30
0.0
  0
XRECORD
  5
C73
102
{ACAD_REACTORS
330
C55
102
}
330
C55
100
AcDbXrecord
 10
0.0
 20
0.0
 30
0.0
  0
XRECORD
  5
C71
102
{ACAD_REACTORS
330
C55
102
}
330
C55
100
AcDbXrecord
 10
0.0
 20
0.0
 30
0.0
  0
XRECORD
  5
C72
102
{ACAD_REACTORS
330
C55
102
}
330
C55
100
AcDbXrecord
 10
0.0
 20
0.0
 30
0.0
  0
XRECORD
  5
C6F
102
{ACAD_REACTORS
330
C55
102
}
330
C55
100
AcDbXrecord
 10
0.0
 20
0.0
 30
0.0
  0
XRECORD
  5
C6C
102
{ACAD_REACTORS
330
C55
102
}
330
C55
100
AcDbXrecord
340
0
  0
XRECORD
  5
C6D
102
{ACAD_REACTORS
330
C55
102
}
330
C55
100
AcDbXrecord
 70
     0
  0
XRECORD
  5
C61
102
{ACAD_REACTORS
330
C55
102
}
330
C55
100
AcDbXrecord
  1
{247A5046-F340-4687-9663-F9FF0194B538}
  0
DICTIONARYVAR
  5
8F5
102
{ACAD_REACTORS
330
178
102
}
330
178
100
DictionaryVariables
280
     0
  1
1
  0
DICTIONARYVAR
  5
179
102
{ACAD_REACTORS
330
178
102
}
330
178
100
DictionaryVariables
280
     0
  1
96
  0
ENDSEC
  0
EOF
